ISO-10303-21;
HEADER;
FILE_DESCRIPTION (( 'STEP AP203' ),
    '1' );
FILE_NAME ('321635.step',
    '2021-12-02T09:36:23',
    ( '' ),
    ( '' ),
    'SwSTEP 2.0',
    'SolidWorks 2019',
    '' );
FILE_SCHEMA (( 'CONFIG_CONTROL_DESIGN' ));
ENDSEC;

DATA;
#1 = CARTESIAN_POINT ( 'NONE',  ( 3.491481338843133355E-14, 2.044999999999988827, 10.00000000000000000 ) ) ;
#2 = APPLICATION_PROTOCOL_DEFINITION ( 'international standard', 'config_control_design', 1994, #21 ) ;
#3 = EDGE_CURVE ( 'NONE', #168, #168, #165, .T. ) ;
#4 = CARTESIAN_POINT ( 'NONE',  ( 3.491481338843133355E-14, -1.224646799147353256E-15, 10.00000000000000000 ) ) ;
#5 = ADVANCED_FACE ( 'NONE', ( #79, #174 ), #131, .T. ) ;
#6 = DIRECTION ( 'NONE',  ( -3.491481338843133355E-15, 1.224646799147353207E-16, -1.000000000000000000 ) ) ;
#7 = PERSON_AND_ORGANIZATION ( #258, #94 ) ;
#8 = EDGE_LOOP ( 'NONE', ( #81 ) ) ;
#9 = ADVANCED_FACE ( 'NONE', ( #176, #263 ), #161, .T. ) ;
#10 = AXIS2_PLACEMENT_3D ( 'NONE', #143, #272, #299 ) ;
#11 = APPROVAL_PERSON_ORGANIZATION ( #78, #225, #13 ) ;
#12 = DIRECTION ( 'NONE',  ( -3.491481338843133355E-15, 1.224646799147353207E-16, -1.000000000000000000 ) ) ;
#13 = APPROVAL_ROLE ( '' ) ;
#14 = ORIENTED_EDGE ( 'NONE', *, *, #153, .F. ) ;
#15 = PERSON_AND_ORGANIZATION ( #258, #94 ) ;
#16 = EDGE_LOOP ( 'NONE', ( #129 ) ) ;
#17 = CIRCLE ( 'NONE', #227, 2.044999999999990159 ) ;
#18 = EDGE_LOOP ( 'NONE', ( #196 ) ) ;
#19 = PRODUCT_DEFINITION ( 'UNKNOWN', '', #162, #273 ) ;
#20 = PRODUCT ( '321635', '321635', '', ( #53 ) ) ;
#21 = APPLICATION_CONTEXT ( 'configuration controlled 3d designs of mechanical parts and assemblies' ) ;
#22 = FACE_OUTER_BOUND ( 'NONE', #35, .T. ) ;
#23 = EDGE_CURVE ( 'NONE', #31, #31, #228, .T. ) ;
#24 = AXIS2_PLACEMENT_3D ( 'NONE', #218, #111, #288 ) ;
#25 = AXIS2_PLACEMENT_3D ( 'NONE', #118, #200, #180 ) ;
#26 = CARTESIAN_POINT ( 'NONE',  ( -7.675117445384993133E-31, 2.692068809878017930E-32, -2.198241004469485388E-16 ) ) ;
#27 = CARTESIAN_POINT ( 'NONE',  ( 2.444036937190193601E-13, 8.998558695971026591E-33, 70.00000000000000000 ) ) ;
#28 = DIRECTION ( 'NONE',  ( 0.0000000000000000000, 1.000000000000000000, 0.0000000000000000000 ) ) ;
#29 = CARTESIAN_POINT ( 'NONE',  ( 0.0000000000000000000, 0.0000000000000000000, 0.0000000000000000000 ) ) ;
#30 = FACE_OUTER_BOUND ( 'NONE', #239, .T. ) ;
#31 = VERTEX_POINT ( 'NONE', #1 ) ;
#32 = AXIS2_PLACEMENT_3D ( 'NONE', #166, #95, #248 ) ;
#33 = DIRECTION ( 'NONE',  ( 0.0000000000000000000, 1.000000000000000000, 0.0000000000000000000 ) ) ;
#34 = MANIFOLD_SOLID_BREP ( 'Corps-Déplacer/Copier1[1]', #88 ) ;
#35 = EDGE_LOOP ( 'NONE', ( #85 ) ) ;
#36 = APPROVAL_DATE_TIME ( #286, #298 ) ;
#37 = EDGE_LOOP ( 'NONE', ( #108 ) ) ;
#38 = SECURITY_CLASSIFICATION ( '', '', #172 ) ;
#39 = PERSON_AND_ORGANIZATION_ROLE ( 'creator' ) ;
#40 = DIRECTION ( 'NONE',  ( -3.491481338843133355E-15, 1.224646799147353207E-16, -1.000000000000000000 ) ) ;
#41 = COORDINATED_UNIVERSAL_TIME_OFFSET ( 1, 0, .AHEAD. ) ;
#42 = EDGE_LOOP ( 'NONE', ( #243 ) ) ;
#43 = DATE_AND_TIME ( #157, #302 ) ;
#44 = CIRCLE ( 'NONE', #254, 1.200000000000001510 ) ;
#45 = DIRECTION ( 'NONE',  ( -3.491481338843133355E-15, 1.224646799147353207E-16, -1.000000000000000000 ) ) ;
#46 = DIRECTION ( 'NONE',  ( -3.491481338843133355E-15, 1.224646799147353207E-16, -1.000000000000000000 ) ) ;
#47 = DIRECTION ( 'NONE',  ( 4.275831445896958607E-31, 1.000000000000000000, 1.224646799147353207E-16 ) ) ;
#48 = CIRCLE ( 'NONE', #210, 1.499999999999994005 ) ;
#49 = DIRECTION ( 'NONE',  ( 0.0000000000000000000, 1.000000000000000000, 0.0000000000000000000 ) ) ;
#50 = PRODUCT_DEFINITION_SHAPE ( 'NONE', 'NONE',  #19 ) ;
#51 = DIRECTION ( 'NONE',  ( 4.275831445896958607E-31, 1.000000000000000000, 1.224646799147353207E-16 ) ) ;
#52 = PERSON_AND_ORGANIZATION ( #258, #94 ) ;
#53 = MECHANICAL_CONTEXT ( 'NONE', #292, 'mechanical' ) ;
#54 = ADVANCED_FACE ( 'NONE', ( #82, #177 ), #60, .T. ) ;
#55 = PLANE ( 'NONE',  #255 ) ;
#56 = CARTESIAN_POINT ( 'NONE',  ( 8.728703347107837333E-16, 2.044999999999990159, 0.2500000000000001110 ) ) ;
#57 = PERSON_AND_ORGANIZATION_ROLE ( 'design_supplier' ) ;
#58 = CC_DESIGN_PERSON_AND_ORGANIZATION_ASSIGNMENT ( #265, #135, ( #162 ) ) ;
#59 = CARTESIAN_POINT ( 'NONE',  ( 3.491481338843133355E-14, -1.224646799147353256E-15, 10.00000000000000000 ) ) ;
#60 = CONICAL_SURFACE ( 'NONE', #10, 1.794999999999988827, 0.7853981633974503884 ) ;
#61 = AXIS2_PLACEMENT_3D ( 'NONE', #87, #277, #117 ) ;
#62 = AXIS2_PLACEMENT_3D ( 'NONE', #4, #170, #33 ) ;
#63 = APPROVAL_STATUS ( 'not_yet_approved' ) ;
#64 = EDGE_LOOP ( 'NONE', ( #221 ) ) ;
#65 = EDGE_LOOP ( 'NONE', ( #107 ) ) ;
#66 = PLANE ( 'NONE',  #69 ) ;
#67 = DIRECTION ( 'NONE',  ( -3.491481338843133355E-15, 1.224646799147353207E-16, -1.000000000000000000 ) ) ;
#68 = FACE_OUTER_BOUND ( 'NONE', #37, .T. ) ;
#69 = AXIS2_PLACEMENT_3D ( 'NONE', #199, #46, #51 ) ;
#70 = DIRECTION ( 'NONE',  ( -4.275831445896958607E-31, -1.000000000000000000, -1.224646799147353207E-16 ) ) ;
#71 = VERTEX_POINT ( 'NONE', #56 ) ;
#72 = APPLICATION_PROTOCOL_DEFINITION ( 'international standard', 'config_control_design', 1994, #292 ) ;
#73 = AXIS2_PLACEMENT_3D ( 'NONE', #194, #191, #285 ) ;
#74 = EDGE_CURVE ( 'NONE', #206, #206, #44, .T. ) ;
#75 = CARTESIAN_POINT ( 'NONE',  ( 2.444036937190193601E-13, 1.199999999999992628, 70.00000000000000000 ) ) ;
#76 = VERTEX_POINT ( 'NONE', #148 ) ;
#77 = ADVANCED_FACE ( 'NONE', ( #278, #142 ), #295, .T. ) ;
#78 = PERSON_AND_ORGANIZATION ( #258, #94 ) ;
#79 = FACE_OUTER_BOUND ( 'NONE', #113, .T. ) ;
#80 = COORDINATED_UNIVERSAL_TIME_OFFSET ( 1, 0, .AHEAD. ) ;
#81 = ORIENTED_EDGE ( 'NONE', *, *, #264, .T. ) ;
#82 = FACE_OUTER_BOUND ( 'NONE', #16, .T. ) ;
#83 =( GEOMETRIC_REPRESENTATION_CONTEXT ( 3 ) GLOBAL_UNCERTAINTY_ASSIGNED_CONTEXT ( ( #91 ) ) GLOBAL_UNIT_ASSIGNED_CONTEXT ( ( #125, #184, #104 ) ) REPRESENTATION_CONTEXT ( 'NONE', 'WORKASPACE' ) );
#84 = ORIENTED_EDGE ( 'NONE', *, *, #3, .F. ) ;
#85 = ORIENTED_EDGE ( 'NONE', *, *, #269, .F. ) ;
#86 = ADVANCED_FACE ( 'NONE', ( #163, #140 ), #301, .T. ) ;
#87 = CARTESIAN_POINT ( 'NONE',  ( 2.444036937190193601E-13, -8.572527594031472993E-15, 70.00000000000000000 ) ) ;
#88 = CLOSED_SHELL ( 'NONE', ( #144, #9, #77, #86, #189 ) ) ;
#89 = CC_DESIGN_PERSON_AND_ORGANIZATION_ASSIGNMENT ( #175, #39, ( #19 ) ) ;
#90 = CARTESIAN_POINT ( 'NONE',  ( 2.444036937190193601E-13, -8.572527594031472993E-15, 70.00000000000000000 ) ) ;
#91 = UNCERTAINTY_MEASURE_WITH_UNIT (LENGTH_MEASURE( 1.000000000000000082E-05 ), #125, 'distance_accuracy_value', 'NONE');
#92 = DIRECTION ( 'NONE',  ( -3.491481338843133355E-15, 1.224646799147353207E-16, -1.000000000000000000 ) ) ;
#93 = DIRECTION ( 'NONE',  ( 4.275831445896959482E-31, 1.000000000000000000, 1.224646799147353207E-16 ) ) ;
#94 = ORGANIZATION ( 'UNSPECIFIED', 'UNSPECIFIED', '' ) ;
#95 = DIRECTION ( 'NONE',  ( -3.491481338843133355E-15, 1.224646799147353207E-16, -1.000000000000000000 ) ) ;
#96 = CARTESIAN_POINT ( 'NONE',  ( 3.491481338843133355E-14, 2.044999999999988827, 10.00000000000000000 ) ) ;
#97 = CARTESIAN_POINT ( 'NONE',  ( 2.433562493173664138E-13, -8.535788190057053710E-15, 69.70000000000001705 ) ) ;
#98 = AXIS2_PLACEMENT_3D ( 'NONE', #160, #246, #70 ) ;
#99 = PERSON_AND_ORGANIZATION ( #258, #94 ) ;
#100 = CC_DESIGN_APPROVAL ( #298, ( #19 ) ) ;
#101 = CC_DESIGN_DATE_AND_TIME_ASSIGNMENT ( #128, #219, ( #38 ) ) ;
#102 = CC_DESIGN_SECURITY_CLASSIFICATION ( #38, ( #162 ) ) ;
#103 = DIRECTION ( 'NONE',  ( 4.275831445896958607E-31, 1.000000000000000000, 1.224646799147353207E-16 ) ) ;
#104 =( NAMED_UNIT ( * ) SI_UNIT ( $, .STERADIAN. ) SOLID_ANGLE_UNIT ( ) );
#105 = APPROVAL_DATE_TIME ( #43, #251 ) ;
#106 = AXIS2_PLACEMENT_3D ( 'NONE', #216, #12, #193 ) ;
#107 = ORIENTED_EDGE ( 'NONE', *, *, #23, .F. ) ;
#108 = ORIENTED_EDGE ( 'NONE', *, *, #109, .F. ) ;
#109 = EDGE_CURVE ( 'NONE', #235, #235, #281, .T. ) ;
#110 = DATE_AND_TIME ( #112, #201 ) ;
#111 = DIRECTION ( 'NONE',  ( -3.491481338843133355E-15, 1.224646799147353207E-16, -1.000000000000000000 ) ) ;
#112 = CALENDAR_DATE ( 2021, 2, 12 ) ;
#113 = EDGE_LOOP ( 'NONE', ( #198 ) ) ;
#114 = CIRCLE ( 'NONE', #182, 2.044999999999990159 ) ;
#115 = APPROVAL_ROLE ( '' ) ;
#116 = ORIENTED_EDGE ( 'NONE', *, *, #223, .F. ) ;
#117 = DIRECTION ( 'NONE',  ( 0.0000000000000000000, 1.000000000000000000, 0.0000000000000000000 ) ) ;
#118 = CARTESIAN_POINT ( 'NONE',  ( 0.0000000000000000000, 0.0000000000000000000, 0.0000000000000000000 ) ) ;
#119 = CIRCLE ( 'NONE', #146, 1.499999999999994005 ) ;
#120 = DIRECTION ( 'NONE',  ( 4.275831445896958607E-31, 1.000000000000000000, 1.224646799147353207E-16 ) ) ;
#121 = CARTESIAN_POINT ( 'NONE',  ( 8.728703347107827472E-16, -3.061616997868381169E-17, 0.2499999999999998335 ) ) ;
#122 = DIRECTION ( 'NONE',  ( 4.708875169650965738E-31, 1.000000000000000000, 1.325430528710891902E-16 ) ) ;
#123 = DIRECTION ( 'NONE',  ( 0.0000000000000000000, 0.0000000000000000000, 1.000000000000000000 ) ) ;
#124 = EDGE_CURVE ( 'NONE', #257, #257, #17, .T. ) ;
#125 =( LENGTH_UNIT ( ) NAMED_UNIT ( * ) SI_UNIT ( .MILLI., .METRE. ) );
#126 = CARTESIAN_POINT ( 'NONE',  ( 2.433562493173664138E-13, 1.499999999999992673, 69.70000000000001705 ) ) ;
#127 = DIRECTION ( 'NONE',  ( 0.0000000000000000000, 1.000000000000000000, 0.0000000000000000000 ) ) ;
#128 = DATE_AND_TIME ( #236, #151 ) ;
#129 = ORIENTED_EDGE ( 'NONE', *, *, #223, .T. ) ;
#130 = AXIS2_PLACEMENT_3D ( 'NONE', #204, #92, #93 ) ;
#131 = CYLINDRICAL_SURFACE ( 'NONE', #106, 2.044999999999990159 ) ;
#132 = APPROVAL_PERSON_ORGANIZATION ( #7, #251, #283 ) ;
#133 = COORDINATED_UNIVERSAL_TIME_OFFSET ( 1, 0, .AHEAD. ) ;
#134 = DIRECTION ( 'NONE',  ( 0.0000000000000000000, 1.000000000000000000, 0.0000000000000000000 ) ) ;
#135 = PERSON_AND_ORGANIZATION_ROLE ( 'creator' ) ;
#136 = EDGE_LOOP ( 'NONE', ( #268 ) ) ;
#137 = ORIENTED_EDGE ( 'NONE', *, *, #244, .T. ) ;
#138 = DIRECTION ( 'NONE',  ( -3.491481338843133355E-15, 1.224646799147353207E-16, -1.000000000000000000 ) ) ;
#139 = CYLINDRICAL_SURFACE ( 'NONE', #25, 1.499999999999997335 ) ;
#140 = FACE_BOUND ( 'NONE', #220, .T. ) ;
#141 = CC_DESIGN_APPROVAL ( #251, ( #162 ) ) ;
#142 = FACE_OUTER_BOUND ( 'NONE', #136, .T. ) ;
#143 = CARTESIAN_POINT ( 'NONE',  ( -7.675117445384993133E-31, 2.692068809878017930E-32, -2.198241004469485388E-16 ) ) ;
#144 = ADVANCED_FACE ( 'NONE', ( #222 ), #274, .F. ) ;
#145 = AXIS2_PLACEMENT_3D ( 'NONE', #59, #40, #134 ) ;
#146 = AXIS2_PLACEMENT_3D ( 'NONE', #185, #212, #187 ) ;
#147 = PERSON_AND_ORGANIZATION_ROLE ( 'design_owner' ) ;
#148 = CARTESIAN_POINT ( 'NONE',  ( 3.821065896297373123E-14, 1.499999999999992673, 10.94396769012502979 ) ) ;
#149 = CARTESIAN_POINT ( 'NONE',  ( -3.837558722692496567E-31, 1.346034404939008965E-32, -1.099120502234742694E-16 ) ) ;
#150 = DIRECTION ( 'NONE',  ( -3.491481338843133355E-15, 1.224646799147353207E-16, -1.000000000000000000 ) ) ;
#151 = LOCAL_TIME ( 10, 36, 23.00000000000000000, #152 ) ;
#152 = COORDINATED_UNIVERSAL_TIME_OFFSET ( 1, 0, .AHEAD. ) ;
#153 = EDGE_CURVE ( 'NONE', #207, #207, #48, .T. ) ;
#154 = ORIENTED_EDGE ( 'NONE', *, *, #109, .T. ) ;
#155 = EDGE_LOOP ( 'NONE', ( #116 ) ) ;
#156 = CC_DESIGN_PERSON_AND_ORGANIZATION_ASSIGNMENT ( #52, #147, ( #20 ) ) ;
#157 = CALENDAR_DATE ( 2021, 2, 12 ) ;
#158 = ORIENTED_EDGE ( 'NONE', *, *, #74, .T. ) ;
#159 = ORIENTED_EDGE ( 'NONE', *, *, #74, .F. ) ;
#160 = CARTESIAN_POINT ( 'NONE',  ( 3.491481338843133355E-14, 1.533504377771740071E-32, 10.00000000000000000 ) ) ;
#161 = CONICAL_SURFACE ( 'NONE', #145, 2.044999999999990159, 0.5235987755983000369 ) ;
#162 = PRODUCT_DEFINITION_FORMATION_WITH_SPECIFIED_SOURCE ( 'ANY', '', #20, .NOT_KNOWN. ) ;
#163 = FACE_OUTER_BOUND ( 'NONE', #291, .T. ) ;
#164 = FACE_OUTER_BOUND ( 'NONE', #42, .T. ) ;
#165 = CIRCLE ( 'NONE', #73, 1.500000000000001110 ) ;
#166 = CARTESIAN_POINT ( 'NONE',  ( 2.444036937190193601E-13, -8.572527594031472993E-15, 70.00000000000000000 ) ) ;
#167 = ADVANCED_FACE ( 'NONE', ( #164, #247 ), #289, .T. ) ;
#168 = VERTEX_POINT ( 'NONE', #126 ) ;
#169 = CARTESIAN_POINT ( 'NONE',  ( 2.444036937190193601E-13, 1.199999999999992628, 70.00000000000000000 ) ) ;
#170 = DIRECTION ( 'NONE',  ( -3.491481338843133355E-15, 1.224646799147353207E-16, -1.000000000000000000 ) ) ;
#171 = CIRCLE ( 'NONE', #205, 1.794999999999988827 ) ;
#172 = SECURITY_CLASSIFICATION_LEVEL ( 'unclassified' ) ;
#173 = APPROVAL_STATUS ( 'not_yet_approved' ) ;
#174 = FACE_OUTER_BOUND ( 'NONE', #155, .T. ) ;
#175 = PERSON_AND_ORGANIZATION ( #258, #94 ) ;
#176 = FACE_BOUND ( 'NONE', #179, .T. ) ;
#177 = FACE_BOUND ( 'NONE', #238, .T. ) ;
#178 = ORIENTED_EDGE ( 'NONE', *, *, #153, .T. ) ;
#179 = EDGE_LOOP ( 'NONE', ( #178 ) ) ;
#180 = DIRECTION ( 'NONE',  ( 4.275831445896959482E-31, 1.000000000000000000, 1.224646799147353207E-16 ) ) ;
#181 = CARTESIAN_POINT ( 'NONE',  ( 3.821065896297373123E-14, -1.340249500168367103E-15, 10.94396769012502979 ) ) ;
#182 = AXIS2_PLACEMENT_3D ( 'NONE', #121, #203, #122 ) ;
#183 = DIRECTION ( 'NONE',  ( -3.491481338843133355E-15, 1.224646799147353207E-16, -1.000000000000000000 ) ) ;
#184 =( NAMED_UNIT ( * ) PLANE_ANGLE_UNIT ( ) SI_UNIT ( $, .RADIAN. ) );
#185 = CARTESIAN_POINT ( 'NONE',  ( 3.821065896297373123E-14, -1.340249500168367103E-15, 10.94396769012502979 ) ) ;
#186 = AXIS2_PLACEMENT_3D ( 'NONE', #202, #67, #28 ) ;
#187 = DIRECTION ( 'NONE',  ( 0.0000000000000000000, 1.000000000000000000, 0.0000000000000000000 ) ) ;
#188 = CC_DESIGN_PERSON_AND_ORGANIZATION_ASSIGNMENT ( #15, #57, ( #162 ) ) ;
#189 = ADVANCED_FACE ( 'NONE', ( #230 ), #226, .F. ) ;
#190 = CALENDAR_DATE ( 2021, 2, 12 ) ;
#191 = DIRECTION ( 'NONE',  ( -3.491481338843133355E-15, 1.224646799147353207E-16, -1.000000000000000000 ) ) ;
#192 = CALENDAR_DATE ( 2021, 2, 12 ) ;
#193 = DIRECTION ( 'NONE',  ( 4.275831445896958607E-31, 1.000000000000000000, 1.224646799147352961E-16 ) ) ;
#194 = CARTESIAN_POINT ( 'NONE',  ( 2.433562493173664138E-13, -8.535788190057053710E-15, 69.70000000000001705 ) ) ;
#195 = AXIS2_PLACEMENT_3D ( 'NONE', #27, #183, #47 ) ;
#196 = ORIENTED_EDGE ( 'NONE', *, *, #269, .T. ) ;
#197 = CC_DESIGN_PERSON_AND_ORGANIZATION_ASSIGNMENT ( #241, #259, ( #38 ) ) ;
#198 = ORIENTED_EDGE ( 'NONE', *, *, #23, .T. ) ;
#199 = CARTESIAN_POINT ( 'NONE',  ( 2.444036937190193601E-13, -8.572527594031472993E-15, 70.00000000000000000 ) ) ;
#200 = DIRECTION ( 'NONE',  ( -3.491481338843133355E-15, 1.224646799147353207E-16, -1.000000000000000000 ) ) ;
#201 = LOCAL_TIME ( 10, 36, 23.00000000000000000, #41 ) ;
#202 = CARTESIAN_POINT ( 'NONE',  ( 2.444036937190193601E-13, -8.572527594031472993E-15, 70.00000000000000000 ) ) ;
#203 = DIRECTION ( 'NONE',  ( -3.491481338843133355E-15, 1.224646799147353207E-16, -1.000000000000000000 ) ) ;
#204 = CARTESIAN_POINT ( 'NONE',  ( 0.0000000000000000000, 0.0000000000000000000, 0.0000000000000000000 ) ) ;
#205 = AXIS2_PLACEMENT_3D ( 'NONE', #26, #300, #120 ) ;
#206 = VERTEX_POINT ( 'NONE', #75 ) ;
#207 = VERTEX_POINT ( 'NONE', #234 ) ;
#208 = ADVANCED_FACE ( 'NONE', ( #68 ), #66, .F. ) ;
#209 = CARTESIAN_POINT ( 'NONE',  ( 2.433562493173664138E-13, 1.499999999999992673, 69.70000000000001705 ) ) ;
#210 = AXIS2_PLACEMENT_3D ( 'NONE', #181, #45, #49 ) ;
#211 = CIRCLE ( 'NONE', #215, 1.500000000000001110 ) ;
#212 = DIRECTION ( 'NONE',  ( -3.491481338843133355E-15, 1.224646799147353207E-16, -1.000000000000000000 ) ) ;
#213 = APPROVAL_DATE_TIME ( #110, #225 ) ;
#214 = ORIENTED_EDGE ( 'NONE', *, *, #124, .F. ) ;
#215 = AXIS2_PLACEMENT_3D ( 'NONE', #97, #150, #127 ) ;
#216 = CARTESIAN_POINT ( 'NONE',  ( 0.0000000000000000000, 0.0000000000000000000, 0.0000000000000000000 ) ) ;
#217 = APPROVAL_STATUS ( 'not_yet_approved' ) ;
#218 = CARTESIAN_POINT ( 'NONE',  ( 3.491481338843133355E-14, -1.224646799147353256E-15, 10.00000000000000000 ) ) ;
#219 = DATE_TIME_ROLE ( 'classification_date' ) ;
#220 = EDGE_LOOP ( 'NONE', ( #158 ) ) ;
#221 = ORIENTED_EDGE ( 'NONE', *, *, #124, .T. ) ;
#222 = FACE_OUTER_BOUND ( 'NONE', #64, .T. ) ;
#223 = EDGE_CURVE ( 'NONE', #71, #71, #114, .T. ) ;
#224 = DIRECTION ( 'NONE',  ( 0.0000000000000000000, 1.000000000000000000, 0.0000000000000000000 ) ) ;
#225 = APPROVAL ( #173, 'UNSPECIFIED' ) ;
#226 = PLANE ( 'NONE',  #195 ) ;
#227 = AXIS2_PLACEMENT_3D ( 'NONE', #249, #138, #297 ) ;
#228 = CIRCLE ( 'NONE', #24, 2.044999999999990159 ) ;
#229 = AXIS2_PLACEMENT_3D ( 'NONE', #29, #123, #256 ) ;
#230 = FACE_OUTER_BOUND ( 'NONE', #266, .T. ) ;
#231 = MANIFOLD_SOLID_BREP ( 'Corps-Déplacer/Copier1[2]', #284 ) ;
#232 = LOCAL_TIME ( 10, 36, 23.00000000000000000, #267 ) ;
#233 = FACE_OUTER_BOUND ( 'NONE', #65, .T. ) ;
#234 = CARTESIAN_POINT ( 'NONE',  ( 3.821065896297373123E-14, 1.499999999999992673, 10.94396769012502979 ) ) ;
#235 = VERTEX_POINT ( 'NONE', #169 ) ;
#236 = CALENDAR_DATE ( 2021, 2, 12 ) ;
#237 = EDGE_LOOP ( 'NONE', ( #14 ) ) ;
#238 = EDGE_LOOP ( 'NONE', ( #261 ) ) ;
#239 = EDGE_LOOP ( 'NONE', ( #137 ) ) ;
#240 = CC_DESIGN_DATE_AND_TIME_ASSIGNMENT ( #262, #242, ( #19 ) ) ;
#241 = PERSON_AND_ORGANIZATION ( #258, #94 ) ;
#242 = DATE_TIME_ROLE ( 'creation_date' ) ;
#243 = ORIENTED_EDGE ( 'NONE', *, *, #264, .F. ) ;
#244 = EDGE_CURVE ( 'NONE', #303, #303, #171, .T. ) ;
#245 = CONICAL_SURFACE ( 'NONE', #62, 2.044999999999990159, 0.5235987755983000369 ) ;
#246 = DIRECTION ( 'NONE',  ( 3.491481338843133355E-15, -1.224646799147353207E-16, 1.000000000000000000 ) ) ;
#247 = FACE_BOUND ( 'NONE', #287, .T. ) ;
#248 = DIRECTION ( 'NONE',  ( 0.0000000000000000000, 1.000000000000000000, 0.0000000000000000000 ) ) ;
#249 = CARTESIAN_POINT ( 'NONE',  ( 3.491481338843133355E-14, -1.224646799147353256E-15, 10.00000000000000000 ) ) ;
#250 = APPROVAL_PERSON_ORGANIZATION ( #99, #298, #115 ) ;
#251 = APPROVAL ( #217, 'UNSPECIFIED' ) ;
#252 = VERTEX_POINT ( 'NONE', #209 ) ;
#253 = ADVANCED_FACE ( 'NONE', ( #22, #293 ), #139, .T. ) ;
#254 = AXIS2_PLACEMENT_3D ( 'NONE', #90, #271, #224 ) ;
#255 = AXIS2_PLACEMENT_3D ( 'NONE', #149, #6, #103 ) ;
#256 = DIRECTION ( 'NONE',  ( 1.000000000000000000, 0.0000000000000000000, 0.0000000000000000000 ) ) ;
#257 = VERTEX_POINT ( 'NONE', #96 ) ;
#258 = PERSON ( 'UNSPECIFIED', 'UNSPECIFIED', 'UNSPECIFIED', ('UNSPECIFIED'), ('UNSPECIFIED'), ('UNSPECIFIED') ) ;
#259 = PERSON_AND_ORGANIZATION_ROLE ( 'classification_officer' ) ;
#260 = SHAPE_DEFINITION_REPRESENTATION ( #50, #276 ) ;
#261 = ORIENTED_EDGE ( 'NONE', *, *, #244, .F. ) ;
#262 = DATE_AND_TIME ( #190, #232 ) ;
#263 = FACE_OUTER_BOUND ( 'NONE', #290, .T. ) ;
#264 = EDGE_CURVE ( 'NONE', #252, #252, #211, .T. ) ;
#265 = PERSON_AND_ORGANIZATION ( #258, #94 ) ;
#266 = EDGE_LOOP ( 'NONE', ( #159 ) ) ;
#267 = COORDINATED_UNIVERSAL_TIME_OFFSET ( 1, 0, .AHEAD. ) ;
#268 = ORIENTED_EDGE ( 'NONE', *, *, #3, .T. ) ;
#269 = EDGE_CURVE ( 'NONE', #76, #76, #119, .T. ) ;
#270 = LOCAL_TIME ( 10, 36, 23.00000000000000000, #80 ) ;
#271 = DIRECTION ( 'NONE',  ( -3.491481338843133355E-15, 1.224646799147353207E-16, -1.000000000000000000 ) ) ;
#272 = DIRECTION ( 'NONE',  ( 3.491481338843133355E-15, -1.224646799147353207E-16, 1.000000000000000000 ) ) ;
#273 = DESIGN_CONTEXT ( 'detailed design', #21, 'design' ) ;
#274 = PLANE ( 'NONE',  #98 ) ;
#275 = PRODUCT_RELATED_PRODUCT_CATEGORY ( 'detail', '', ( #20 ) ) ;
#276 = ADVANCED_BREP_SHAPE_REPRESENTATION ( '321635', ( #34, #231, #229 ), #83 ) ;
#277 = DIRECTION ( 'NONE',  ( -3.491481338843133355E-15, 1.224646799147353207E-16, -1.000000000000000000 ) ) ;
#278 = FACE_OUTER_BOUND ( 'NONE', #237, .T. ) ;
#279 = ADVANCED_FACE ( 'NONE', ( #30 ), #55, .T. ) ;
#280 = CARTESIAN_POINT ( 'NONE',  ( 0.0000000000000000000, 1.794999999999988827, 0.0000000000000000000 ) ) ;
#281 = CIRCLE ( 'NONE', #61, 1.200000000000001510 ) ;
#282 = FACE_BOUND ( 'NONE', #18, .T. ) ;
#283 = APPROVAL_ROLE ( '' ) ;
#284 = CLOSED_SHELL ( 'NONE', ( #296, #5, #54, #279, #208, #167, #253 ) ) ;
#285 = DIRECTION ( 'NONE',  ( 0.0000000000000000000, 1.000000000000000000, 0.0000000000000000000 ) ) ;
#286 = DATE_AND_TIME ( #192, #270 ) ;
#287 = EDGE_LOOP ( 'NONE', ( #154 ) ) ;
#288 = DIRECTION ( 'NONE',  ( 0.0000000000000000000, 1.000000000000000000, 0.0000000000000000000 ) ) ;
#289 = CONICAL_SURFACE ( 'NONE', #32, 1.200000000000001510, 0.7853981633974566057 ) ;
#290 = EDGE_LOOP ( 'NONE', ( #214 ) ) ;
#291 = EDGE_LOOP ( 'NONE', ( #84 ) ) ;
#292 = APPLICATION_CONTEXT ( 'configuration controlled 3d designs of mechanical parts and assemblies' ) ;
#293 = FACE_OUTER_BOUND ( 'NONE', #8, .T. ) ;
#294 = CC_DESIGN_APPROVAL ( #225, ( #38 ) ) ;
#295 = CYLINDRICAL_SURFACE ( 'NONE', #130, 1.499999999999997335 ) ;
#296 = ADVANCED_FACE ( 'NONE', ( #282, #233 ), #245, .T. ) ;
#297 = DIRECTION ( 'NONE',  ( 0.0000000000000000000, 1.000000000000000000, 0.0000000000000000000 ) ) ;
#298 = APPROVAL ( #63, 'UNSPECIFIED' ) ;
#299 = DIRECTION ( 'NONE',  ( -4.275831445896958607E-31, -1.000000000000000000, -1.224646799147353207E-16 ) ) ;
#300 = DIRECTION ( 'NONE',  ( -3.491481338843133355E-15, 1.224646799147353207E-16, -1.000000000000000000 ) ) ;
#301 = CONICAL_SURFACE ( 'NONE', #186, 1.200000000000001510, 0.7853981633974566057 ) ;
#302 = LOCAL_TIME ( 10, 36, 23.00000000000000000, #133 ) ;
#303 = VERTEX_POINT ( 'NONE', #280 ) ;
ENDSEC;
END-ISO-10303-21;
