ISO-10303-21;
HEADER;
FILE_DESCRIPTION (( 'STEP AP203' ),
    '1' );
FILE_NAME ('321634.step',
    '2021-12-02T09:36:23',
    ( '' ),
    ( '' ),
    'SwSTEP 2.0',
    'SolidWorks 2019',
    '' );
FILE_SCHEMA (( 'CONFIG_CONTROL_DESIGN' ));
ENDSEC;

DATA;
#1 = FACE_OUTER_BOUND ( 'NONE', #291, .T. ) ;
#2 =( NAMED_UNIT ( * ) SI_UNIT ( $, .STERADIAN. ) SOLID_ANGLE_UNIT ( ) );
#3 = AXIS2_PLACEMENT_3D ( 'NONE', #139, #28, #170 ) ;
#4 = ADVANCED_FACE ( 'NONE', ( #62, #294 ), #100, .T. ) ;
#5 = CC_DESIGN_PERSON_AND_ORGANIZATION_ASSIGNMENT ( #244, #32, ( #75 ) ) ;
#6 = CARTESIAN_POINT ( 'NONE',  ( 3.818042184761095618E-14, 1.499999999999991562, 10.93530743608718581 ) ) ;
#7 = APPROVAL_DATE_TIME ( #213, #300 ) ;
#8 = DIRECTION ( 'NONE',  ( -3.491481338843133355E-15, 1.224646799147353207E-16, -1.000000000000000000 ) ) ;
#9 = ADVANCED_FACE ( 'NONE', ( #181, #126 ), #287, .T. ) ;
#10 = DATE_TIME_ROLE ( 'classification_date' ) ;
#11 = ORIENTED_EDGE ( 'NONE', *, *, #298, .F. ) ;
#12 = PERSON_AND_ORGANIZATION ( #262, #279 ) ;
#13 = EDGE_LOOP ( 'NONE', ( #288 ) ) ;
#14 = COORDINATED_UNIVERSAL_TIME_OFFSET ( 1, 0, .AHEAD. ) ;
#15 = EDGE_LOOP ( 'NONE', ( #195 ) ) ;
#16 = APPROVAL_PERSON_ORGANIZATION ( #120, #58, #286 ) ;
#17 = EDGE_LOOP ( 'NONE', ( #78 ) ) ;
#18 = DIRECTION ( 'NONE',  ( 3.491481338843133355E-15, -1.224646799147353207E-16, 1.000000000000000000 ) ) ;
#19 = ADVANCED_FACE ( 'NONE', ( #37 ), #243, .F. ) ;
#20 = CIRCLE ( 'NONE', #189, 1.500000000000001110 ) ;
#21 = DIRECTION ( 'NONE',  ( 4.275831445896958607E-31, 1.000000000000000000, 1.224646799147353454E-16 ) ) ;
#22 = FACE_OUTER_BOUND ( 'NONE', #108, .T. ) ;
#23 = PLANE ( 'NONE',  #34 ) ;
#24 = CARTESIAN_POINT ( 'NONE',  ( 3.818042184761095618E-14, -1.339188924929642058E-15, 10.93530743608718581 ) ) ;
#25 = AXIS2_PLACEMENT_3D ( 'NONE', #80, #177, #265 ) ;
#26 = PRODUCT_RELATED_PRODUCT_CATEGORY ( 'detail', '', ( #147 ) ) ;
#27 = DIRECTION ( 'NONE',  ( 0.0000000000000000000, 0.0000000000000000000, 1.000000000000000000 ) ) ;
#28 = DIRECTION ( 'NONE',  ( -3.491481338843133355E-15, 1.224646799147353207E-16, -1.000000000000000000 ) ) ;
#29 = VERTEX_POINT ( 'NONE', #209 ) ;
#30 = VERTEX_POINT ( 'NONE', #70 ) ;
#31 = DIRECTION ( 'NONE',  ( 4.275831445896958607E-31, 1.000000000000000000, 1.224646799147353207E-16 ) ) ;
#32 = PERSON_AND_ORGANIZATION_ROLE ( 'design_supplier' ) ;
#33 = EDGE_LOOP ( 'NONE', ( #63 ) ) ;
#34 = AXIS2_PLACEMENT_3D ( 'NONE', #227, #297, #165 ) ;
#35 = CC_DESIGN_DATE_AND_TIME_ASSIGNMENT ( #263, #10, ( #136 ) ) ;
#36 = CALENDAR_DATE ( 2021, 2, 12 ) ;
#37 = FACE_OUTER_BOUND ( 'NONE', #293, .T. ) ;
#38 = PERSON_AND_ORGANIZATION_ROLE ( 'classification_officer' ) ;
#39 = ORIENTED_EDGE ( 'NONE', *, *, #255, .T. ) ;
#40 = SECURITY_CLASSIFICATION_LEVEL ( 'unclassified' ) ;
#41 = CONICAL_SURFACE ( 'NONE', #89, 1.200000000000001510, 0.7853981633974566057 ) ;
#42 = DIRECTION ( 'NONE',  ( -3.491481338843133355E-15, 1.224646799147353207E-16, -1.000000000000000000 ) ) ;
#43 = PLANE ( 'NONE',  #228 ) ;
#44 = DIRECTION ( 'NONE',  ( -3.491481338843133355E-15, 1.224646799147353207E-16, -1.000000000000000000 ) ) ;
#45 = CC_DESIGN_PERSON_AND_ORGANIZATION_ASSIGNMENT ( #254, #146, ( #147 ) ) ;
#46 = CONICAL_SURFACE ( 'NONE', #211, 2.039999999999989821, 0.5235987755983002589 ) ;
#47 = FACE_OUTER_BOUND ( 'NONE', #33, .T. ) ;
#48 = FACE_OUTER_BOUND ( 'NONE', #15, .T. ) ;
#49 = VERTEX_POINT ( 'NONE', #72 ) ;
#50 = FACE_BOUND ( 'NONE', #161, .T. ) ;
#51 = AXIS2_PLACEMENT_3D ( 'NONE', #88, #141, #231 ) ;
#52 = CARTESIAN_POINT ( 'NONE',  ( 3.491481338843133355E-14, 2.039999999999988489, 10.00000000000000000 ) ) ;
#53 = EDGE_CURVE ( 'NONE', #191, #191, #257, .T. ) ;
#54 =( NAMED_UNIT ( * ) PLANE_ANGLE_UNIT ( ) SI_UNIT ( $, .RADIAN. ) );
#55 = DIRECTION ( 'NONE',  ( 0.0000000000000000000, 1.000000000000000000, 0.0000000000000000000 ) ) ;
#56 = CC_DESIGN_SECURITY_CLASSIFICATION ( #136, ( #75 ) ) ;
#57 = COORDINATED_UNIVERSAL_TIME_OFFSET ( 1, 0, .AHEAD. ) ;
#58 = APPROVAL ( #84, 'UNSPECIFIED' ) ;
#59 = ORIENTED_EDGE ( 'NONE', *, *, #119, .T. ) ;
#60 = AXIS2_PLACEMENT_3D ( 'NONE', #277, #144, #66 ) ;
#61 = PERSON_AND_ORGANIZATION ( #262, #279 ) ;
#62 = FACE_BOUND ( 'NONE', #129, .T. ) ;
#63 = ORIENTED_EDGE ( 'NONE', *, *, #87, .F. ) ;
#64 = CARTESIAN_POINT ( 'NONE',  ( 2.444036937190193601E-13, -8.572527594031472993E-15, 70.00000000000000000 ) ) ;
#65 = AXIS2_PLACEMENT_3D ( 'NONE', #207, #204, #186 ) ;
#66 = DIRECTION ( 'NONE',  ( 0.0000000000000000000, 1.000000000000000000, 0.0000000000000000000 ) ) ;
#67 = CYLINDRICAL_SURFACE ( 'NONE', #3, 2.039999999999989821 ) ;
#68 = FACE_OUTER_BOUND ( 'NONE', #240, .T. ) ;
#69 = FACE_BOUND ( 'NONE', #85, .T. ) ;
#70 = CARTESIAN_POINT ( 'NONE',  ( 2.444036937190193601E-13, 1.199999999999992628, 70.00000000000000000 ) ) ;
#71 = CARTESIAN_POINT ( 'NONE',  ( 3.491481338843133355E-14, 2.039999999999988489, 10.00000000000000000 ) ) ;
#72 = CARTESIAN_POINT ( 'NONE',  ( 3.818042184761095618E-14, 1.499999999999991562, 10.93530743608718581 ) ) ;
#73 = DIRECTION ( 'NONE',  ( 1.000000000000000000, 0.0000000000000000000, 0.0000000000000000000 ) ) ;
#74 = ADVANCED_FACE ( 'NONE', ( #156, #69 ), #266, .T. ) ;
#75 = PRODUCT_DEFINITION_FORMATION_WITH_SPECIFIED_SOURCE ( 'ANY', '', #147, .NOT_KNOWN. ) ;
#76 = APPROVAL_PERSON_ORGANIZATION ( #245, #98, #130 ) ;
#77 = CC_DESIGN_DATE_AND_TIME_ASSIGNMENT ( #132, #216, ( #124 ) ) ;
#78 = ORIENTED_EDGE ( 'NONE', *, *, #102, .T. ) ;
#79 = APPROVAL_DATE_TIME ( #218, #98 ) ;
#80 = CARTESIAN_POINT ( 'NONE',  ( 8.728703347107825500E-16, -3.061616997868380553E-17, 0.2499999999999997780 ) ) ;
#81 = APPROVAL_DATE_TIME ( #269, #58 ) ;
#82 = EDGE_LOOP ( 'NONE', ( #246 ) ) ;
#83 = CIRCLE ( 'NONE', #51, 1.500000000000001110 ) ;
#84 = APPROVAL_STATUS ( 'not_yet_approved' ) ;
#85 = EDGE_LOOP ( 'NONE', ( #214 ) ) ;
#86 = DIRECTION ( 'NONE',  ( 0.0000000000000000000, 1.000000000000000000, 0.0000000000000000000 ) ) ;
#87 = EDGE_CURVE ( 'NONE', #235, #235, #83, .T. ) ;
#88 = CARTESIAN_POINT ( 'NONE',  ( 2.433562493173664138E-13, -8.535788190057053710E-15, 69.70000000000001705 ) ) ;
#89 = AXIS2_PLACEMENT_3D ( 'NONE', #295, #250, #226 ) ;
#90 = CC_DESIGN_PERSON_AND_ORGANIZATION_ASSIGNMENT ( #61, #173, ( #124 ) ) ;
#91 = FACE_OUTER_BOUND ( 'NONE', #270, .T. ) ;
#92 = CARTESIAN_POINT ( 'NONE',  ( 2.433562493173664138E-13, -8.535788190057053710E-15, 69.70000000000001705 ) ) ;
#93 = CARTESIAN_POINT ( 'NONE',  ( 0.0000000000000000000, 0.0000000000000000000, 0.0000000000000000000 ) ) ;
#94 = FACE_OUTER_BOUND ( 'NONE', #179, .T. ) ;
#95 = DIRECTION ( 'NONE',  ( -3.491481338843133355E-15, 1.224646799147353207E-16, -1.000000000000000000 ) ) ;
#96 = AXIS2_PLACEMENT_3D ( 'NONE', #93, #278, #299 ) ;
#97 = VERTEX_POINT ( 'NONE', #71 ) ;
#98 = APPROVAL ( #290, 'UNSPECIFIED' ) ;
#99 = SHAPE_DEFINITION_REPRESENTATION ( #206, #143 ) ;
#100 = CONICAL_SURFACE ( 'NONE', #203, 2.039999999999989821, 0.5235987755983002589 ) ;
#101 = EDGE_LOOP ( 'NONE', ( #221 ) ) ;
#102 = EDGE_CURVE ( 'NONE', #285, #285, #20, .T. ) ;
#103 = DIRECTION ( 'NONE',  ( -3.491481338843133355E-15, 1.224646799147353207E-16, -1.000000000000000000 ) ) ;
#104 = CALENDAR_DATE ( 2021, 2, 12 ) ;
#105 = CARTESIAN_POINT ( 'NONE',  ( 3.491481338843133355E-14, -1.224646799147353256E-15, 10.00000000000000000 ) ) ;
#106 =( GEOMETRIC_REPRESENTATION_CONTEXT ( 3 ) GLOBAL_UNCERTAINTY_ASSIGNED_CONTEXT ( ( #110 ) ) GLOBAL_UNIT_ASSIGNED_CONTEXT ( ( #169, #54, #2 ) ) REPRESENTATION_CONTEXT ( 'NONE', 'WORKASPACE' ) );
#107 = CALENDAR_DATE ( 2021, 2, 12 ) ;
#108 = EDGE_LOOP ( 'NONE', ( #217 ) ) ;
#109 = DIRECTION ( 'NONE',  ( 0.0000000000000000000, 1.000000000000000000, 0.0000000000000000000 ) ) ;
#110 = UNCERTAINTY_MEASURE_WITH_UNIT (LENGTH_MEASURE( 1.000000000000000082E-05 ), #169, 'distance_accuracy_value', 'NONE');
#111 = DIRECTION ( 'NONE',  ( -4.275831445896958607E-31, -1.000000000000000000, -1.224646799147353207E-16 ) ) ;
#112 = AXIS2_PLACEMENT_3D ( 'NONE', #167, #301, #114 ) ;
#113 = LOCAL_TIME ( 10, 36, 23.00000000000000000, #220 ) ;
#114 = DIRECTION ( 'NONE',  ( 0.0000000000000000000, 1.000000000000000000, 0.0000000000000000000 ) ) ;
#115 = CARTESIAN_POINT ( 'NONE',  ( 0.0000000000000000000, 0.0000000000000000000, 0.0000000000000000000 ) ) ;
#116 = CC_DESIGN_PERSON_AND_ORGANIZATION_ASSIGNMENT ( #159, #197, ( #75 ) ) ;
#117 = PLANE ( 'NONE',  #65 ) ;
#118 = CARTESIAN_POINT ( 'NONE',  ( 3.491481338843133355E-14, -1.224646799147353256E-15, 10.00000000000000000 ) ) ;
#119 = EDGE_CURVE ( 'NONE', #97, #97, #215, .T. ) ;
#120 = PERSON_AND_ORGANIZATION ( #262, #279 ) ;
#121 = ADVANCED_FACE ( 'NONE', ( #22 ), #23, .T. ) ;
#122 = AXIS2_PLACEMENT_3D ( 'NONE', #188, #187, #283 ) ;
#123 = VERTEX_POINT ( 'NONE', #52 ) ;
#124 = PRODUCT_DEFINITION ( 'UNKNOWN', '', #75, #184 ) ;
#125 = CALENDAR_DATE ( 2021, 2, 12 ) ;
#126 = FACE_BOUND ( 'NONE', #241, .T. ) ;
#127 = COORDINATED_UNIVERSAL_TIME_OFFSET ( 1, 0, .AHEAD. ) ;
#128 = CIRCLE ( 'NONE', #284, 1.200000000000001510 ) ;
#129 = EDGE_LOOP ( 'NONE', ( #199 ) ) ;
#130 = APPROVAL_ROLE ( '' ) ;
#131 = ORIENTED_EDGE ( 'NONE', *, *, #158, .F. ) ;
#132 = DATE_AND_TIME ( #178, #208 ) ;
#133 = CARTESIAN_POINT ( 'NONE',  ( -7.653738288155508419E-31, 2.684570010964708587E-32, -2.192117770473748512E-16 ) ) ;
#134 = PERSON_AND_ORGANIZATION ( #262, #279 ) ;
#135 = ORIENTED_EDGE ( 'NONE', *, *, #281, .F. ) ;
#136 = SECURITY_CLASSIFICATION ( '', '', #40 ) ;
#137 = FACE_OUTER_BOUND ( 'NONE', #17, .T. ) ;
#138 = CARTESIAN_POINT ( 'NONE',  ( 3.491481338843133355E-14, 1.529754978315085126E-32, 10.00000000000000000 ) ) ;
#139 = CARTESIAN_POINT ( 'NONE',  ( 0.0000000000000000000, 0.0000000000000000000, 0.0000000000000000000 ) ) ;
#140 = CIRCLE ( 'NONE', #233, 1.499999999999992895 ) ;
#141 = DIRECTION ( 'NONE',  ( -3.491481338843133355E-15, 1.224646799147353207E-16, -1.000000000000000000 ) ) ;
#142 = MANIFOLD_SOLID_BREP ( 'Corps-Déplacer/Copier1[2]', #273 ) ;
#143 = ADVANCED_BREP_SHAPE_REPRESENTATION ( '321634', ( #230, #142, #149 ), #106 ) ;
#144 = DIRECTION ( 'NONE',  ( -3.491481338843133355E-15, 1.224646799147353207E-16, -1.000000000000000000 ) ) ;
#145 = ADVANCED_FACE ( 'NONE', ( #163, #68 ), #302, .T. ) ;
#146 = PERSON_AND_ORGANIZATION_ROLE ( 'design_owner' ) ;
#147 = PRODUCT ( '321634', '321634', '', ( #261 ) ) ;
#148 = CARTESIAN_POINT ( 'NONE',  ( 3.818042184761095618E-14, -1.339188924929642058E-15, 10.93530743608718581 ) ) ;
#149 = AXIS2_PLACEMENT_3D ( 'NONE', #256, #27, #73 ) ;
#150 = DIRECTION ( 'NONE',  ( 0.0000000000000000000, 1.000000000000000000, 0.0000000000000000000 ) ) ;
#151 = APPROVAL_PERSON_ORGANIZATION ( #12, #300, #239 ) ;
#152 = APPROVAL_STATUS ( 'not_yet_approved' ) ;
#153 = EDGE_CURVE ( 'NONE', #30, #30, #292, .T. ) ;
#154 = EDGE_LOOP ( 'NONE', ( #59 ) ) ;
#155 = AXIS2_PLACEMENT_3D ( 'NONE', #251, #280, #109 ) ;
#156 = FACE_OUTER_BOUND ( 'NONE', #101, .T. ) ;
#157 = LOCAL_TIME ( 10, 36, 23.00000000000000000, #14 ) ;
#158 = EDGE_CURVE ( 'NONE', #123, #123, #237, .T. ) ;
#159 = PERSON_AND_ORGANIZATION ( #262, #279 ) ;
#160 = EDGE_LOOP ( 'NONE', ( #194 ) ) ;
#161 = EDGE_LOOP ( 'NONE', ( #39 ) ) ;
#162 = APPLICATION_CONTEXT ( 'configuration controlled 3d designs of mechanical parts and assemblies' ) ;
#163 = FACE_OUTER_BOUND ( 'NONE', #272, .T. ) ;
#164 = AXIS2_PLACEMENT_3D ( 'NONE', #64, #103, #31 ) ;
#165 = DIRECTION ( 'NONE',  ( 4.275831445896958607E-31, 1.000000000000000000, 1.224646799147353207E-16 ) ) ;
#166 = CYLINDRICAL_SURFACE ( 'NONE', #96, 1.499999999999996891 ) ;
#167 = CARTESIAN_POINT ( 'NONE',  ( 3.491481338843133355E-14, -1.224646799147353256E-15, 10.00000000000000000 ) ) ;
#168 = ADVANCED_FACE ( 'NONE', ( #47, #249 ), #41, .T. ) ;
#169 =( LENGTH_UNIT ( ) NAMED_UNIT ( * ) SI_UNIT ( .MILLI., .METRE. ) );
#170 = DIRECTION ( 'NONE',  ( 4.275831445896957731E-31, 1.000000000000000000, 1.224646799147353207E-16 ) ) ;
#171 = CARTESIAN_POINT ( 'NONE',  ( 2.433562493173664138E-13, 1.499999999999992673, 69.70000000000001705 ) ) ;
#172 = CC_DESIGN_APPROVAL ( #58, ( #124 ) ) ;
#173 = PERSON_AND_ORGANIZATION_ROLE ( 'creator' ) ;
#174 = CC_DESIGN_APPROVAL ( #98, ( #75 ) ) ;
#175 = ORIENTED_EDGE ( 'NONE', *, *, #153, .T. ) ;
#176 = ADVANCED_FACE ( 'NONE', ( #94 ), #117, .F. ) ;
#177 = DIRECTION ( 'NONE',  ( -3.491481338843133355E-15, 1.224646799147353207E-16, -1.000000000000000000 ) ) ;
#178 = CALENDAR_DATE ( 2021, 2, 12 ) ;
#179 = EDGE_LOOP ( 'NONE', ( #200 ) ) ;
#180 = EDGE_CURVE ( 'NONE', #212, #212, #128, .T. ) ;
#181 = FACE_OUTER_BOUND ( 'NONE', #160, .T. ) ;
#182 = DIRECTION ( 'NONE',  ( 0.0000000000000000000, 1.000000000000000000, 0.0000000000000000000 ) ) ;
#183 = DIRECTION ( 'NONE',  ( -3.491481338843133355E-15, 1.224646799147353207E-16, -1.000000000000000000 ) ) ;
#184 = DESIGN_CONTEXT ( 'detailed design', #162, 'design' ) ;
#185 = LOCAL_TIME ( 10, 36, 23.00000000000000000, #267 ) ;
#186 = DIRECTION ( 'NONE',  ( 4.275831445896958607E-31, 1.000000000000000000, 1.224646799147353207E-16 ) ) ;
#187 = DIRECTION ( 'NONE',  ( -3.491481338843133355E-15, 1.224646799147353207E-16, -1.000000000000000000 ) ) ;
#188 = CARTESIAN_POINT ( 'NONE',  ( -7.653738288155508419E-31, 2.684570010964708587E-32, -2.192117770473748512E-16 ) ) ;
#189 = AXIS2_PLACEMENT_3D ( 'NONE', #92, #183, #201 ) ;
#190 = CC_DESIGN_APPROVAL ( #300, ( #136 ) ) ;
#191 = VERTEX_POINT ( 'NONE', #259 ) ;
#192 = APPLICATION_PROTOCOL_DEFINITION ( 'international standard', 'config_control_design', 1994, #236 ) ;
#193 = ADVANCED_FACE ( 'NONE', ( #48, #137 ), #166, .T. ) ;
#194 = ORIENTED_EDGE ( 'NONE', *, *, #53, .T. ) ;
#195 = ORIENTED_EDGE ( 'NONE', *, *, #255, .F. ) ;
#196 = DIRECTION ( 'NONE',  ( 3.491481338843133355E-15, -1.224646799147353207E-16, 1.000000000000000000 ) ) ;
#197 = PERSON_AND_ORGANIZATION_ROLE ( 'creator' ) ;
#198 = CIRCLE ( 'NONE', #248, 1.499999999999992895 ) ;
#199 = ORIENTED_EDGE ( 'NONE', *, *, #298, .T. ) ;
#200 = ORIENTED_EDGE ( 'NONE', *, *, #180, .F. ) ;
#201 = DIRECTION ( 'NONE',  ( 0.0000000000000000000, 1.000000000000000000, 0.0000000000000000000 ) ) ;
#202 = FACE_OUTER_BOUND ( 'NONE', #154, .T. ) ;
#203 = AXIS2_PLACEMENT_3D ( 'NONE', #105, #8, #86 ) ;
#204 = DIRECTION ( 'NONE',  ( -3.491481338843133355E-15, 1.224646799147353207E-16, -1.000000000000000000 ) ) ;
#205 = DIRECTION ( 'NONE',  ( -3.491481338843133355E-15, 1.224646799147353207E-16, -1.000000000000000000 ) ) ;
#206 = PRODUCT_DEFINITION_SHAPE ( 'NONE', 'NONE',  #124 ) ;
#207 = CARTESIAN_POINT ( 'NONE',  ( 2.444036937190193601E-13, 8.998558695971026591E-33, 70.00000000000000000 ) ) ;
#208 = LOCAL_TIME ( 10, 36, 23.00000000000000000, #127 ) ;
#209 = CARTESIAN_POINT ( 'NONE',  ( 0.0000000000000000000, 1.789999999999988933, 0.0000000000000000000 ) ) ;
#210 = DIRECTION ( 'NONE',  ( 0.0000000000000000000, 1.000000000000000000, 0.0000000000000000000 ) ) ;
#211 = AXIS2_PLACEMENT_3D ( 'NONE', #118, #234, #55 ) ;
#212 = VERTEX_POINT ( 'NONE', #303 ) ;
#213 = DATE_AND_TIME ( #125, #113 ) ;
#214 = ORIENTED_EDGE ( 'NONE', *, *, #180, .T. ) ;
#215 = CIRCLE ( 'NONE', #60, 2.039999999999989821 ) ;
#216 = DATE_TIME_ROLE ( 'creation_date' ) ;
#217 = ORIENTED_EDGE ( 'NONE', *, *, #281, .T. ) ;
#218 = DATE_AND_TIME ( #104, #157 ) ;
#219 = ORIENTED_EDGE ( 'NONE', *, *, #153, .F. ) ;
#220 = COORDINATED_UNIVERSAL_TIME_OFFSET ( 1, 0, .AHEAD. ) ;
#221 = ORIENTED_EDGE ( 'NONE', *, *, #102, .F. ) ;
#222 = AXIS2_PLACEMENT_3D ( 'NONE', #133, #196, #264 ) ;
#223 = ORIENTED_EDGE ( 'NONE', *, *, #87, .T. ) ;
#224 = CARTESIAN_POINT ( 'NONE',  ( 2.444036937190193601E-13, -8.572527594031472993E-15, 70.00000000000000000 ) ) ;
#225 = ADVANCED_FACE ( 'NONE', ( #276 ), #43, .F. ) ;
#226 = DIRECTION ( 'NONE',  ( 0.0000000000000000000, 1.000000000000000000, 0.0000000000000000000 ) ) ;
#227 = CARTESIAN_POINT ( 'NONE',  ( -3.826869144077754210E-31, 1.342285005482354294E-32, -1.096058885236874256E-16 ) ) ;
#228 = AXIS2_PLACEMENT_3D ( 'NONE', #138, #18, #111 ) ;
#229 = AXIS2_PLACEMENT_3D ( 'NONE', #115, #205, #21 ) ;
#230 = MANIFOLD_SOLID_BREP ( 'Corps-Déplacer/Copier1[1]', #296 ) ;
#231 = DIRECTION ( 'NONE',  ( 0.0000000000000000000, 1.000000000000000000, 0.0000000000000000000 ) ) ;
#232 = APPLICATION_PROTOCOL_DEFINITION ( 'international standard', 'config_control_design', 1994, #162 ) ;
#233 = AXIS2_PLACEMENT_3D ( 'NONE', #148, #238, #210 ) ;
#234 = DIRECTION ( 'NONE',  ( -3.491481338843133355E-15, 1.224646799147353207E-16, -1.000000000000000000 ) ) ;
#235 = VERTEX_POINT ( 'NONE', #171 ) ;
#236 = APPLICATION_CONTEXT ( 'configuration controlled 3d designs of mechanical parts and assemblies' ) ;
#237 = CIRCLE ( 'NONE', #112, 2.039999999999989821 ) ;
#238 = DIRECTION ( 'NONE',  ( -3.491481338843133355E-15, 1.224646799147353207E-16, -1.000000000000000000 ) ) ;
#239 = APPROVAL_ROLE ( '' ) ;
#240 = EDGE_LOOP ( 'NONE', ( #223 ) ) ;
#241 = EDGE_LOOP ( 'NONE', ( #135 ) ) ;
#242 = AXIS2_PLACEMENT_3D ( 'NONE', #275, #44, #252 ) ;
#243 = PLANE ( 'NONE',  #164 ) ;
#244 = PERSON_AND_ORGANIZATION ( #262, #279 ) ;
#245 = PERSON_AND_ORGANIZATION ( #262, #279 ) ;
#246 = ORIENTED_EDGE ( 'NONE', *, *, #119, .F. ) ;
#247 = ADVANCED_FACE ( 'NONE', ( #202, #91 ), #67, .T. ) ;
#248 = AXIS2_PLACEMENT_3D ( 'NONE', #24, #95, #150 ) ;
#249 = FACE_BOUND ( 'NONE', #268, .T. ) ;
#250 = DIRECTION ( 'NONE',  ( -3.491481338843133355E-15, 1.224646799147353207E-16, -1.000000000000000000 ) ) ;
#251 = CARTESIAN_POINT ( 'NONE',  ( 2.444036937190193601E-13, -8.572527594031472993E-15, 70.00000000000000000 ) ) ;
#252 = DIRECTION ( 'NONE',  ( 0.0000000000000000000, 1.000000000000000000, 0.0000000000000000000 ) ) ;
#253 = CIRCLE ( 'NONE', #122, 1.789999999999988933 ) ;
#254 = PERSON_AND_ORGANIZATION ( #262, #279 ) ;
#255 = EDGE_CURVE ( 'NONE', #49, #49, #140, .T. ) ;
#256 = CARTESIAN_POINT ( 'NONE',  ( 0.0000000000000000000, 0.0000000000000000000, 0.0000000000000000000 ) ) ;
#257 = CIRCLE ( 'NONE', #25, 2.039999999999989821 ) ;
#258 = LOCAL_TIME ( 10, 36, 23.00000000000000000, #57 ) ;
#259 = CARTESIAN_POINT ( 'NONE',  ( 8.728703347107835360E-16, 2.039999999999989821, 0.2500000000000000555 ) ) ;
#260 = VERTEX_POINT ( 'NONE', #6 ) ;
#261 = MECHANICAL_CONTEXT ( 'NONE', #236, 'mechanical' ) ;
#262 = PERSON ( 'UNSPECIFIED', 'UNSPECIFIED', 'UNSPECIFIED', ('UNSPECIFIED'), ('UNSPECIFIED'), ('UNSPECIFIED') ) ;
#263 = DATE_AND_TIME ( #107, #258 ) ;
#264 = DIRECTION ( 'NONE',  ( -4.275831445896958607E-31, -1.000000000000000000, -1.224646799147353207E-16 ) ) ;
#265 = DIRECTION ( 'NONE',  ( 4.720416530360895870E-31, 1.000000000000000000, 1.328679132947928766E-16 ) ) ;
#266 = CONICAL_SURFACE ( 'NONE', #155, 1.200000000000001510, 0.7853981633974566057 ) ;
#267 = COORDINATED_UNIVERSAL_TIME_OFFSET ( 1, 0, .AHEAD. ) ;
#268 = EDGE_LOOP ( 'NONE', ( #175 ) ) ;
#269 = DATE_AND_TIME ( #36, #185 ) ;
#270 = EDGE_LOOP ( 'NONE', ( #289 ) ) ;
#271 = ADVANCED_FACE ( 'NONE', ( #50, #1 ), #46, .T. ) ;
#272 = EDGE_LOOP ( 'NONE', ( #11 ) ) ;
#273 = CLOSED_SHELL ( 'NONE', ( #4, #247, #9, #121, #19, #168, #145 ) ) ;
#274 = CC_DESIGN_PERSON_AND_ORGANIZATION_ASSIGNMENT ( #134, #38, ( #136 ) ) ;
#275 = CARTESIAN_POINT ( 'NONE',  ( 2.444036937190193601E-13, -8.572527594031472993E-15, 70.00000000000000000 ) ) ;
#276 = FACE_OUTER_BOUND ( 'NONE', #13, .T. ) ;
#277 = CARTESIAN_POINT ( 'NONE',  ( 3.491481338843133355E-14, -1.224646799147353256E-15, 10.00000000000000000 ) ) ;
#278 = DIRECTION ( 'NONE',  ( -3.491481338843133355E-15, 1.224646799147353207E-16, -1.000000000000000000 ) ) ;
#279 = ORGANIZATION ( 'UNSPECIFIED', 'UNSPECIFIED', '' ) ;
#280 = DIRECTION ( 'NONE',  ( -3.491481338843133355E-15, 1.224646799147353207E-16, -1.000000000000000000 ) ) ;
#281 = EDGE_CURVE ( 'NONE', #29, #29, #253, .T. ) ;
#282 = CARTESIAN_POINT ( 'NONE',  ( 2.433562493173664138E-13, 1.499999999999992673, 69.70000000000001705 ) ) ;
#283 = DIRECTION ( 'NONE',  ( 4.275831445896958607E-31, 1.000000000000000000, 1.224646799147353207E-16 ) ) ;
#284 = AXIS2_PLACEMENT_3D ( 'NONE', #224, #42, #182 ) ;
#285 = VERTEX_POINT ( 'NONE', #282 ) ;
#286 = APPROVAL_ROLE ( '' ) ;
#287 = CONICAL_SURFACE ( 'NONE', #222, 1.789999999999988933, 0.7853981633974500554 ) ;
#288 = ORIENTED_EDGE ( 'NONE', *, *, #158, .T. ) ;
#289 = ORIENTED_EDGE ( 'NONE', *, *, #53, .F. ) ;
#290 = APPROVAL_STATUS ( 'not_yet_approved' ) ;
#291 = EDGE_LOOP ( 'NONE', ( #131 ) ) ;
#292 = CIRCLE ( 'NONE', #242, 1.200000000000001510 ) ;
#293 = EDGE_LOOP ( 'NONE', ( #219 ) ) ;
#294 = FACE_OUTER_BOUND ( 'NONE', #82, .T. ) ;
#295 = CARTESIAN_POINT ( 'NONE',  ( 2.444036937190193601E-13, -8.572527594031472993E-15, 70.00000000000000000 ) ) ;
#296 = CLOSED_SHELL ( 'NONE', ( #225, #271, #193, #74, #176 ) ) ;
#297 = DIRECTION ( 'NONE',  ( -3.491481338843133355E-15, 1.224646799147353207E-16, -1.000000000000000000 ) ) ;
#298 = EDGE_CURVE ( 'NONE', #260, #260, #198, .T. ) ;
#299 = DIRECTION ( 'NONE',  ( 4.275831445896958607E-31, 1.000000000000000000, 1.224646799147353454E-16 ) ) ;
#300 = APPROVAL ( #152, 'UNSPECIFIED' ) ;
#301 = DIRECTION ( 'NONE',  ( -3.491481338843133355E-15, 1.224646799147353207E-16, -1.000000000000000000 ) ) ;
#302 = CYLINDRICAL_SURFACE ( 'NONE', #229, 1.499999999999996891 ) ;
#303 = CARTESIAN_POINT ( 'NONE',  ( 2.444036937190193601E-13, 1.199999999999992628, 70.00000000000000000 ) ) ;
ENDSEC;
END-ISO-10303-21;
