ISO-10303-21;
HEADER;
FILE_DESCRIPTION (( 'STEP AP203' ),
    '1' );
FILE_NAME ('321633.step',
    '2021-12-02T09:36:22',
    ( '' ),
    ( '' ),
    'SwSTEP 2.0',
    'SolidWorks 2019',
    '' );
FILE_SCHEMA (( 'CONFIG_CONTROL_DESIGN' ));
ENDSEC;

DATA;
#1 = DIRECTION ( 'NONE',  ( -3.491481338843133355E-15, 1.224646799147353207E-16, -1.000000000000000000 ) ) ;
#2 = EDGE_CURVE ( 'NONE', #118, #118, #60, .T. ) ;
#3 = CARTESIAN_POINT ( 'NONE',  ( 3.815018473224818745E-14, 1.499999999999991562, 10.92664718204934182 ) ) ;
#4 = CONICAL_SURFACE ( 'NONE', #280, 1.200000000000001510, 0.7853981633974566057 ) ;
#5 = DATE_AND_TIME ( #52, #29 ) ;
#6 = VERTEX_POINT ( 'NONE', #164 ) ;
#7 = DIRECTION ( 'NONE',  ( 0.0000000000000000000, 1.000000000000000000, 0.0000000000000000000 ) ) ;
#8 = COORDINATED_UNIVERSAL_TIME_OFFSET ( 1, 0, .AHEAD. ) ;
#9 = DATE_TIME_ROLE ( 'creation_date' ) ;
#10 = DIRECTION ( 'NONE',  ( -3.491481338843133355E-15, 1.224646799147353207E-16, -1.000000000000000000 ) ) ;
#11 = CIRCLE ( 'NONE', #89, 1.784999999999989040 ) ;
#12 = EDGE_CURVE ( 'NONE', #244, #244, #11, .T. ) ;
#13 = ORIENTED_EDGE ( 'NONE', *, *, #90, .T. ) ;
#14 = CYLINDRICAL_SURFACE ( 'NONE', #117, 1.499999999999996891 ) ;
#15 = LOCAL_TIME ( 10, 36, 22.00000000000000000, #99 ) ;
#16 = APPLICATION_PROTOCOL_DEFINITION ( 'international standard', 'config_control_design', 1994, #274 ) ;
#17 = AXIS2_PLACEMENT_3D ( 'NONE', #189, #225, #147 ) ;
#18 = CC_DESIGN_PERSON_AND_ORGANIZATION_ASSIGNMENT ( #150, #125, ( #200 ) ) ;
#19 = ORIENTED_EDGE ( 'NONE', *, *, #12, .F. ) ;
#20 = CIRCLE ( 'NONE', #283, 2.034999999999989928 ) ;
#21 = DIRECTION ( 'NONE',  ( -3.491481338843133355E-15, 1.224646799147353207E-16, -1.000000000000000000 ) ) ;
#22 = DIRECTION ( 'NONE',  ( -3.491481338843133355E-15, 1.224646799147353207E-16, -1.000000000000000000 ) ) ;
#23 = SECURITY_CLASSIFICATION ( '', '', #247 ) ;
#24 = AXIS2_PLACEMENT_3D ( 'NONE', #69, #109, #93 ) ;
#25 = DIRECTION ( 'NONE',  ( 4.275831445896958607E-31, 1.000000000000000000, 1.224646799147353207E-16 ) ) ;
#26 = APPROVAL ( #168, 'UNSPECIFIED' ) ;
#27 = DIRECTION ( 'NONE',  ( 0.0000000000000000000, 1.000000000000000000, 0.0000000000000000000 ) ) ;
#28 = CARTESIAN_POINT ( 'NONE',  ( 2.433562493173664138E-13, 1.499999999999992673, 69.70000000000001705 ) ) ;
#29 = LOCAL_TIME ( 10, 36, 22.00000000000000000, #8 ) ;
#30 = PLANE ( 'NONE',  #192 ) ;
#31 = EDGE_LOOP ( 'NONE', ( #165 ) ) ;
#32 = ORIENTED_EDGE ( 'NONE', *, *, #2, .T. ) ;
#33 = EDGE_LOOP ( 'NONE', ( #226 ) ) ;
#34 = COORDINATED_UNIVERSAL_TIME_OFFSET ( 1, 0, .AHEAD. ) ;
#35 = ADVANCED_FACE ( 'NONE', ( #264, #198 ), #292, .T. ) ;
#36 = ORIENTED_EDGE ( 'NONE', *, *, #57, .T. ) ;
#37 = DIRECTION ( 'NONE',  ( -3.491481338843133355E-15, 1.224646799147353207E-16, -1.000000000000000000 ) ) ;
#38 = FACE_OUTER_BOUND ( 'NONE', #197, .T. ) ;
#39 = ORIENTED_EDGE ( 'NONE', *, *, #284, .F. ) ;
#40 = EDGE_CURVE ( 'NONE', #162, #162, #107, .T. ) ;
#41 = FACE_BOUND ( 'NONE', #106, .T. ) ;
#42 = DIRECTION ( 'NONE',  ( -3.491481338843133355E-15, 1.224646799147353207E-16, -1.000000000000000000 ) ) ;
#43 = CC_DESIGN_DATE_AND_TIME_ASSIGNMENT ( #152, #149, ( #23 ) ) ;
#44 = CYLINDRICAL_SURFACE ( 'NONE', #248, 1.499999999999996891 ) ;
#45 = AXIS2_PLACEMENT_3D ( 'NONE', #238, #142, #27 ) ;
#46 = VERTEX_POINT ( 'NONE', #217 ) ;
#47 = DIRECTION ( 'NONE',  ( 4.275831445896958607E-31, 1.000000000000000000, 1.224646799147353454E-16 ) ) ;
#48 = DIRECTION ( 'NONE',  ( -3.491481338843133355E-15, 1.224646799147353207E-16, -1.000000000000000000 ) ) ;
#49 = LOCAL_TIME ( 10, 36, 22.00000000000000000, #250 ) ;
#50 = AXIS2_PLACEMENT_3D ( 'NONE', #132, #42, #64 ) ;
#51 = EDGE_LOOP ( 'NONE', ( #222 ) ) ;
#52 = CALENDAR_DATE ( 2021, 2, 12 ) ;
#53 = DIRECTION ( 'NONE',  ( -3.491481338843133355E-15, 1.224646799147353207E-16, -1.000000000000000000 ) ) ;
#54 = EDGE_LOOP ( 'NONE', ( #188 ) ) ;
#55 = PERSON_AND_ORGANIZATION_ROLE ( 'creator' ) ;
#56 = EDGE_LOOP ( 'NONE', ( #299 ) ) ;
#57 = EDGE_CURVE ( 'NONE', #258, #258, #20, .T. ) ;
#58 = PERSON_AND_ORGANIZATION ( #237, #263 ) ;
#59 = APPROVAL_STATUS ( 'not_yet_approved' ) ;
#60 = CIRCLE ( 'NONE', #256, 1.500000000000001110 ) ;
#61 =( NAMED_UNIT ( * ) PLANE_ANGLE_UNIT ( ) SI_UNIT ( $, .RADIAN. ) );
#62 = FACE_BOUND ( 'NONE', #297, .T. ) ;
#63 = PERSON_AND_ORGANIZATION ( #237, #263 ) ;
#64 = DIRECTION ( 'NONE',  ( 0.0000000000000000000, 1.000000000000000000, 0.0000000000000000000 ) ) ;
#65 = ADVANCED_FACE ( 'NONE', ( #78, #62 ), #4, .T. ) ;
#66 = DIRECTION ( 'NONE',  ( 0.0000000000000000000, 1.000000000000000000, 0.0000000000000000000 ) ) ;
#67 = APPROVAL_PERSON_ORGANIZATION ( #290, #70, #81 ) ;
#68 = AXIS2_PLACEMENT_3D ( 'NONE', #232, #298, #66 ) ;
#69 = CARTESIAN_POINT ( 'NONE',  ( 8.728703347107825500E-16, -3.061616997868380553E-17, 0.2499999999999997780 ) ) ;
#70 = APPROVAL ( #59, 'UNSPECIFIED' ) ;
#71 = DIRECTION ( 'NONE',  ( 4.275831445896958607E-31, 1.000000000000000000, 1.224646799147353207E-16 ) ) ;
#72 = CIRCLE ( 'NONE', #166, 1.499999999999992895 ) ;
#73 = FACE_OUTER_BOUND ( 'NONE', #119, .T. ) ;
#74 = FACE_OUTER_BOUND ( 'NONE', #88, .T. ) ;
#75 = DIRECTION ( 'NONE',  ( 0.0000000000000000000, 1.000000000000000000, 0.0000000000000000000 ) ) ;
#76 = DIRECTION ( 'NONE',  ( -3.491481338843133355E-15, 1.224646799147353207E-16, -1.000000000000000000 ) ) ;
#77 = APPROVAL_PERSON_ORGANIZATION ( #219, #245, #83 ) ;
#78 = FACE_OUTER_BOUND ( 'NONE', #51, .T. ) ;
#79 = COORDINATED_UNIVERSAL_TIME_OFFSET ( 1, 0, .AHEAD. ) ;
#80 = CARTESIAN_POINT ( 'NONE',  ( 3.815018473224818745E-14, -1.338128349690917211E-15, 10.92664718204934182 ) ) ;
#81 = APPROVAL_ROLE ( '' ) ;
#82 = DIRECTION ( 'NONE',  ( 0.0000000000000000000, 1.000000000000000000, 0.0000000000000000000 ) ) ;
#83 = APPROVAL_ROLE ( '' ) ;
#84 = CARTESIAN_POINT ( 'NONE',  ( -7.632359130926024581E-31, 2.677071212051399792E-32, -2.185994536478012376E-16 ) ) ;
#85 = AXIS2_PLACEMENT_3D ( 'NONE', #289, #293, #286 ) ;
#86 = CARTESIAN_POINT ( 'NONE',  ( 2.444036937190193601E-13, -8.572527594031472993E-15, 70.00000000000000000 ) ) ;
#87 = EDGE_LOOP ( 'NONE', ( #124 ) ) ;
#88 = EDGE_LOOP ( 'NONE', ( #32 ) ) ;
#89 = AXIS2_PLACEMENT_3D ( 'NONE', #84, #128, #246 ) ;
#90 = EDGE_CURVE ( 'NONE', #260, #260, #296, .T. ) ;
#91 = DIRECTION ( 'NONE',  ( 4.275831445896958607E-31, 1.000000000000000000, 1.224646799147353454E-16 ) ) ;
#92 = DIRECTION ( 'NONE',  ( 0.0000000000000000000, 1.000000000000000000, 0.0000000000000000000 ) ) ;
#93 = DIRECTION ( 'NONE',  ( 4.732014605374067602E-31, 1.000000000000000000, 1.331943700842149721E-16 ) ) ;
#94 = CARTESIAN_POINT ( 'NONE',  ( 3.815018473224818745E-14, -1.338128349690917211E-15, 10.92664718204934182 ) ) ;
#95 = AXIS2_PLACEMENT_3D ( 'NONE', #86, #209, #92 ) ;
#96 = EDGE_LOOP ( 'NONE', ( #110 ) ) ;
#97 = CARTESIAN_POINT ( 'NONE',  ( 2.433562493173664138E-13, 1.499999999999992673, 69.70000000000001705 ) ) ;
#98 = ORIENTED_EDGE ( 'NONE', *, *, #40, .T. ) ;
#99 = COORDINATED_UNIVERSAL_TIME_OFFSET ( 1, 0, .AHEAD. ) ;
#100 = CC_DESIGN_PERSON_AND_ORGANIZATION_ASSIGNMENT ( #172, #273, ( #23 ) ) ;
#101 = AXIS2_PLACEMENT_3D ( 'NONE', #135, #233, #229 ) ;
#102 = DIRECTION ( 'NONE',  ( 0.0000000000000000000, 1.000000000000000000, 0.0000000000000000000 ) ) ;
#103 = MECHANICAL_CONTEXT ( 'NONE', #177, 'mechanical' ) ;
#104 = ORIENTED_EDGE ( 'NONE', *, *, #171, .T. ) ;
#105 = DATE_AND_TIME ( #295, #15 ) ;
#106 = EDGE_LOOP ( 'NONE', ( #218 ) ) ;
#107 = CIRCLE ( 'NONE', #85, 2.034999999999989928 ) ;
#108 = APPROVAL_STATUS ( 'not_yet_approved' ) ;
#109 = DIRECTION ( 'NONE',  ( -3.491481338843133355E-15, 1.224646799147353207E-16, -1.000000000000000000 ) ) ;
#110 = ORIENTED_EDGE ( 'NONE', *, *, #57, .F. ) ;
#111 = EDGE_LOOP ( 'NONE', ( #19 ) ) ;
#112 = AXIS2_PLACEMENT_3D ( 'NONE', #158, #22, #113 ) ;
#113 = DIRECTION ( 'NONE',  ( 0.0000000000000000000, 1.000000000000000000, 0.0000000000000000000 ) ) ;
#114 = CARTESIAN_POINT ( 'NONE',  ( 0.0000000000000000000, 0.0000000000000000000, 0.0000000000000000000 ) ) ;
#115 = DIRECTION ( 'NONE',  ( 0.0000000000000000000, 1.000000000000000000, 0.0000000000000000000 ) ) ;
#116 = CARTESIAN_POINT ( 'NONE',  ( -8.552847072295026068E-47, 1.784999999999989040, 0.0000000000000000000 ) ) ;
#117 = AXIS2_PLACEMENT_3D ( 'NONE', #275, #175, #91 ) ;
#118 = VERTEX_POINT ( 'NONE', #97 ) ;
#119 = EDGE_LOOP ( 'NONE', ( #129 ) ) ;
#120 = CALENDAR_DATE ( 2021, 2, 12 ) ;
#121 = CARTESIAN_POINT ( 'NONE',  ( 3.491481338843133355E-14, -1.224646799147353256E-15, 10.00000000000000000 ) ) ;
#122 = CALENDAR_DATE ( 2021, 2, 12 ) ;
#123 = CIRCLE ( 'NONE', #24, 2.034999999999989928 ) ;
#124 = ORIENTED_EDGE ( 'NONE', *, *, #40, .F. ) ;
#125 = PERSON_AND_ORGANIZATION_ROLE ( 'design_supplier' ) ;
#126 = EDGE_LOOP ( 'NONE', ( #13 ) ) ;
#127 = ADVANCED_FACE ( 'NONE', ( #170, #270 ), #231, .T. ) ;
#128 = DIRECTION ( 'NONE',  ( -3.491481338843133355E-15, 1.224646799147353207E-16, -1.000000000000000000 ) ) ;
#129 = ORIENTED_EDGE ( 'NONE', *, *, #206, .F. ) ;
#130 = PERSON_AND_ORGANIZATION_ROLE ( 'design_owner' ) ;
#131 = AXIS2_PLACEMENT_3D ( 'NONE', #148, #221, #199 ) ;
#132 = CARTESIAN_POINT ( 'NONE',  ( 2.433562493173664138E-13, -8.535788190057053710E-15, 69.70000000000001705 ) ) ;
#133 = EDGE_LOOP ( 'NONE', ( #272 ) ) ;
#134 = CARTESIAN_POINT ( 'NONE',  ( 3.491481338843133355E-14, -1.224646799147353256E-15, 10.00000000000000000 ) ) ;
#135 = CARTESIAN_POINT ( 'NONE',  ( 2.444036937190193601E-13, -8.572527594031472993E-15, 70.00000000000000000 ) ) ;
#136 = AXIS2_PLACEMENT_3D ( 'NONE', #134, #21, #159 ) ;
#137 = PLANE ( 'NONE',  #178 ) ;
#138 = VERTEX_POINT ( 'NONE', #236 ) ;
#139 = ADVANCED_FACE ( 'NONE', ( #182, #38 ), #14, .T. ) ;
#140 = CARTESIAN_POINT ( 'NONE',  ( 3.815018473224818745E-14, 1.499999999999991562, 10.92664718204934182 ) ) ;
#141 = UNCERTAINTY_MEASURE_WITH_UNIT (LENGTH_MEASURE( 1.000000000000000082E-05 ), #185, 'distance_accuracy_value', 'NONE');
#142 = DIRECTION ( 'NONE',  ( -3.491481338843133355E-15, 1.224646799147353207E-16, -1.000000000000000000 ) ) ;
#143 = CC_DESIGN_APPROVAL ( #245, ( #176 ) ) ;
#144 = CIRCLE ( 'NONE', #68, 1.200000000000001510 ) ;
#145 = EDGE_LOOP ( 'NONE', ( #98 ) ) ;
#146 = DIRECTION ( 'NONE',  ( -4.275831445896958607E-31, -1.000000000000000000, -1.224646799147353207E-16 ) ) ;
#147 = DIRECTION ( 'NONE',  ( 4.275831445896958607E-31, 1.000000000000000000, 1.224646799147353207E-16 ) ) ;
#148 = CARTESIAN_POINT ( 'NONE',  ( 0.0000000000000000000, 0.0000000000000000000, 0.0000000000000000000 ) ) ;
#149 = DATE_TIME_ROLE ( 'classification_date' ) ;
#150 = PERSON_AND_ORGANIZATION ( #237, #263 ) ;
#151 = EDGE_LOOP ( 'NONE', ( #39 ) ) ;
#152 = DATE_AND_TIME ( #271, #227 ) ;
#153 = ADVANCED_FACE ( 'NONE', ( #303, #279 ), #201, .T. ) ;
#154 = APPROVAL_DATE_TIME ( #105, #245 ) ;
#155 = FACE_OUTER_BOUND ( 'NONE', #253, .T. ) ;
#156 = LOCAL_TIME ( 10, 36, 22.00000000000000000, #79 ) ;
#157 = CC_DESIGN_PERSON_AND_ORGANIZATION_ASSIGNMENT ( #223, #130, ( #204 ) ) ;
#158 = CARTESIAN_POINT ( 'NONE',  ( 3.491481338843133355E-14, -1.224646799147353256E-15, 10.00000000000000000 ) ) ;
#159 = DIRECTION ( 'NONE',  ( 0.0000000000000000000, 1.000000000000000000, 0.0000000000000000000 ) ) ;
#160 = CC_DESIGN_PERSON_AND_ORGANIZATION_ASSIGNMENT ( #267, #55, ( #200 ) ) ;
#161 = CIRCLE ( 'NONE', #45, 1.200000000000001510 ) ;
#162 = VERTEX_POINT ( 'NONE', #183 ) ;
#163 = CARTESIAN_POINT ( 'NONE',  ( 2.444036937190193601E-13, 8.998558695971026591E-33, 70.00000000000000000 ) ) ;
#164 = CARTESIAN_POINT ( 'NONE',  ( 2.444036937190193601E-13, 1.199999999999992628, 70.00000000000000000 ) ) ;
#165 = ORIENTED_EDGE ( 'NONE', *, *, #12, .T. ) ;
#166 = AXIS2_PLACEMENT_3D ( 'NONE', #94, #48, #115 ) ;
#167 = EDGE_LOOP ( 'NONE', ( #36 ) ) ;
#168 = APPROVAL_STATUS ( 'not_yet_approved' ) ;
#169 = APPROVAL_DATE_TIME ( #269, #70 ) ;
#170 = FACE_OUTER_BOUND ( 'NONE', #33, .T. ) ;
#171 = EDGE_CURVE ( 'NONE', #215, #215, #259, .T. ) ;
#172 = PERSON_AND_ORGANIZATION ( #237, #263 ) ;
#173 = DIRECTION ( 'NONE',  ( -3.491481338843133355E-15, 1.224646799147353207E-16, -1.000000000000000000 ) ) ;
#174 = DATE_AND_TIME ( #120, #49 ) ;
#175 = DIRECTION ( 'NONE',  ( -3.491481338843133355E-15, 1.224646799147353207E-16, -1.000000000000000000 ) ) ;
#176 = PRODUCT_DEFINITION ( 'UNKNOWN', '', #200, #186 ) ;
#177 = APPLICATION_CONTEXT ( 'configuration controlled 3d designs of mechanical parts and assemblies' ) ;
#178 = AXIS2_PLACEMENT_3D ( 'NONE', #163, #53, #25 ) ;
#179 = ADVANCED_BREP_SHAPE_REPRESENTATION ( '321633', ( #208, #207, #131 ), #252 ) ;
#180 = DIRECTION ( 'NONE',  ( -4.275831445896958607E-31, -1.000000000000000000, -1.224646799147353454E-16 ) ) ;
#181 = EDGE_CURVE ( 'NONE', #46, #46, #123, .T. ) ;
#182 = FACE_OUTER_BOUND ( 'NONE', #56, .T. ) ;
#183 = CARTESIAN_POINT ( 'NONE',  ( 3.491481338843133355E-14, 2.034999999999988596, 10.00000000000000000 ) ) ;
#184 = AXIS2_PLACEMENT_3D ( 'NONE', #80, #268, #82 ) ;
#185 =( LENGTH_UNIT ( ) NAMED_UNIT ( * ) SI_UNIT ( .MILLI., .METRE. ) );
#186 = DESIGN_CONTEXT ( 'detailed design', #274, 'design' ) ;
#187 = FACE_OUTER_BOUND ( 'NONE', #151, .T. ) ;
#188 = ORIENTED_EDGE ( 'NONE', *, *, #181, .T. ) ;
#189 = CARTESIAN_POINT ( 'NONE',  ( 0.0000000000000000000, 0.0000000000000000000, 0.0000000000000000000 ) ) ;
#190 = APPROVAL_ROLE ( '' ) ;
#191 = APPLICATION_PROTOCOL_DEFINITION ( 'international standard', 'config_control_design', 1994, #177 ) ;
#192 = AXIS2_PLACEMENT_3D ( 'NONE', #285, #261, #146 ) ;
#193 = CONICAL_SURFACE ( 'NONE', #136, 2.034999999999989928, 0.5235987755983000369 ) ;
#194 = ORIENTED_EDGE ( 'NONE', *, *, #206, .T. ) ;
#195 = PERSON_AND_ORGANIZATION_ROLE ( 'creator' ) ;
#196 = ADVANCED_FACE ( 'NONE', ( #155 ), #251, .F. ) ;
#197 = EDGE_LOOP ( 'NONE', ( #104 ) ) ;
#198 = FACE_OUTER_BOUND ( 'NONE', #133, .T. ) ;
#199 = DIRECTION ( 'NONE',  ( 1.000000000000000000, 0.0000000000000000000, 0.0000000000000000000 ) ) ;
#200 = PRODUCT_DEFINITION_FORMATION_WITH_SPECIFIED_SOURCE ( 'ANY', '', #204, .NOT_KNOWN. ) ;
#201 = CONICAL_SURFACE ( 'NONE', #214, 1.784999999999989040, 0.7853981633974500554 ) ;
#202 = DIRECTION ( 'NONE',  ( 3.491481338843133355E-15, -1.224646799147353207E-16, 1.000000000000000000 ) ) ;
#203 = ORIENTED_EDGE ( 'NONE', *, *, #254, .T. ) ;
#204 = PRODUCT ( '321633', '321633', '', ( #103 ) ) ;
#205 = PRODUCT_DEFINITION_SHAPE ( 'NONE', 'NONE',  #176 ) ;
#206 = EDGE_CURVE ( 'NONE', #6, #6, #144, .T. ) ;
#207 = MANIFOLD_SOLID_BREP ( 'Corps-Déplacer/Copier1[2]', #235 ) ;
#208 = MANIFOLD_SOLID_BREP ( 'Corps-Déplacer/Copier1[1]', #241 ) ;
#209 = DIRECTION ( 'NONE',  ( -3.491481338843133355E-15, 1.224646799147353207E-16, -1.000000000000000000 ) ) ;
#210 = CC_DESIGN_APPROVAL ( #26, ( #23 ) ) ;
#211 = ADVANCED_FACE ( 'NONE', ( #257, #277 ), #301, .T. ) ;
#212 = CARTESIAN_POINT ( 'NONE',  ( -3.816179565463012290E-31, 1.338535606025699896E-32, -1.092997268239006188E-16 ) ) ;
#213 = VERTEX_POINT ( 'NONE', #3 ) ;
#214 = AXIS2_PLACEMENT_3D ( 'NONE', #281, #202, #180 ) ;
#215 = VERTEX_POINT ( 'NONE', #28 ) ;
#216 = APPROVAL_DATE_TIME ( #5, #26 ) ;
#217 = CARTESIAN_POINT ( 'NONE',  ( 8.728703347107835360E-16, 2.034999999999989928, 0.2500000000000000555 ) ) ;
#218 = ORIENTED_EDGE ( 'NONE', *, *, #284, .T. ) ;
#219 = PERSON_AND_ORGANIZATION ( #237, #263 ) ;
#220 = CARTESIAN_POINT ( 'NONE',  ( 2.444036937190193601E-13, -8.572527594031472993E-15, 70.00000000000000000 ) ) ;
#221 = DIRECTION ( 'NONE',  ( 0.0000000000000000000, 0.0000000000000000000, 1.000000000000000000 ) ) ;
#222 = ORIENTED_EDGE ( 'NONE', *, *, #2, .F. ) ;
#223 = PERSON_AND_ORGANIZATION ( #237, #263 ) ;
#224 = ORIENTED_EDGE ( 'NONE', *, *, #254, .F. ) ;
#225 = DIRECTION ( 'NONE',  ( -3.491481338843133355E-15, 1.224646799147353207E-16, -1.000000000000000000 ) ) ;
#226 = ORIENTED_EDGE ( 'NONE', *, *, #171, .F. ) ;
#227 = LOCAL_TIME ( 10, 36, 22.00000000000000000, #34 ) ;
#228 = AXIS2_PLACEMENT_3D ( 'NONE', #212, #76, #71 ) ;
#229 = DIRECTION ( 'NONE',  ( 4.275831445896958607E-31, 1.000000000000000000, 1.224646799147353207E-16 ) ) ;
#230 = ADVANCED_FACE ( 'NONE', ( #41, #255 ), #193, .T. ) ;
#231 = CONICAL_SURFACE ( 'NONE', #95, 1.200000000000001510, 0.7853981633974566057 ) ;
#232 = CARTESIAN_POINT ( 'NONE',  ( 2.444036937190193601E-13, -8.572527594031472993E-15, 70.00000000000000000 ) ) ;
#233 = DIRECTION ( 'NONE',  ( -3.491481338843133355E-15, 1.224646799147353207E-16, -1.000000000000000000 ) ) ;
#234 = CC_DESIGN_PERSON_AND_ORGANIZATION_ASSIGNMENT ( #63, #195, ( #176 ) ) ;
#235 = CLOSED_SHELL ( 'NONE', ( #230, #35, #153, #262, #196, #65, #276 ) ) ;
#236 = CARTESIAN_POINT ( 'NONE',  ( 2.444036937190193601E-13, 1.199999999999992628, 70.00000000000000000 ) ) ;
#237 = PERSON ( 'UNSPECIFIED', 'UNSPECIFIED', 'UNSPECIFIED', ('UNSPECIFIED'), ('UNSPECIFIED'), ('UNSPECIFIED') ) ;
#238 = CARTESIAN_POINT ( 'NONE',  ( 2.444036937190193601E-13, -8.572527594031472993E-15, 70.00000000000000000 ) ) ;
#239 = ADVANCED_FACE ( 'NONE', ( #73 ), #137, .F. ) ;
#240 = CC_DESIGN_APPROVAL ( #70, ( #200 ) ) ;
#241 = CLOSED_SHELL ( 'NONE', ( #294, #211, #139, #127, #239 ) ) ;
#242 = PLANE ( 'NONE',  #228 ) ;
#243 = CARTESIAN_POINT ( 'NONE',  ( 2.433562493173664138E-13, -8.535788190057053710E-15, 69.70000000000001705 ) ) ;
#244 = VERTEX_POINT ( 'NONE', #116 ) ;
#245 = APPROVAL ( #108, 'UNSPECIFIED' ) ;
#246 = DIRECTION ( 'NONE',  ( 4.275831445896958607E-31, 1.000000000000000000, 1.224646799147353454E-16 ) ) ;
#247 = SECURITY_CLASSIFICATION_LEVEL ( 'unclassified' ) ;
#248 = AXIS2_PLACEMENT_3D ( 'NONE', #114, #1, #47 ) ;
#249 = EDGE_LOOP ( 'NONE', ( #194 ) ) ;
#250 = COORDINATED_UNIVERSAL_TIME_OFFSET ( 1, 0, .AHEAD. ) ;
#251 = PLANE ( 'NONE',  #101 ) ;
#252 =( GEOMETRIC_REPRESENTATION_CONTEXT ( 3 ) GLOBAL_UNCERTAINTY_ASSIGNED_CONTEXT ( ( #141 ) ) GLOBAL_UNIT_ASSIGNED_CONTEXT ( ( #185, #61, #291 ) ) REPRESENTATION_CONTEXT ( 'NONE', 'WORKASPACE' ) );
#253 = EDGE_LOOP ( 'NONE', ( #224 ) ) ;
#254 = EDGE_CURVE ( 'NONE', #138, #138, #161, .T. ) ;
#255 = FACE_OUTER_BOUND ( 'NONE', #87, .T. ) ;
#256 = AXIS2_PLACEMENT_3D ( 'NONE', #243, #37, #7 ) ;
#257 = FACE_BOUND ( 'NONE', #126, .T. ) ;
#258 = VERTEX_POINT ( 'NONE', #282 ) ;
#259 = CIRCLE ( 'NONE', #50, 1.500000000000001110 ) ;
#260 = VERTEX_POINT ( 'NONE', #140 ) ;
#261 = DIRECTION ( 'NONE',  ( 3.491481338843133355E-15, -1.224646799147353207E-16, 1.000000000000000000 ) ) ;
#262 = ADVANCED_FACE ( 'NONE', ( #288 ), #242, .T. ) ;
#263 = ORGANIZATION ( 'UNSPECIFIED', 'UNSPECIFIED', '' ) ;
#264 = FACE_OUTER_BOUND ( 'NONE', #145, .T. ) ;
#265 = FACE_OUTER_BOUND ( 'NONE', #167, .T. ) ;
#266 = CC_DESIGN_DATE_AND_TIME_ASSIGNMENT ( #174, #9, ( #176 ) ) ;
#267 = PERSON_AND_ORGANIZATION ( #237, #263 ) ;
#268 = DIRECTION ( 'NONE',  ( -3.491481338843133355E-15, 1.224646799147353207E-16, -1.000000000000000000 ) ) ;
#269 = DATE_AND_TIME ( #122, #156 ) ;
#270 = FACE_BOUND ( 'NONE', #249, .T. ) ;
#271 = CALENDAR_DATE ( 2021, 2, 12 ) ;
#272 = ORIENTED_EDGE ( 'NONE', *, *, #181, .F. ) ;
#273 = PERSON_AND_ORGANIZATION_ROLE ( 'classification_officer' ) ;
#274 = APPLICATION_CONTEXT ( 'configuration controlled 3d designs of mechanical parts and assemblies' ) ;
#275 = CARTESIAN_POINT ( 'NONE',  ( 0.0000000000000000000, 0.0000000000000000000, 0.0000000000000000000 ) ) ;
#276 = ADVANCED_FACE ( 'NONE', ( #187, #74 ), #44, .T. ) ;
#277 = FACE_OUTER_BOUND ( 'NONE', #96, .T. ) ;
#278 = APPROVAL_PERSON_ORGANIZATION ( #58, #26, #190 ) ;
#279 = FACE_BOUND ( 'NONE', #111, .T. ) ;
#280 = AXIS2_PLACEMENT_3D ( 'NONE', #220, #10, #102 ) ;
#281 = CARTESIAN_POINT ( 'NONE',  ( -7.632359130926024581E-31, 2.677071212051399792E-32, -2.185994536478012376E-16 ) ) ;
#282 = CARTESIAN_POINT ( 'NONE',  ( 3.491481338843133355E-14, 2.034999999999988596, 10.00000000000000000 ) ) ;
#283 = AXIS2_PLACEMENT_3D ( 'NONE', #121, #173, #75 ) ;
#284 = EDGE_CURVE ( 'NONE', #213, #213, #72, .T. ) ;
#285 = CARTESIAN_POINT ( 'NONE',  ( 3.491481338843133355E-14, 1.526005578858431002E-32, 10.00000000000000000 ) ) ;
#286 = DIRECTION ( 'NONE',  ( 0.0000000000000000000, 1.000000000000000000, 0.0000000000000000000 ) ) ;
#287 = SHAPE_DEFINITION_REPRESENTATION ( #205, #179 ) ;
#288 = FACE_OUTER_BOUND ( 'NONE', #31, .T. ) ;
#289 = CARTESIAN_POINT ( 'NONE',  ( 3.491481338843133355E-14, -1.224646799147353256E-15, 10.00000000000000000 ) ) ;
#290 = PERSON_AND_ORGANIZATION ( #237, #263 ) ;
#291 =( NAMED_UNIT ( * ) SI_UNIT ( $, .STERADIAN. ) SOLID_ANGLE_UNIT ( ) );
#292 = CYLINDRICAL_SURFACE ( 'NONE', #17, 2.034999999999989928 ) ;
#293 = DIRECTION ( 'NONE',  ( -3.491481338843133355E-15, 1.224646799147353207E-16, -1.000000000000000000 ) ) ;
#294 = ADVANCED_FACE ( 'NONE', ( #265 ), #30, .F. ) ;
#295 = CALENDAR_DATE ( 2021, 2, 12 ) ;
#296 = CIRCLE ( 'NONE', #184, 1.499999999999992895 ) ;
#297 = EDGE_LOOP ( 'NONE', ( #203 ) ) ;
#298 = DIRECTION ( 'NONE',  ( -3.491481338843133355E-15, 1.224646799147353207E-16, -1.000000000000000000 ) ) ;
#299 = ORIENTED_EDGE ( 'NONE', *, *, #90, .F. ) ;
#300 = PRODUCT_RELATED_PRODUCT_CATEGORY ( 'detail', '', ( #204 ) ) ;
#301 = CONICAL_SURFACE ( 'NONE', #112, 2.034999999999989928, 0.5235987755983000369 ) ;
#302 = CC_DESIGN_SECURITY_CLASSIFICATION ( #23, ( #200 ) ) ;
#303 = FACE_OUTER_BOUND ( 'NONE', #54, .T. ) ;
ENDSEC;
END-ISO-10303-21;
