ISO-10303-21;
HEADER;
FILE_DESCRIPTION (( 'STEP AP203' ),
    '1' );
FILE_NAME ('321632.step',
    '2021-12-02T09:36:21',
    ( '' ),
    ( '' ),
    'SwSTEP 2.0',
    'SolidWorks 2019',
    '' );
FILE_SCHEMA (( 'CONFIG_CONTROL_DESIGN' ));
ENDSEC;

DATA;
#1 = DIRECTION ( 'NONE',  ( 0.0000000000000000000, 1.000000000000000000, 0.0000000000000000000 ) ) ;
#2 = APPLICATION_CONTEXT ( 'configuration controlled 3d designs of mechanical parts and assemblies' ) ;
#3 = EDGE_CURVE ( 'NONE', #60, #60, #119, .T. ) ;
#4 = APPROVAL ( #15, 'UNSPECIFIED' ) ;
#5 = CARTESIAN_POINT ( 'NONE',  ( 2.433562493173664138E-13, 1.499999999999992673, 69.70000000000001705 ) ) ;
#6 = VERTEX_POINT ( 'NONE', #145 ) ;
#7 = ORIENTED_EDGE ( 'NONE', *, *, #26, .F. ) ;
#8 = ADVANCED_FACE ( 'NONE', ( #264, #61 ), #188, .T. ) ;
#9 = CC_DESIGN_APPROVAL ( #4, ( #230 ) ) ;
#10 = ORIENTED_EDGE ( 'NONE', *, *, #268, .T. ) ;
#11 = APPROVAL_STATUS ( 'not_yet_approved' ) ;
#12 = EDGE_LOOP ( 'NONE', ( #139 ) ) ;
#13 = APPROVAL_DATE_TIME ( #241, #262 ) ;
#14 = ORIENTED_EDGE ( 'NONE', *, *, #251, .F. ) ;
#15 = APPROVAL_STATUS ( 'not_yet_approved' ) ;
#16 = AXIS2_PLACEMENT_3D ( 'NONE', #187, #99, #170 ) ;
#17 = APPROVAL_DATE_TIME ( #236, #278 ) ;
#18 = CC_DESIGN_PERSON_AND_ORGANIZATION_ASSIGNMENT ( #132, #37, ( #33 ) ) ;
#19 = FACE_OUTER_BOUND ( 'NONE', #184, .T. ) ;
#20 = ADVANCED_FACE ( 'NONE', ( #239 ), #36, .F. ) ;
#21 = PLANE ( 'NONE',  #223 ) ;
#22 = APPROVAL_PERSON_ORGANIZATION ( #109, #262, #133 ) ;
#23 = DIRECTION ( 'NONE',  ( 0.0000000000000000000, 1.000000000000000000, 0.0000000000000000000 ) ) ;
#24 = DIRECTION ( 'NONE',  ( 0.0000000000000000000, 0.0000000000000000000, 1.000000000000000000 ) ) ;
#25 = AXIS2_PLACEMENT_3D ( 'NONE', #244, #186, #40 ) ;
#26 = EDGE_CURVE ( 'NONE', #208, #208, #159, .T. ) ;
#27 = MANIFOLD_SOLID_BREP ( 'Corps-Déplacer/Copier1[2]', #222 ) ;
#28 = FACE_BOUND ( 'NONE', #220, .T. ) ;
#29 = CIRCLE ( 'NONE', #207, 1.200000000000001510 ) ;
#30 = FACE_OUTER_BOUND ( 'NONE', #49, .T. ) ;
#31 = CARTESIAN_POINT ( 'NONE',  ( 0.0000000000000000000, 0.0000000000000000000, 0.0000000000000000000 ) ) ;
#32 = DATE_TIME_ROLE ( 'creation_date' ) ;
#33 = PRODUCT_DEFINITION ( 'UNKNOWN', '', #90, #76 ) ;
#34 = EDGE_LOOP ( 'NONE', ( #111 ) ) ;
#35 = COORDINATED_UNIVERSAL_TIME_OFFSET ( 1, 0, .AHEAD. ) ;
#36 = PLANE ( 'NONE',  #191 ) ;
#37 = PERSON_AND_ORGANIZATION_ROLE ( 'creator' ) ;
#38 = DIRECTION ( 'NONE',  ( 0.0000000000000000000, 1.000000000000000000, 0.0000000000000000000 ) ) ;
#39 = AXIS2_PLACEMENT_3D ( 'NONE', #289, #183, #265 ) ;
#40 = DIRECTION ( 'NONE',  ( 4.275831445896958607E-31, 1.000000000000000000, 1.224646799147353454E-16 ) ) ;
#41 = CARTESIAN_POINT ( 'NONE',  ( -7.610979973696540742E-31, 2.669572413138090449E-32, -2.179871302482275500E-16 ) ) ;
#42 = CARTESIAN_POINT ( 'NONE',  ( 0.0000000000000000000, 0.0000000000000000000, 0.0000000000000000000 ) ) ;
#43 = APPLICATION_CONTEXT ( 'configuration controlled 3d designs of mechanical parts and assemblies' ) ;
#44 = DIRECTION ( 'NONE',  ( 3.491481338843133355E-15, -1.224646799147353207E-16, 1.000000000000000000 ) ) ;
#45 = CARTESIAN_POINT ( 'NONE',  ( -3.805489986848270371E-31, 1.334786206569045224E-32, -1.089935651241137750E-16 ) ) ;
#46 = UNCERTAINTY_MEASURE_WITH_UNIT (LENGTH_MEASURE( 1.000000000000000082E-05 ), #233, 'distance_accuracy_value', 'NONE');
#47 = VERTEX_POINT ( 'NONE', #210 ) ;
#48 = FACE_OUTER_BOUND ( 'NONE', #83, .T. ) ;
#49 = EDGE_LOOP ( 'NONE', ( #218 ) ) ;
#50 = DIRECTION ( 'NONE',  ( 0.0000000000000000000, 1.000000000000000000, 0.0000000000000000000 ) ) ;
#51 = AXIS2_PLACEMENT_3D ( 'NONE', #288, #286, #89 ) ;
#52 = ORIENTED_EDGE ( 'NONE', *, *, #251, .T. ) ;
#53 = FACE_OUTER_BOUND ( 'NONE', #291, .T. ) ;
#54 = PRODUCT_DEFINITION_SHAPE ( 'NONE', 'NONE',  #33 ) ;
#55 = DIRECTION ( 'NONE',  ( 0.0000000000000000000, 1.000000000000000000, 0.0000000000000000000 ) ) ;
#56 = ADVANCED_FACE ( 'NONE', ( #224, #104 ), #243, .T. ) ;
#57 = VERTEX_POINT ( 'NONE', #297 ) ;
#58 = AXIS2_PLACEMENT_3D ( 'NONE', #45, #227, #296 ) ;
#59 = ORIENTED_EDGE ( 'NONE', *, *, #110, .F. ) ;
#60 = VERTEX_POINT ( 'NONE', #5 ) ;
#61 = FACE_BOUND ( 'NONE', #276, .T. ) ;
#62 = ADVANCED_FACE ( 'NONE', ( #30, #199 ), #285, .T. ) ;
#63 = ORIENTED_EDGE ( 'NONE', *, *, #242, .F. ) ;
#64 = COORDINATED_UNIVERSAL_TIME_OFFSET ( 1, 0, .AHEAD. ) ;
#65 = AXIS2_PLACEMENT_3D ( 'NONE', #266, #69, #38 ) ;
#66 = AXIS2_PLACEMENT_3D ( 'NONE', #235, #234, #195 ) ;
#67 = DIRECTION ( 'NONE',  ( 0.0000000000000000000, 1.000000000000000000, 0.0000000000000000000 ) ) ;
#68 = FACE_OUTER_BOUND ( 'NONE', #250, .T. ) ;
#69 = DIRECTION ( 'NONE',  ( -3.491481338843133355E-15, 1.224646799147353207E-16, -1.000000000000000000 ) ) ;
#70 = PERSON_AND_ORGANIZATION ( #209, #168 ) ;
#71 = APPROVAL_PERSON_ORGANIZATION ( #70, #278, #157 ) ;
#72 = DIRECTION ( 'NONE',  ( 4.275831445896958607E-31, 1.000000000000000000, 1.224646799147353454E-16 ) ) ;
#73 = MECHANICAL_CONTEXT ( 'NONE', #2, 'mechanical' ) ;
#74 = DIRECTION ( 'NONE',  ( -4.275831445896958607E-31, -1.000000000000000000, -1.224646799147353207E-16 ) ) ;
#75 =( NAMED_UNIT ( * ) PLANE_ANGLE_UNIT ( ) SI_UNIT ( $, .RADIAN. ) );
#76 = DESIGN_CONTEXT ( 'detailed design', #43, 'design' ) ;
#77 = ORIENTED_EDGE ( 'NONE', *, *, #110, .T. ) ;
#78 = CARTESIAN_POINT ( 'NONE',  ( 3.491481338843133355E-14, -1.224646799147353256E-15, 10.00000000000000000 ) ) ;
#79 =( GEOMETRIC_REPRESENTATION_CONTEXT ( 3 ) GLOBAL_UNCERTAINTY_ASSIGNED_CONTEXT ( ( #46 ) ) GLOBAL_UNIT_ASSIGNED_CONTEXT ( ( #233, #75, #171 ) ) REPRESENTATION_CONTEXT ( 'NONE', 'WORKASPACE' ) );
#80 = DIRECTION ( 'NONE',  ( 0.0000000000000000000, 1.000000000000000000, 0.0000000000000000000 ) ) ;
#81 = FACE_OUTER_BOUND ( 'NONE', #135, .T. ) ;
#82 = ADVANCED_FACE ( 'NONE', ( #167 ), #94, .T. ) ;
#83 = EDGE_LOOP ( 'NONE', ( #63 ) ) ;
#84 = CARTESIAN_POINT ( 'NONE',  ( 2.433562493173664138E-13, 1.499999999999992673, 69.70000000000001705 ) ) ;
#85 = EDGE_CURVE ( 'NONE', #123, #123, #141, .T. ) ;
#86 = ORIENTED_EDGE ( 'NONE', *, *, #3, .T. ) ;
#87 = ORIENTED_EDGE ( 'NONE', *, *, #126, .F. ) ;
#88 = SECURITY_CLASSIFICATION_LEVEL ( 'unclassified' ) ;
#89 = DIRECTION ( 'NONE',  ( 0.0000000000000000000, 1.000000000000000000, 0.0000000000000000000 ) ) ;
#90 = PRODUCT_DEFINITION_FORMATION_WITH_SPECIFIED_SOURCE ( 'ANY', '', #160, .NOT_KNOWN. ) ;
#91 = DIRECTION ( 'NONE',  ( -4.275831445896958607E-31, -1.000000000000000000, -1.224646799147353207E-16 ) ) ;
#92 = DIRECTION ( 'NONE',  ( 4.275831445896958607E-31, 1.000000000000000000, 1.224646799147353207E-16 ) ) ;
#93 = DATE_AND_TIME ( #292, #263 ) ;
#94 = PLANE ( 'NONE',  #58 ) ;
#95 = EDGE_CURVE ( 'NONE', #190, #190, #237, .T. ) ;
#96 = CYLINDRICAL_SURFACE ( 'NONE', #25, 1.499999999999996891 ) ;
#97 = LOCAL_TIME ( 10, 36, 21.00000000000000000, #35 ) ;
#98 = CC_DESIGN_PERSON_AND_ORGANIZATION_ASSIGNMENT ( #124, #232, ( #160 ) ) ;
#99 = DIRECTION ( 'NONE',  ( -3.491481338843133355E-15, 1.224646799147353207E-16, -1.000000000000000000 ) ) ;
#100 = CARTESIAN_POINT ( 'NONE',  ( 0.0000000000000000000, 0.0000000000000000000, 0.0000000000000000000 ) ) ;
#101 = CARTESIAN_POINT ( 'NONE',  ( 3.491481338843133355E-14, 2.029999999999988702, 10.00000000000000000 ) ) ;
#102 = CIRCLE ( 'NONE', #301, 2.029999999999990035 ) ;
#103 = VERTEX_POINT ( 'NONE', #101 ) ;
#104 = FACE_OUTER_BOUND ( 'NONE', #214, .T. ) ;
#105 = DIRECTION ( 'NONE',  ( -3.491481338843133355E-15, 1.224646799147353207E-16, -1.000000000000000000 ) ) ;
#106 = CARTESIAN_POINT ( 'NONE',  ( 2.444036937190193601E-13, -8.572527594031472993E-15, 70.00000000000000000 ) ) ;
#107 = CONICAL_SURFACE ( 'NONE', #272, 2.029999999999990035, 0.5235987755983005920 ) ;
#108 = EDGE_LOOP ( 'NONE', ( #59 ) ) ;
#109 = PERSON_AND_ORGANIZATION ( #209, #168 ) ;
#110 = EDGE_CURVE ( 'NONE', #47, #47, #29, .T. ) ;
#111 = ORIENTED_EDGE ( 'NONE', *, *, #95, .T. ) ;
#112 = DATE_TIME_ROLE ( 'classification_date' ) ;
#113 = DIRECTION ( 'NONE',  ( -3.491481338843133355E-15, 1.224646799147353207E-16, -1.000000000000000000 ) ) ;
#114 = EDGE_LOOP ( 'NONE', ( #129 ) ) ;
#115 = APPROVAL_ROLE ( '' ) ;
#116 = PERSON_AND_ORGANIZATION ( #209, #168 ) ;
#117 = AXIS2_PLACEMENT_3D ( 'NONE', #31, #245, #72 ) ;
#118 = DIRECTION ( 'NONE',  ( 3.491481338843133355E-15, -1.224646799147353207E-16, 1.000000000000000000 ) ) ;
#119 = CIRCLE ( 'NONE', #51, 1.500000000000001110 ) ;
#120 = LOCAL_TIME ( 10, 36, 21.00000000000000000, #166 ) ;
#121 = CARTESIAN_POINT ( 'NONE',  ( 2.444036937190193601E-13, -8.572527594031472993E-15, 70.00000000000000000 ) ) ;
#122 = CC_DESIGN_PERSON_AND_ORGANIZATION_ASSIGNMENT ( #116, #219, ( #90 ) ) ;
#123 = VERTEX_POINT ( 'NONE', #84 ) ;
#124 = PERSON_AND_ORGANIZATION ( #209, #168 ) ;
#125 = AXIS2_PLACEMENT_3D ( 'NONE', #192, #256, #80 ) ;
#126 = EDGE_CURVE ( 'NONE', #6, #6, #182, .T. ) ;
#127 = LOCAL_TIME ( 10, 36, 21.00000000000000000, #64 ) ;
#128 = APPLICATION_PROTOCOL_DEFINITION ( 'international standard', 'config_control_design', 1994, #43 ) ;
#129 = ORIENTED_EDGE ( 'NONE', *, *, #95, .F. ) ;
#130 = FACE_OUTER_BOUND ( 'NONE', #114, .T. ) ;
#131 = ORIENTED_EDGE ( 'NONE', *, *, #172, .F. ) ;
#132 = PERSON_AND_ORGANIZATION ( #209, #168 ) ;
#133 = APPROVAL_ROLE ( '' ) ;
#134 = MANIFOLD_SOLID_BREP ( 'Corps-Déplacer/Copier1[1]', #270 ) ;
#135 = EDGE_LOOP ( 'NONE', ( #178 ) ) ;
#136 = CALENDAR_DATE ( 2021, 2, 12 ) ;
#137 = DIRECTION ( 'NONE',  ( -3.491481338843133355E-15, 1.224646799147353207E-16, -1.000000000000000000 ) ) ;
#138 = CALENDAR_DATE ( 2021, 2, 12 ) ;
#139 = ORIENTED_EDGE ( 'NONE', *, *, #268, .F. ) ;
#140 = PERSON_AND_ORGANIZATION ( #209, #168 ) ;
#141 = CIRCLE ( 'NONE', #16, 1.500000000000001110 ) ;
#142 = DIRECTION ( 'NONE',  ( 0.0000000000000000000, 1.000000000000000000, 0.0000000000000000000 ) ) ;
#143 = CC_DESIGN_DATE_AND_TIME_ASSIGNMENT ( #185, #112, ( #230 ) ) ;
#144 = DIRECTION ( 'NONE',  ( -3.491481338843133355E-15, 1.224646799147353207E-16, -1.000000000000000000 ) ) ;
#145 = CARTESIAN_POINT ( 'NONE',  ( 3.491481338843133355E-14, 2.029999999999988702, 10.00000000000000000 ) ) ;
#146 = CARTESIAN_POINT ( 'NONE',  ( 3.811994761688541241E-14, -1.337067774452192364E-15, 10.91798692801149606 ) ) ;
#147 = ADVANCED_FACE ( 'NONE', ( #53, #254 ), #279, .T. ) ;
#148 = APPROVAL_PERSON_ORGANIZATION ( #221, #4, #115 ) ;
#149 = EDGE_LOOP ( 'NONE', ( #252 ) ) ;
#150 = VERTEX_POINT ( 'NONE', #281 ) ;
#151 = CC_DESIGN_PERSON_AND_ORGANIZATION_ASSIGNMENT ( #200, #261, ( #230 ) ) ;
#152 = CC_DESIGN_APPROVAL ( #278, ( #33 ) ) ;
#153 = CARTESIAN_POINT ( 'NONE',  ( 2.444036937190193601E-13, -8.572527594031472993E-15, 70.00000000000000000 ) ) ;
#154 = CARTESIAN_POINT ( 'NONE',  ( 2.444036937190193601E-13, 1.199999999999992628, 70.00000000000000000 ) ) ;
#155 = ADVANCED_FACE ( 'NONE', ( #303, #48 ), #107, .T. ) ;
#156 = DIRECTION ( 'NONE',  ( -3.491481338843133355E-15, 1.224646799147353207E-16, -1.000000000000000000 ) ) ;
#157 = APPROVAL_ROLE ( '' ) ;
#158 = AXIS2_PLACEMENT_3D ( 'NONE', #146, #173, #269 ) ;
#159 = CIRCLE ( 'NONE', #65, 1.200000000000001510 ) ;
#160 = PRODUCT ( '321632', '321632', '', ( #73 ) ) ;
#161 = EDGE_LOOP ( 'NONE', ( #257 ) ) ;
#162 = APPROVAL_STATUS ( 'not_yet_approved' ) ;
#163 = ADVANCED_BREP_SHAPE_REPRESENTATION ( '321632', ( #134, #27, #174 ), #79 ) ;
#164 = FACE_OUTER_BOUND ( 'NONE', #108, .T. ) ;
#165 = ORIENTED_EDGE ( 'NONE', *, *, #85, .T. ) ;
#166 = COORDINATED_UNIVERSAL_TIME_OFFSET ( 1, 0, .AHEAD. ) ;
#167 = FACE_OUTER_BOUND ( 'NONE', #201, .T. ) ;
#168 = ORGANIZATION ( 'UNSPECIFIED', 'UNSPECIFIED', '' ) ;
#169 = CARTESIAN_POINT ( 'NONE',  ( 3.491481338843133355E-14, 1.522256179401776057E-32, 10.00000000000000000 ) ) ;
#170 = DIRECTION ( 'NONE',  ( 0.0000000000000000000, 1.000000000000000000, 0.0000000000000000000 ) ) ;
#171 =( NAMED_UNIT ( * ) SI_UNIT ( $, .STERADIAN. ) SOLID_ANGLE_UNIT ( ) );
#172 = EDGE_CURVE ( 'NONE', #57, #57, #228, .T. ) ;
#173 = DIRECTION ( 'NONE',  ( -3.491481338843133355E-15, 1.224646799147353207E-16, -1.000000000000000000 ) ) ;
#174 = AXIS2_PLACEMENT_3D ( 'NONE', #42, #24, #229 ) ;
#175 = PLANE ( 'NONE',  #290 ) ;
#176 = CARTESIAN_POINT ( 'NONE',  ( 0.0000000000000000000, 1.779999999999989369, 0.0000000000000000000 ) ) ;
#177 = CIRCLE ( 'NONE', #274, 1.779999999999989369 ) ;
#178 = ORIENTED_EDGE ( 'NONE', *, *, #85, .F. ) ;
#179 = VERTEX_POINT ( 'NONE', #176 ) ;
#180 = CC_DESIGN_PERSON_AND_ORGANIZATION_ASSIGNMENT ( #140, #181, ( #90 ) ) ;
#181 = PERSON_AND_ORGANIZATION_ROLE ( 'creator' ) ;
#182 = CIRCLE ( 'NONE', #193, 2.029999999999990035 ) ;
#183 = DIRECTION ( 'NONE',  ( -3.491481338843133355E-15, 1.224646799147353207E-16, -1.000000000000000000 ) ) ;
#184 = EDGE_LOOP ( 'NONE', ( #260 ) ) ;
#185 = DATE_AND_TIME ( #136, #127 ) ;
#186 = DIRECTION ( 'NONE',  ( -3.491481338843133355E-15, 1.224646799147353207E-16, -1.000000000000000000 ) ) ;
#187 = CARTESIAN_POINT ( 'NONE',  ( 2.433562493173664138E-13, -8.535788190057053710E-15, 69.70000000000001705 ) ) ;
#188 = CONICAL_SURFACE ( 'NONE', #280, 1.200000000000001510, 0.7853981633974566057 ) ;
#189 = CC_DESIGN_SECURITY_CLASSIFICATION ( #230, ( #90 ) ) ;
#190 = VERTEX_POINT ( 'NONE', #283 ) ;
#191 = AXIS2_PLACEMENT_3D ( 'NONE', #153, #137, #92 ) ;
#192 = CARTESIAN_POINT ( 'NONE',  ( 2.444036937190193601E-13, -8.572527594031472993E-15, 70.00000000000000000 ) ) ;
#193 = AXIS2_PLACEMENT_3D ( 'NONE', #300, #249, #50 ) ;
#194 = LOCAL_TIME ( 10, 36, 21.00000000000000000, #202 ) ;
#195 = DIRECTION ( 'NONE',  ( 0.0000000000000000000, 1.000000000000000000, 0.0000000000000000000 ) ) ;
#196 = FACE_OUTER_BOUND ( 'NONE', #216, .T. ) ;
#197 = ADVANCED_FACE ( 'NONE', ( #68, #206 ), #96, .T. ) ;
#198 = AXIS2_PLACEMENT_3D ( 'NONE', #247, #144, #23 ) ;
#199 = FACE_OUTER_BOUND ( 'NONE', #12, .T. ) ;
#200 = PERSON_AND_ORGANIZATION ( #209, #168 ) ;
#201 = EDGE_LOOP ( 'NONE', ( #52 ) ) ;
#202 = COORDINATED_UNIVERSAL_TIME_OFFSET ( 1, 0, .AHEAD. ) ;
#203 = DIRECTION ( 'NONE',  ( 4.275831445896958607E-31, 1.000000000000000000, 1.224646799147353207E-16 ) ) ;
#204 = ORIENTED_EDGE ( 'NONE', *, *, #26, .T. ) ;
#205 = COORDINATED_UNIVERSAL_TIME_OFFSET ( 1, 0, .AHEAD. ) ;
#206 = FACE_OUTER_BOUND ( 'NONE', #258, .T. ) ;
#207 = AXIS2_PLACEMENT_3D ( 'NONE', #121, #298, #55 ) ;
#208 = VERTEX_POINT ( 'NONE', #154 ) ;
#209 = PERSON ( 'UNSPECIFIED', 'UNSPECIFIED', 'UNSPECIFIED', ('UNSPECIFIED'), ('UNSPECIFIED'), ('UNSPECIFIED') ) ;
#210 = CARTESIAN_POINT ( 'NONE',  ( 2.444036937190193601E-13, 1.199999999999992628, 70.00000000000000000 ) ) ;
#211 = PRODUCT_RELATED_PRODUCT_CATEGORY ( 'detail', '', ( #160 ) ) ;
#212 = CIRCLE ( 'NONE', #39, 2.029999999999990035 ) ;
#213 = DIRECTION ( 'NONE',  ( -3.491481338843133355E-15, 1.224646799147353207E-16, -1.000000000000000000 ) ) ;
#214 = EDGE_LOOP ( 'NONE', ( #87 ) ) ;
#215 = APPLICATION_PROTOCOL_DEFINITION ( 'international standard', 'config_control_design', 1994, #2 ) ;
#216 = EDGE_LOOP ( 'NONE', ( #165 ) ) ;
#217 = DATE_AND_TIME ( #287, #97 ) ;
#218 = ORIENTED_EDGE ( 'NONE', *, *, #126, .T. ) ;
#219 = PERSON_AND_ORGANIZATION_ROLE ( 'design_supplier' ) ;
#220 = EDGE_LOOP ( 'NONE', ( #204 ) ) ;
#221 = PERSON_AND_ORGANIZATION ( #209, #168 ) ;
#222 = CLOSED_SHELL ( 'NONE', ( #56, #62, #147, #82, #20, #277, #295 ) ) ;
#223 = AXIS2_PLACEMENT_3D ( 'NONE', #169, #118, #91 ) ;
#224 = FACE_BOUND ( 'NONE', #34, .T. ) ;
#225 = ADVANCED_FACE ( 'NONE', ( #19 ), #21, .F. ) ;
#226 = CC_DESIGN_DATE_AND_TIME_ASSIGNMENT ( #217, #32, ( #33 ) ) ;
#227 = DIRECTION ( 'NONE',  ( -3.491481338843133355E-15, 1.224646799147353207E-16, -1.000000000000000000 ) ) ;
#228 = CIRCLE ( 'NONE', #158, 1.499999999999992895 ) ;
#229 = DIRECTION ( 'NONE',  ( 1.000000000000000000, 0.0000000000000000000, 0.0000000000000000000 ) ) ;
#230 = SECURITY_CLASSIFICATION ( '', '', #88 ) ;
#231 = DIRECTION ( 'NONE',  ( -3.491481338843133355E-15, 1.224646799147353207E-16, -1.000000000000000000 ) ) ;
#232 = PERSON_AND_ORGANIZATION_ROLE ( 'design_owner' ) ;
#233 =( LENGTH_UNIT ( ) NAMED_UNIT ( * ) SI_UNIT ( .MILLI., .METRE. ) );
#234 = DIRECTION ( 'NONE',  ( -3.491481338843133355E-15, 1.224646799147353207E-16, -1.000000000000000000 ) ) ;
#235 = CARTESIAN_POINT ( 'NONE',  ( 3.491481338843133355E-14, -1.224646799147353256E-15, 10.00000000000000000 ) ) ;
#236 = DATE_AND_TIME ( #259, #120 ) ;
#237 = CIRCLE ( 'NONE', #198, 1.499999999999992895 ) ;
#238 = AXIS2_PLACEMENT_3D ( 'NONE', #100, #105, #255 ) ;
#239 = FACE_OUTER_BOUND ( 'NONE', #240, .T. ) ;
#240 = EDGE_LOOP ( 'NONE', ( #7 ) ) ;
#241 = DATE_AND_TIME ( #138, #194 ) ;
#242 = EDGE_CURVE ( 'NONE', #103, #103, #102, .T. ) ;
#243 = CONICAL_SURFACE ( 'NONE', #66, 2.029999999999990035, 0.5235987755983005920 ) ;
#244 = CARTESIAN_POINT ( 'NONE',  ( 0.0000000000000000000, 0.0000000000000000000, 0.0000000000000000000 ) ) ;
#245 = DIRECTION ( 'NONE',  ( -3.491481338843133355E-15, 1.224646799147353207E-16, -1.000000000000000000 ) ) ;
#246 = DIRECTION ( 'NONE',  ( -3.491481338843133355E-15, 1.224646799147353207E-16, -1.000000000000000000 ) ) ;
#247 = CARTESIAN_POINT ( 'NONE',  ( 3.811994761688541241E-14, -1.337067774452192364E-15, 10.91798692801149606 ) ) ;
#248 = CC_DESIGN_APPROVAL ( #262, ( #90 ) ) ;
#249 = DIRECTION ( 'NONE',  ( -3.491481338843133355E-15, 1.224646799147353207E-16, -1.000000000000000000 ) ) ;
#250 = EDGE_LOOP ( 'NONE', ( #131 ) ) ;
#251 = EDGE_CURVE ( 'NONE', #179, #179, #177, .T. ) ;
#252 = ORIENTED_EDGE ( 'NONE', *, *, #172, .T. ) ;
#253 = AXIS2_PLACEMENT_3D ( 'NONE', #273, #44, #74 ) ;
#254 = FACE_BOUND ( 'NONE', #282, .T. ) ;
#255 = DIRECTION ( 'NONE',  ( 4.275831445896958607E-31, 1.000000000000000000, 1.224646799147353454E-16 ) ) ;
#256 = DIRECTION ( 'NONE',  ( -3.491481338843133355E-15, 1.224646799147353207E-16, -1.000000000000000000 ) ) ;
#257 = ORIENTED_EDGE ( 'NONE', *, *, #3, .F. ) ;
#258 = EDGE_LOOP ( 'NONE', ( #86 ) ) ;
#259 = CALENDAR_DATE ( 2021, 2, 12 ) ;
#260 = ORIENTED_EDGE ( 'NONE', *, *, #242, .T. ) ;
#261 = PERSON_AND_ORGANIZATION_ROLE ( 'classification_officer' ) ;
#262 = APPROVAL ( #11, 'UNSPECIFIED' ) ;
#263 = LOCAL_TIME ( 10, 36, 21.00000000000000000, #205 ) ;
#264 = FACE_OUTER_BOUND ( 'NONE', #161, .T. ) ;
#265 = DIRECTION ( 'NONE',  ( 4.743669813761688271E-31, 1.000000000000000000, 1.335224350351613091E-16 ) ) ;
#266 = CARTESIAN_POINT ( 'NONE',  ( 2.444036937190193601E-13, -8.572527594031472993E-15, 70.00000000000000000 ) ) ;
#267 = APPROVAL_DATE_TIME ( #93, #4 ) ;
#268 = EDGE_CURVE ( 'NONE', #150, #150, #212, .T. ) ;
#269 = DIRECTION ( 'NONE',  ( 0.0000000000000000000, 1.000000000000000000, 0.0000000000000000000 ) ) ;
#270 = CLOSED_SHELL ( 'NONE', ( #225, #155, #197, #8, #271 ) ) ;
#271 = ADVANCED_FACE ( 'NONE', ( #164 ), #175, .F. ) ;
#272 = AXIS2_PLACEMENT_3D ( 'NONE', #78, #231, #1 ) ;
#273 = CARTESIAN_POINT ( 'NONE',  ( -7.610979973696540742E-31, 2.669572413138090449E-32, -2.179871302482275500E-16 ) ) ;
#274 = AXIS2_PLACEMENT_3D ( 'NONE', #41, #113, #203 ) ;
#275 = DIRECTION ( 'NONE',  ( 4.275831445896958607E-31, 1.000000000000000000, 1.224646799147353207E-16 ) ) ;
#276 = EDGE_LOOP ( 'NONE', ( #77 ) ) ;
#277 = ADVANCED_FACE ( 'NONE', ( #81, #28 ), #284, .T. ) ;
#278 = APPROVAL ( #162, 'UNSPECIFIED' ) ;
#279 = CONICAL_SURFACE ( 'NONE', #253, 1.779999999999989369, 0.7853981633974500554 ) ;
#280 = AXIS2_PLACEMENT_3D ( 'NONE', #106, #156, #67 ) ;
#281 = CARTESIAN_POINT ( 'NONE',  ( 8.728703347107835360E-16, 2.029999999999990035, 0.2500000000000000555 ) ) ;
#282 = EDGE_LOOP ( 'NONE', ( #14 ) ) ;
#283 = CARTESIAN_POINT ( 'NONE',  ( 3.811994761688541241E-14, 1.499999999999991562, 10.91798692801149606 ) ) ;
#284 = CONICAL_SURFACE ( 'NONE', #125, 1.200000000000001510, 0.7853981633974566057 ) ;
#285 = CYLINDRICAL_SURFACE ( 'NONE', #117, 2.029999999999990035 ) ;
#286 = DIRECTION ( 'NONE',  ( -3.491481338843133355E-15, 1.224646799147353207E-16, -1.000000000000000000 ) ) ;
#287 = CALENDAR_DATE ( 2021, 2, 12 ) ;
#288 = CARTESIAN_POINT ( 'NONE',  ( 2.433562493173664138E-13, -8.535788190057053710E-15, 69.70000000000001705 ) ) ;
#289 = CARTESIAN_POINT ( 'NONE',  ( 8.728703347107825500E-16, -3.061616997868380553E-17, 0.2499999999999997780 ) ) ;
#290 = AXIS2_PLACEMENT_3D ( 'NONE', #302, #213, #275 ) ;
#291 = EDGE_LOOP ( 'NONE', ( #10 ) ) ;
#292 = CALENDAR_DATE ( 2021, 2, 12 ) ;
#293 = CARTESIAN_POINT ( 'NONE',  ( 3.491481338843133355E-14, -1.224646799147353256E-15, 10.00000000000000000 ) ) ;
#294 = SHAPE_DEFINITION_REPRESENTATION ( #54, #163 ) ;
#295 = ADVANCED_FACE ( 'NONE', ( #130, #196 ), #299, .T. ) ;
#296 = DIRECTION ( 'NONE',  ( 4.275831445896958607E-31, 1.000000000000000000, 1.224646799147353207E-16 ) ) ;
#297 = CARTESIAN_POINT ( 'NONE',  ( 3.811994761688541241E-14, 1.499999999999991562, 10.91798692801149606 ) ) ;
#298 = DIRECTION ( 'NONE',  ( -3.491481338843133355E-15, 1.224646799147353207E-16, -1.000000000000000000 ) ) ;
#299 = CYLINDRICAL_SURFACE ( 'NONE', #238, 1.499999999999996891 ) ;
#300 = CARTESIAN_POINT ( 'NONE',  ( 3.491481338843133355E-14, -1.224646799147353256E-15, 10.00000000000000000 ) ) ;
#301 = AXIS2_PLACEMENT_3D ( 'NONE', #293, #246, #142 ) ;
#302 = CARTESIAN_POINT ( 'NONE',  ( 2.444036937190193601E-13, 8.998558695971026591E-33, 70.00000000000000000 ) ) ;
#303 = FACE_BOUND ( 'NONE', #149, .T. ) ;
ENDSEC;
END-ISO-10303-21;
