ISO-10303-21;
HEADER;
FILE_DESCRIPTION (( 'STEP AP203' ),
    '1' );
FILE_NAME ('321631.step',
    '2021-12-02T09:36:21',
    ( '' ),
    ( '' ),
    'SwSTEP 2.0',
    'SolidWorks 2019',
    '' );
FILE_SCHEMA (( 'CONFIG_CONTROL_DESIGN' ));
ENDSEC;

DATA;
#1 = PLANE ( 'NONE',  #277 ) ;
#2 = FACE_OUTER_BOUND ( 'NONE', #184, .T. ) ;
#3 = APPROVAL_ROLE ( '' ) ;
#4 = CARTESIAN_POINT ( 'NONE',  ( 3.491481338843133355E-14, 1.518506779945121659E-32, 10.00000000000000000 ) ) ;
#5 = ORGANIZATION ( 'UNSPECIFIED', 'UNSPECIFIED', '' ) ;
#6 = ADVANCED_FACE ( 'NONE', ( #69 ), #202, .T. ) ;
#7 = CARTESIAN_POINT ( 'NONE',  ( 0.0000000000000000000, 0.0000000000000000000, 0.0000000000000000000 ) ) ;
#8 = FACE_BOUND ( 'NONE', #299, .T. ) ;
#9 = CARTESIAN_POINT ( 'NONE',  ( 3.491481338843133355E-14, -1.224646799147353256E-15, 10.00000000000000000 ) ) ;
#10 = EDGE_CURVE ( 'NONE', #126, #126, #91, .T. ) ;
#11 = AXIS2_PLACEMENT_3D ( 'NONE', #258, #80, #82 ) ;
#12 = DIRECTION ( 'NONE',  ( -3.491481338843133355E-15, 1.224646799147353207E-16, -1.000000000000000000 ) ) ;
#13 = MANIFOLD_SOLID_BREP ( 'Corps-Déplacer/Copier1[2]', #65 ) ;
#14 = CARTESIAN_POINT ( 'NONE',  ( 2.433562493173664138E-13, -8.535788190057053710E-15, 69.70000000000001705 ) ) ;
#15 = AXIS2_PLACEMENT_3D ( 'NONE', #132, #227, #113 ) ;
#16 = APPROVAL ( #136, 'UNSPECIFIED' ) ;
#17 = DATE_AND_TIME ( #40, #200 ) ;
#18 = ORIENTED_EDGE ( 'NONE', *, *, #165, .T. ) ;
#19 = EDGE_LOOP ( 'NONE', ( #21 ) ) ;
#20 = ADVANCED_FACE ( 'NONE', ( #71, #159 ), #43, .T. ) ;
#21 = ORIENTED_EDGE ( 'NONE', *, *, #255, .F. ) ;
#22 = APPROVAL_STATUS ( 'not_yet_approved' ) ;
#23 = EDGE_LOOP ( 'NONE', ( #137 ) ) ;
#24 = ORIENTED_EDGE ( 'NONE', *, *, #118, .F. ) ;
#25 = LOCAL_TIME ( 10, 36, 21.00000000000000000, #89 ) ;
#26 = DIRECTION ( 'NONE',  ( 3.491481338843133355E-15, -1.224646799147353207E-16, 1.000000000000000000 ) ) ;
#27 = CYLINDRICAL_SURFACE ( 'NONE', #270, 1.499999999999996891 ) ;
#28 = CARTESIAN_POINT ( 'NONE',  ( -7.589600816467056028E-31, 2.662073614224781654E-32, -2.173748068486538871E-16 ) ) ;
#29 = CARTESIAN_POINT ( 'NONE',  ( 2.444036937190193601E-13, -8.572527594031472993E-15, 70.00000000000000000 ) ) ;
#30 = CIRCLE ( 'NONE', #125, 1.500000000000001110 ) ;
#31 = DIRECTION ( 'NONE',  ( 0.0000000000000000000, 1.000000000000000000, 0.0000000000000000000 ) ) ;
#32 = VERTEX_POINT ( 'NONE', #68 ) ;
#33 = DIRECTION ( 'NONE',  ( 0.0000000000000000000, 1.000000000000000000, 0.0000000000000000000 ) ) ;
#34 = LOCAL_TIME ( 10, 36, 21.00000000000000000, #167 ) ;
#35 = FACE_OUTER_BOUND ( 'NONE', #181, .T. ) ;
#36 = DIRECTION ( 'NONE',  ( 0.0000000000000000000, 1.000000000000000000, 0.0000000000000000000 ) ) ;
#37 = APPLICATION_PROTOCOL_DEFINITION ( 'international standard', 'config_control_design', 1994, #290 ) ;
#38 = AXIS2_PLACEMENT_3D ( 'NONE', #106, #12, #198 ) ;
#39 = PRODUCT_DEFINITION_SHAPE ( 'NONE', 'NONE',  #297 ) ;
#40 = CALENDAR_DATE ( 2021, 2, 12 ) ;
#41 = ORIENTED_EDGE ( 'NONE', *, *, #244, .T. ) ;
#42 = EDGE_LOOP ( 'NONE', ( #72 ) ) ;
#43 = CONICAL_SURFACE ( 'NONE', #79, 2.024999999999990141, 0.5235987755983003700 ) ;
#44 = PERSON_AND_ORGANIZATION_ROLE ( 'classification_officer' ) ;
#45 = EDGE_LOOP ( 'NONE', ( #24 ) ) ;
#46 = CALENDAR_DATE ( 2021, 2, 12 ) ;
#47 = ORIENTED_EDGE ( 'NONE', *, *, #280, .F. ) ;
#48 = APPROVAL_STATUS ( 'not_yet_approved' ) ;
#49 = CC_DESIGN_PERSON_AND_ORGANIZATION_ASSIGNMENT ( #294, #172, ( #107 ) ) ;
#50 = DIRECTION ( 'NONE',  ( -4.275831445896958607E-31, -1.000000000000000000, -1.224646799147353207E-16 ) ) ;
#51 = DATE_AND_TIME ( #252, #34 ) ;
#52 = AXIS2_PLACEMENT_3D ( 'NONE', #28, #144, #53 ) ;
#53 = DIRECTION ( 'NONE',  ( 4.275831445896958607E-31, 1.000000000000000000, 1.224646799147353207E-16 ) ) ;
#54 = PERSON_AND_ORGANIZATION ( #205, #5 ) ;
#55 = CALENDAR_DATE ( 2021, 2, 12 ) ;
#56 = FACE_OUTER_BOUND ( 'NONE', #130, .T. ) ;
#57 = EDGE_CURVE ( 'NONE', #220, #220, #231, .T. ) ;
#58 = DIRECTION ( 'NONE',  ( -3.491481338843133355E-15, 1.224646799147353207E-16, -1.000000000000000000 ) ) ;
#59 = CONICAL_SURFACE ( 'NONE', #216, 1.200000000000001510, 0.7853981633974566057 ) ;
#60 = DIRECTION ( 'NONE',  ( -3.491481338843133355E-15, 1.224646799147353207E-16, -1.000000000000000000 ) ) ;
#61 = DIRECTION ( 'NONE',  ( -3.491481338843133355E-15, 1.224646799147353207E-16, -1.000000000000000000 ) ) ;
#62 = FACE_BOUND ( 'NONE', #93, .T. ) ;
#63 = EDGE_CURVE ( 'NONE', #267, #267, #242, .T. ) ;
#64 = DIRECTION ( 'NONE',  ( 4.275831445896958607E-31, 1.000000000000000000, 1.224646799147353207E-16 ) ) ;
#65 = CLOSED_SHELL ( 'NONE', ( #20, #192, #134, #6, #221, #210, #90 ) ) ;
#66 = CC_DESIGN_SECURITY_CLASSIFICATION ( #238, ( #107 ) ) ;
#67 = DATE_AND_TIME ( #101, #108 ) ;
#68 = CARTESIAN_POINT ( 'NONE',  ( 3.491481338843133355E-14, 2.024999999999989253, 10.00000000000000000 ) ) ;
#69 = FACE_OUTER_BOUND ( 'NONE', #160, .T. ) ;
#70 = AXIS2_PLACEMENT_3D ( 'NONE', #9, #100, #127 ) ;
#71 = FACE_BOUND ( 'NONE', #271, .T. ) ;
#72 = ORIENTED_EDGE ( 'NONE', *, *, #57, .F. ) ;
#73 = COORDINATED_UNIVERSAL_TIME_OFFSET ( 1, 0, .AHEAD. ) ;
#74 = LOCAL_TIME ( 10, 36, 21.00000000000000000, #73 ) ;
#75 = CARTESIAN_POINT ( 'NONE',  ( 3.491481338843133355E-14, -1.224646799147353256E-15, 10.00000000000000000 ) ) ;
#76 = DIRECTION ( 'NONE',  ( 0.0000000000000000000, 1.000000000000000000, 0.0000000000000000000 ) ) ;
#77 = PERSON_AND_ORGANIZATION ( #205, #5 ) ;
#78 = FACE_OUTER_BOUND ( 'NONE', #92, .T. ) ;
#79 = AXIS2_PLACEMENT_3D ( 'NONE', #75, #229, #115 ) ;
#80 = DIRECTION ( 'NONE',  ( -3.491481338843133355E-15, 1.224646799147353207E-16, -1.000000000000000000 ) ) ;
#81 = APPROVAL ( #48, 'UNSPECIFIED' ) ;
#82 = DIRECTION ( 'NONE',  ( 0.0000000000000000000, 1.000000000000000000, 0.0000000000000000000 ) ) ;
#83 = EDGE_CURVE ( 'NONE', #178, #178, #145, .T. ) ;
#84 = VERTEX_POINT ( 'NONE', #103 ) ;
#85 = CC_DESIGN_DATE_AND_TIME_ASSIGNMENT ( #51, #234, ( #297 ) ) ;
#86 = VERTEX_POINT ( 'NONE', #196 ) ;
#87 = CARTESIAN_POINT ( 'NONE',  ( 3.808971050152263736E-14, 1.499999999999991562, 10.90932667397365385 ) ) ;
#88 = AXIS2_PLACEMENT_3D ( 'NONE', #291, #246, #139 ) ;
#89 = COORDINATED_UNIVERSAL_TIME_OFFSET ( 1, 0, .AHEAD. ) ;
#90 = ADVANCED_FACE ( 'NONE', ( #56, #97 ), #117, .T. ) ;
#91 = CIRCLE ( 'NONE', #15, 2.024999999999990141 ) ;
#92 = EDGE_LOOP ( 'NONE', ( #94 ) ) ;
#93 = EDGE_LOOP ( 'NONE', ( #18 ) ) ;
#94 = ORIENTED_EDGE ( 'NONE', *, *, #165, .F. ) ;
#95 = CIRCLE ( 'NONE', #38, 2.024999999999990141 ) ;
#96 = EDGE_LOOP ( 'NONE', ( #199 ) ) ;
#97 = FACE_OUTER_BOUND ( 'NONE', #222, .T. ) ;
#98 = CIRCLE ( 'NONE', #70, 2.024999999999990141 ) ;
#99 = DIRECTION ( 'NONE',  ( -3.491481338843133355E-15, 1.224646799147353207E-16, -1.000000000000000000 ) ) ;
#100 = DIRECTION ( 'NONE',  ( -3.491481338843133355E-15, 1.224646799147353207E-16, -1.000000000000000000 ) ) ;
#101 = CALENDAR_DATE ( 2021, 2, 12 ) ;
#102 = AXIS2_PLACEMENT_3D ( 'NONE', #283, #254, #121 ) ;
#103 = CARTESIAN_POINT ( 'NONE',  ( 3.491481338843133355E-14, 2.024999999999989253, 10.00000000000000000 ) ) ;
#104 = ADVANCED_FACE ( 'NONE', ( #78 ), #1, .F. ) ;
#105 = CARTESIAN_POINT ( 'NONE',  ( 2.444036937190193601E-13, 1.199999999999992628, 70.00000000000000000 ) ) ;
#106 = CARTESIAN_POINT ( 'NONE',  ( 3.491481338843133355E-14, -1.224646799147353256E-15, 10.00000000000000000 ) ) ;
#107 = PRODUCT_DEFINITION_FORMATION_WITH_SPECIFIED_SOURCE ( 'ANY', '', #293, .NOT_KNOWN. ) ;
#108 = LOCAL_TIME ( 10, 36, 21.00000000000000000, #218 ) ;
#109 = ORIENTED_EDGE ( 'NONE', *, *, #118, .T. ) ;
#110 = EDGE_LOOP ( 'NONE', ( #253 ) ) ;
#111 = APPROVAL_PERSON_ORGANIZATION ( #226, #16, #183 ) ;
#112 = APPROVAL_ROLE ( '' ) ;
#113 = DIRECTION ( 'NONE',  ( 3.804306062987151195E-31, 1.000000000000000000, 1.338521200599394597E-16 ) ) ;
#114 = UNCERTAINTY_MEASURE_WITH_UNIT (LENGTH_MEASURE( 1.000000000000000082E-05 ), #195, 'distance_accuracy_value', 'NONE');
#115 = DIRECTION ( 'NONE',  ( 0.0000000000000000000, 1.000000000000000000, 0.0000000000000000000 ) ) ;
#116 = AXIS2_PLACEMENT_3D ( 'NONE', #189, #142, #50 ) ;
#117 = CYLINDRICAL_SURFACE ( 'NONE', #151, 1.499999999999996891 ) ;
#118 = EDGE_CURVE ( 'NONE', #86, #86, #248, .T. ) ;
#119 = CYLINDRICAL_SURFACE ( 'NONE', #225, 2.024999999999990141 ) ;
#120 = DIRECTION ( 'NONE',  ( 4.275831445896958607E-31, 1.000000000000000000, 1.224646799147353454E-16 ) ) ;
#121 = DIRECTION ( 'NONE',  ( 0.0000000000000000000, 1.000000000000000000, 0.0000000000000000000 ) ) ;
#122 = CARTESIAN_POINT ( 'NONE',  ( 0.0000000000000000000, 0.0000000000000000000, 0.0000000000000000000 ) ) ;
#123 = CC_DESIGN_PERSON_AND_ORGANIZATION_ASSIGNMENT ( #161, #298, ( #293 ) ) ;
#124 = CARTESIAN_POINT ( 'NONE',  ( 8.728703347107833388E-16, 2.024999999999990141, 0.2500000000000000555 ) ) ;
#125 = AXIS2_PLACEMENT_3D ( 'NONE', #14, #174, #36 ) ;
#126 = VERTEX_POINT ( 'NONE', #124 ) ;
#127 = DIRECTION ( 'NONE',  ( 0.0000000000000000000, 1.000000000000000000, 0.0000000000000000000 ) ) ;
#128 = FACE_BOUND ( 'NONE', #23, .T. ) ;
#129 = CONICAL_SURFACE ( 'NONE', #212, 2.024999999999990141, 0.5235987755983003700 ) ;
#130 = EDGE_LOOP ( 'NONE', ( #273 ) ) ;
#131 = ORIENTED_EDGE ( 'NONE', *, *, #10, .T. ) ;
#132 = CARTESIAN_POINT ( 'NONE',  ( 8.728703347107825500E-16, -3.061616997868380553E-17, 0.2499999999999997780 ) ) ;
#133 =( GEOMETRIC_REPRESENTATION_CONTEXT ( 3 ) GLOBAL_UNCERTAINTY_ASSIGNED_CONTEXT ( ( #114 ) ) GLOBAL_UNIT_ASSIGNED_CONTEXT ( ( #195, #148, #268 ) ) REPRESENTATION_CONTEXT ( 'NONE', 'WORKASPACE' ) );
#134 = ADVANCED_FACE ( 'NONE', ( #2, #8 ), #188, .T. ) ;
#135 = PERSON_AND_ORGANIZATION ( #205, #5 ) ;
#136 = APPROVAL_STATUS ( 'not_yet_approved' ) ;
#137 = ORIENTED_EDGE ( 'NONE', *, *, #57, .T. ) ;
#138 = DATE_AND_TIME ( #46, #74 ) ;
#139 = DIRECTION ( 'NONE',  ( 4.275831445896958607E-31, 1.000000000000000000, 1.224646799147353207E-16 ) ) ;
#140 = ADVANCED_FACE ( 'NONE', ( #171 ), #230, .F. ) ;
#141 = CIRCLE ( 'NONE', #11, 1.200000000000001510 ) ;
#142 = DIRECTION ( 'NONE',  ( 3.491481338843133355E-15, -1.224646799147353207E-16, 1.000000000000000000 ) ) ;
#143 = FACE_OUTER_BOUND ( 'NONE', #157, .T. ) ;
#144 = DIRECTION ( 'NONE',  ( -3.491481338843133355E-15, 1.224646799147353207E-16, -1.000000000000000000 ) ) ;
#145 = CIRCLE ( 'NONE', #52, 1.774999999999989475 ) ;
#146 = DIRECTION ( 'NONE',  ( -4.275831445896958607E-31, -1.000000000000000000, -1.224646799147353207E-16 ) ) ;
#147 = APPLICATION_CONTEXT ( 'configuration controlled 3d designs of mechanical parts and assemblies' ) ;
#148 =( NAMED_UNIT ( * ) PLANE_ANGLE_UNIT ( ) SI_UNIT ( $, .RADIAN. ) );
#149 = EDGE_CURVE ( 'NONE', #175, #175, #173, .T. ) ;
#150 = DIRECTION ( 'NONE',  ( -3.491481338843133355E-15, 1.224646799147353207E-16, -1.000000000000000000 ) ) ;
#151 = AXIS2_PLACEMENT_3D ( 'NONE', #7, #170, #261 ) ;
#152 = PERSON_AND_ORGANIZATION ( #205, #5 ) ;
#153 = ADVANCED_FACE ( 'NONE', ( #240, #143 ), #27, .T. ) ;
#154 = PRODUCT_RELATED_PRODUCT_CATEGORY ( 'detail', '', ( #293 ) ) ;
#155 = DIRECTION ( 'NONE',  ( 1.000000000000000000, 0.0000000000000000000, 0.0000000000000000000 ) ) ;
#156 = APPROVAL_PERSON_ORGANIZATION ( #135, #251, #112 ) ;
#157 = EDGE_LOOP ( 'NONE', ( #41 ) ) ;
#158 = PERSON_AND_ORGANIZATION_ROLE ( 'design_supplier' ) ;
#159 = FACE_OUTER_BOUND ( 'NONE', #228, .T. ) ;
#160 = EDGE_LOOP ( 'NONE', ( #302 ) ) ;
#161 = PERSON_AND_ORGANIZATION ( #205, #5 ) ;
#162 = ORIENTED_EDGE ( 'NONE', *, *, #244, .F. ) ;
#163 = AXIS2_PLACEMENT_3D ( 'NONE', #4, #26, #146 ) ;
#164 = ORIENTED_EDGE ( 'NONE', *, *, #149, .T. ) ;
#165 = EDGE_CURVE ( 'NONE', #287, #287, #141, .T. ) ;
#166 = CARTESIAN_POINT ( 'NONE',  ( 2.444036937190193601E-13, 8.998558695971026591E-33, 70.00000000000000000 ) ) ;
#167 = COORDINATED_UNIVERSAL_TIME_OFFSET ( 1, 0, .AHEAD. ) ;
#168 = FACE_OUTER_BOUND ( 'NONE', #182, .T. ) ;
#169 = DIRECTION ( 'NONE',  ( -3.491481338843133355E-15, 1.224646799147353207E-16, -1.000000000000000000 ) ) ;
#170 = DIRECTION ( 'NONE',  ( -3.491481338843133355E-15, 1.224646799147353207E-16, -1.000000000000000000 ) ) ;
#171 = FACE_OUTER_BOUND ( 'NONE', #180, .T. ) ;
#172 = PERSON_AND_ORGANIZATION_ROLE ( 'creator' ) ;
#173 = CIRCLE ( 'NONE', #257, 1.499999999999992895 ) ;
#174 = DIRECTION ( 'NONE',  ( -3.491481338843133355E-15, 1.224646799147353207E-16, -1.000000000000000000 ) ) ;
#175 = VERTEX_POINT ( 'NONE', #217 ) ;
#176 = CC_DESIGN_DATE_AND_TIME_ASSIGNMENT ( #17, #272, ( #238 ) ) ;
#177 = CC_DESIGN_APPROVAL ( #251, ( #297 ) ) ;
#178 = VERTEX_POINT ( 'NONE', #215 ) ;
#179 = DIRECTION ( 'NONE',  ( 0.0000000000000000000, 0.0000000000000000000, 1.000000000000000000 ) ) ;
#180 = EDGE_LOOP ( 'NONE', ( #274 ) ) ;
#181 = EDGE_LOOP ( 'NONE', ( #162 ) ) ;
#182 = EDGE_LOOP ( 'NONE', ( #250 ) ) ;
#183 = APPROVAL_ROLE ( '' ) ;
#184 = EDGE_LOOP ( 'NONE', ( #131 ) ) ;
#185 = DIRECTION ( 'NONE',  ( 4.275831445896958607E-31, 1.000000000000000000, 1.224646799147353454E-16 ) ) ;
#186 = DIRECTION ( 'NONE',  ( -3.491481338843133355E-15, 1.224646799147353207E-16, -1.000000000000000000 ) ) ;
#187 = FACE_OUTER_BOUND ( 'NONE', #110, .T. ) ;
#188 = CONICAL_SURFACE ( 'NONE', #116, 1.774999999999989475, 0.7853981633974500554 ) ;
#189 = CARTESIAN_POINT ( 'NONE',  ( -7.589600816467056028E-31, 2.662073614224781654E-32, -2.173748068486538871E-16 ) ) ;
#190 = CC_DESIGN_PERSON_AND_ORGANIZATION_ASSIGNMENT ( #249, #44, ( #238 ) ) ;
#191 = CARTESIAN_POINT ( 'NONE',  ( 2.433562493173664138E-13, 1.499999999999992673, 69.70000000000001705 ) ) ;
#192 = ADVANCED_FACE ( 'NONE', ( #235, #168 ), #119, .T. ) ;
#193 = AXIS2_PLACEMENT_3D ( 'NONE', #241, #150, #265 ) ;
#194 = SHAPE_DEFINITION_REPRESENTATION ( #39, #275 ) ;
#195 =( LENGTH_UNIT ( ) NAMED_UNIT ( * ) SI_UNIT ( .MILLI., .METRE. ) );
#196 = CARTESIAN_POINT ( 'NONE',  ( 2.433562493173664138E-13, 1.499999999999992673, 69.70000000000001705 ) ) ;
#197 = APPROVAL_PERSON_ORGANIZATION ( #54, #81, #3 ) ;
#198 = DIRECTION ( 'NONE',  ( 0.0000000000000000000, 1.000000000000000000, 0.0000000000000000000 ) ) ;
#199 = ORIENTED_EDGE ( 'NONE', *, *, #63, .T. ) ;
#200 = LOCAL_TIME ( 10, 36, 21.00000000000000000, #292 ) ;
#201 = SECURITY_CLASSIFICATION_LEVEL ( 'unclassified' ) ;
#202 = PLANE ( 'NONE',  #88 ) ;
#203 = DESIGN_CONTEXT ( 'detailed design', #147, 'design' ) ;
#204 = ORIENTED_EDGE ( 'NONE', *, *, #280, .T. ) ;
#205 = PERSON ( 'UNSPECIFIED', 'UNSPECIFIED', 'UNSPECIFIED', ('UNSPECIFIED'), ('UNSPECIFIED'), ('UNSPECIFIED') ) ;
#206 = CARTESIAN_POINT ( 'NONE',  ( 3.808971050152263736E-14, -1.336007199213467517E-15, 10.90932667397365385 ) ) ;
#207 = CONICAL_SURFACE ( 'NONE', #193, 1.200000000000001510, 0.7853981633974566057 ) ;
#208 = MANIFOLD_SOLID_BREP ( 'Corps-Déplacer/Copier1[1]', #266 ) ;
#209 = DIRECTION ( 'NONE',  ( 0.0000000000000000000, 1.000000000000000000, 0.0000000000000000000 ) ) ;
#210 = ADVANCED_FACE ( 'NONE', ( #279, #281 ), #59, .T. ) ;
#211 = PLANE ( 'NONE',  #301 ) ;
#212 = AXIS2_PLACEMENT_3D ( 'NONE', #264, #61, #33 ) ;
#213 = CARTESIAN_POINT ( 'NONE',  ( 2.444036937190193601E-13, -8.572527594031472993E-15, 70.00000000000000000 ) ) ;
#214 = DIRECTION ( 'NONE',  ( 4.275831445896958607E-31, 1.000000000000000000, 1.224646799147353207E-16 ) ) ;
#215 = CARTESIAN_POINT ( 'NONE',  ( 8.552847072295026068E-47, 1.774999999999989475, 0.0000000000000000000 ) ) ;
#216 = AXIS2_PLACEMENT_3D ( 'NONE', #256, #58, #209 ) ;
#217 = CARTESIAN_POINT ( 'NONE',  ( 3.808971050152263736E-14, 1.499999999999991562, 10.90932667397365385 ) ) ;
#218 = COORDINATED_UNIVERSAL_TIME_OFFSET ( 1, 0, .AHEAD. ) ;
#219 = DIRECTION ( 'NONE',  ( -3.491481338843133355E-15, 1.224646799147353207E-16, -1.000000000000000000 ) ) ;
#220 = VERTEX_POINT ( 'NONE', #87 ) ;
#221 = ADVANCED_FACE ( 'NONE', ( #187 ), #211, .F. ) ;
#222 = EDGE_LOOP ( 'NONE', ( #109 ) ) ;
#223 = ORIENTED_EDGE ( 'NONE', *, *, #83, .F. ) ;
#224 = MECHANICAL_CONTEXT ( 'NONE', #290, 'mechanical' ) ;
#225 = AXIS2_PLACEMENT_3D ( 'NONE', #236, #186, #120 ) ;
#226 = PERSON_AND_ORGANIZATION ( #205, #5 ) ;
#227 = DIRECTION ( 'NONE',  ( -3.491481338843133355E-15, 1.224646799147353207E-16, -1.000000000000000000 ) ) ;
#228 = EDGE_LOOP ( 'NONE', ( #47 ) ) ;
#229 = DIRECTION ( 'NONE',  ( -3.491481338843133355E-15, 1.224646799147353207E-16, -1.000000000000000000 ) ) ;
#230 = PLANE ( 'NONE',  #163 ) ;
#231 = CIRCLE ( 'NONE', #288, 1.499999999999992895 ) ;
#232 = CC_DESIGN_APPROVAL ( #16, ( #238 ) ) ;
#233 = DIRECTION ( 'NONE',  ( 0.0000000000000000000, 1.000000000000000000, 0.0000000000000000000 ) ) ;
#234 = DATE_TIME_ROLE ( 'creation_date' ) ;
#235 = FACE_OUTER_BOUND ( 'NONE', #278, .T. ) ;
#236 = CARTESIAN_POINT ( 'NONE',  ( 0.0000000000000000000, 0.0000000000000000000, 0.0000000000000000000 ) ) ;
#237 = CC_DESIGN_APPROVAL ( #81, ( #107 ) ) ;
#238 = SECURITY_CLASSIFICATION ( '', '', #201 ) ;
#239 = APPROVAL_DATE_TIME ( #67, #16 ) ;
#240 = FACE_OUTER_BOUND ( 'NONE', #42, .T. ) ;
#241 = CARTESIAN_POINT ( 'NONE',  ( 2.444036937190193601E-13, -8.572527594031472993E-15, 70.00000000000000000 ) ) ;
#242 = CIRCLE ( 'NONE', #262, 1.200000000000001510 ) ;
#243 = CC_DESIGN_PERSON_AND_ORGANIZATION_ASSIGNMENT ( #152, #158, ( #107 ) ) ;
#244 = EDGE_CURVE ( 'NONE', #289, #289, #30, .T. ) ;
#245 = DIRECTION ( 'NONE',  ( -3.491481338843133355E-15, 1.224646799147353207E-16, -1.000000000000000000 ) ) ;
#246 = DIRECTION ( 'NONE',  ( -3.491481338843133355E-15, 1.224646799147353207E-16, -1.000000000000000000 ) ) ;
#247 = APPLICATION_PROTOCOL_DEFINITION ( 'international standard', 'config_control_design', 1994, #147 ) ;
#248 = CIRCLE ( 'NONE', #102, 1.500000000000001110 ) ;
#249 = PERSON_AND_ORGANIZATION ( #205, #5 ) ;
#250 = ORIENTED_EDGE ( 'NONE', *, *, #10, .F. ) ;
#251 = APPROVAL ( #22, 'UNSPECIFIED' ) ;
#252 = CALENDAR_DATE ( 2021, 2, 12 ) ;
#253 = ORIENTED_EDGE ( 'NONE', *, *, #63, .F. ) ;
#254 = DIRECTION ( 'NONE',  ( -3.491481338843133355E-15, 1.224646799147353207E-16, -1.000000000000000000 ) ) ;
#255 = EDGE_CURVE ( 'NONE', #32, #32, #98, .T. ) ;
#256 = CARTESIAN_POINT ( 'NONE',  ( 2.444036937190193601E-13, -8.572527594031472993E-15, 70.00000000000000000 ) ) ;
#257 = AXIS2_PLACEMENT_3D ( 'NONE', #260, #282, #233 ) ;
#258 = CARTESIAN_POINT ( 'NONE',  ( 2.444036937190193601E-13, -8.572527594031472993E-15, 70.00000000000000000 ) ) ;
#259 = APPROVAL_DATE_TIME ( #303, #251 ) ;
#260 = CARTESIAN_POINT ( 'NONE',  ( 3.808971050152263736E-14, -1.336007199213467517E-15, 10.90932667397365385 ) ) ;
#261 = DIRECTION ( 'NONE',  ( 4.275831445896958607E-31, 1.000000000000000000, 1.224646799147353454E-16 ) ) ;
#262 = AXIS2_PLACEMENT_3D ( 'NONE', #213, #99, #76 ) ;
#263 = CC_DESIGN_PERSON_AND_ORGANIZATION_ASSIGNMENT ( #77, #276, ( #297 ) ) ;
#264 = CARTESIAN_POINT ( 'NONE',  ( 3.491481338843133355E-14, -1.224646799147353256E-15, 10.00000000000000000 ) ) ;
#265 = DIRECTION ( 'NONE',  ( 0.0000000000000000000, 1.000000000000000000, 0.0000000000000000000 ) ) ;
#266 = CLOSED_SHELL ( 'NONE', ( #140, #269, #153, #295, #104 ) ) ;
#267 = VERTEX_POINT ( 'NONE', #105 ) ;
#268 =( NAMED_UNIT ( * ) SI_UNIT ( $, .STERADIAN. ) SOLID_ANGLE_UNIT ( ) );
#269 = ADVANCED_FACE ( 'NONE', ( #128, #284 ), #129, .T. ) ;
#270 = AXIS2_PLACEMENT_3D ( 'NONE', #122, #169, #185 ) ;
#271 = EDGE_LOOP ( 'NONE', ( #164 ) ) ;
#272 = DATE_TIME_ROLE ( 'classification_date' ) ;
#273 = ORIENTED_EDGE ( 'NONE', *, *, #149, .F. ) ;
#274 = ORIENTED_EDGE ( 'NONE', *, *, #255, .T. ) ;
#275 = ADVANCED_BREP_SHAPE_REPRESENTATION ( '321631', ( #208, #13, #285 ), #133 ) ;
#276 = PERSON_AND_ORGANIZATION_ROLE ( 'creator' ) ;
#277 = AXIS2_PLACEMENT_3D ( 'NONE', #166, #60, #214 ) ;
#278 = EDGE_LOOP ( 'NONE', ( #204 ) ) ;
#279 = FACE_OUTER_BOUND ( 'NONE', #45, .T. ) ;
#280 = EDGE_CURVE ( 'NONE', #84, #84, #95, .T. ) ;
#281 = FACE_BOUND ( 'NONE', #96, .T. ) ;
#282 = DIRECTION ( 'NONE',  ( -3.491481338843133355E-15, 1.224646799147353207E-16, -1.000000000000000000 ) ) ;
#283 = CARTESIAN_POINT ( 'NONE',  ( 2.433562493173664138E-13, -8.535788190057053710E-15, 69.70000000000001705 ) ) ;
#284 = FACE_OUTER_BOUND ( 'NONE', #19, .T. ) ;
#285 = AXIS2_PLACEMENT_3D ( 'NONE', #296, #179, #155 ) ;
#286 = CARTESIAN_POINT ( 'NONE',  ( 2.444036937190193601E-13, 1.199999999999992628, 70.00000000000000000 ) ) ;
#287 = VERTEX_POINT ( 'NONE', #286 ) ;
#288 = AXIS2_PLACEMENT_3D ( 'NONE', #206, #245, #31 ) ;
#289 = VERTEX_POINT ( 'NONE', #191 ) ;
#290 = APPLICATION_CONTEXT ( 'configuration controlled 3d designs of mechanical parts and assemblies' ) ;
#291 = CARTESIAN_POINT ( 'NONE',  ( -3.794800408233528014E-31, 1.331036807112390827E-32, -1.086874034243269436E-16 ) ) ;
#292 = COORDINATED_UNIVERSAL_TIME_OFFSET ( 1, 0, .AHEAD. ) ;
#293 = PRODUCT ( '321631', '321631', '', ( #224 ) ) ;
#294 = PERSON_AND_ORGANIZATION ( #205, #5 ) ;
#295 = ADVANCED_FACE ( 'NONE', ( #35, #62 ), #207, .T. ) ;
#296 = CARTESIAN_POINT ( 'NONE',  ( 0.0000000000000000000, 0.0000000000000000000, 0.0000000000000000000 ) ) ;
#297 = PRODUCT_DEFINITION ( 'UNKNOWN', '', #107, #203 ) ;
#298 = PERSON_AND_ORGANIZATION_ROLE ( 'design_owner' ) ;
#299 = EDGE_LOOP ( 'NONE', ( #223 ) ) ;
#300 = APPROVAL_DATE_TIME ( #138, #81 ) ;
#301 = AXIS2_PLACEMENT_3D ( 'NONE', #29, #219, #64 ) ;
#302 = ORIENTED_EDGE ( 'NONE', *, *, #83, .T. ) ;
#303 = DATE_AND_TIME ( #55, #25 ) ;
ENDSEC;
END-ISO-10303-21;
