ISO-10303-21;
HEADER;
FILE_DESCRIPTION (( 'STEP AP203' ),
    '1' );
FILE_NAME ('321630.step',
    '2021-12-02T09:36:20',
    ( '' ),
    ( '' ),
    'SwSTEP 2.0',
    'SolidWorks 2019',
    '' );
FILE_SCHEMA (( 'CONFIG_CONTROL_DESIGN' ));
ENDSEC;

DATA;
#1 = EDGE_LOOP ( 'NONE', ( #188 ) ) ;
#2 = ORIENTED_EDGE ( 'NONE', *, *, #296, .T. ) ;
#3 = COORDINATED_UNIVERSAL_TIME_OFFSET ( 1, 0, .AHEAD. ) ;
#4 = CONICAL_SURFACE ( 'NONE', #275, 1.200000000000001510, 0.7853981633974566057 ) ;
#5 = ADVANCED_FACE ( 'NONE', ( #14, #237 ), #152, .T. ) ;
#6 = ORIENTED_EDGE ( 'NONE', *, *, #159, .T. ) ;
#7 = PERSON_AND_ORGANIZATION_ROLE ( 'creator' ) ;
#8 = EDGE_LOOP ( 'NONE', ( #141 ) ) ;
#9 =( GEOMETRIC_REPRESENTATION_CONTEXT ( 3 ) GLOBAL_UNCERTAINTY_ASSIGNED_CONTEXT ( ( #244 ) ) GLOBAL_UNIT_ASSIGNED_CONTEXT ( ( #22, #201, #185 ) ) REPRESENTATION_CONTEXT ( 'NONE', 'WORKASPACE' ) );
#10 = CARTESIAN_POINT ( 'NONE',  ( 0.0000000000000000000, 0.0000000000000000000, 0.0000000000000000000 ) ) ;
#11 = EDGE_CURVE ( 'NONE', #18, #18, #48, .T. ) ;
#12 = PRODUCT_DEFINITION_SHAPE ( 'NONE', 'NONE',  #121 ) ;
#13 = DIRECTION ( 'NONE',  ( -4.275831445896958607E-31, -1.000000000000000000, -1.224646799147353207E-16 ) ) ;
#14 = FACE_OUTER_BOUND ( 'NONE', #257, .T. ) ;
#15 = DIRECTION ( 'NONE',  ( -3.491481338843133355E-15, 1.224646799147353207E-16, -1.000000000000000000 ) ) ;
#16 = APPROVAL ( #300, 'UNSPECIFIED' ) ;
#17 = DIRECTION ( 'NONE',  ( 0.0000000000000000000, 1.000000000000000000, 0.0000000000000000000 ) ) ;
#18 = VERTEX_POINT ( 'NONE', #95 ) ;
#19 = ADVANCED_FACE ( 'NONE', ( #291, #56 ), #175, .T. ) ;
#20 = CARTESIAN_POINT ( 'NONE',  ( 8.728703347107833388E-16, 2.019999999999989804, 0.2500000000000000555 ) ) ;
#21 = DIRECTION ( 'NONE',  ( -4.275831445896958607E-31, -1.000000000000000000, -1.224646799147353207E-16 ) ) ;
#22 =( LENGTH_UNIT ( ) NAMED_UNIT ( * ) SI_UNIT ( .MILLI., .METRE. ) );
#23 = AXIS2_PLACEMENT_3D ( 'NONE', #143, #233, #286 ) ;
#24 = APPROVAL ( #181, 'UNSPECIFIED' ) ;
#25 = EDGE_LOOP ( 'NONE', ( #183 ) ) ;
#26 = PERSON_AND_ORGANIZATION ( #150, #301 ) ;
#27 = ORIENTED_EDGE ( 'NONE', *, *, #159, .F. ) ;
#28 = DESIGN_CONTEXT ( 'detailed design', #271, 'design' ) ;
#29 = COORDINATED_UNIVERSAL_TIME_OFFSET ( 1, 0, .AHEAD. ) ;
#30 = AXIS2_PLACEMENT_3D ( 'NONE', #232, #253, #160 ) ;
#31 = EDGE_LOOP ( 'NONE', ( #77 ) ) ;
#32 = APPROVAL_ROLE ( '' ) ;
#33 = PERSON_AND_ORGANIZATION_ROLE ( 'design_supplier' ) ;
#34 = FACE_OUTER_BOUND ( 'NONE', #255, .T. ) ;
#35 = DIRECTION ( 'NONE',  ( 0.0000000000000000000, 1.000000000000000000, 0.0000000000000000000 ) ) ;
#36 = APPROVAL ( #52, 'UNSPECIFIED' ) ;
#37 = PRODUCT ( '321630', '321630', '', ( #163 ) ) ;
#38 = DIRECTION ( 'NONE',  ( 3.491481338843133355E-15, -1.224646799147353207E-16, 1.000000000000000000 ) ) ;
#39 = DIRECTION ( 'NONE',  ( 4.275831445896958607E-31, 1.000000000000000000, 1.224646799147353207E-16 ) ) ;
#40 = DIRECTION ( 'NONE',  ( 0.0000000000000000000, 1.000000000000000000, 0.0000000000000000000 ) ) ;
#41 = AXIS2_PLACEMENT_3D ( 'NONE', #42, #243, #302 ) ;
#42 = CARTESIAN_POINT ( 'NONE',  ( 2.444036937190193601E-13, -8.572527594031472993E-15, 70.00000000000000000 ) ) ;
#43 = FACE_OUTER_BOUND ( 'NONE', #207, .T. ) ;
#44 = AXIS2_PLACEMENT_3D ( 'NONE', #215, #261, #17 ) ;
#45 = CARTESIAN_POINT ( 'NONE',  ( 2.444036937190193601E-13, 8.998558695971026591E-33, 70.00000000000000000 ) ) ;
#46 = VERTEX_POINT ( 'NONE', #293 ) ;
#47 = SHAPE_DEFINITION_REPRESENTATION ( #12, #273 ) ;
#48 = CIRCLE ( 'NONE', #267, 1.499999999999992895 ) ;
#49 = PERSON_AND_ORGANIZATION ( #150, #301 ) ;
#50 = APPROVAL_DATE_TIME ( #73, #16 ) ;
#51 = CALENDAR_DATE ( 2021, 2, 12 ) ;
#52 = APPROVAL_STATUS ( 'not_yet_approved' ) ;
#53 = ADVANCED_FACE ( 'NONE', ( #287, #61 ), #151, .T. ) ;
#54 = ORIENTED_EDGE ( 'NONE', *, *, #117, .T. ) ;
#55 = CONICAL_SURFACE ( 'NONE', #200, 1.769999999999988916, 0.7853981633974500554 ) ;
#56 = FACE_OUTER_BOUND ( 'NONE', #25, .T. ) ;
#57 = CC_DESIGN_PERSON_AND_ORGANIZATION_ASSIGNMENT ( #167, #258, ( #108 ) ) ;
#58 = DIRECTION ( 'NONE',  ( 0.0000000000000000000, 1.000000000000000000, 0.0000000000000000000 ) ) ;
#59 = CARTESIAN_POINT ( 'NONE',  ( 3.805947338615985601E-14, -1.334946623974742670E-15, 10.90066641993580809 ) ) ;
#60 = PERSON_AND_ORGANIZATION_ROLE ( 'classification_officer' ) ;
#61 = FACE_OUTER_BOUND ( 'NONE', #98, .T. ) ;
#62 = DIRECTION ( 'NONE',  ( -3.491481338843133355E-15, 1.224646799147353207E-16, -1.000000000000000000 ) ) ;
#63 = FACE_OUTER_BOUND ( 'NONE', #283, .T. ) ;
#64 = AXIS2_PLACEMENT_3D ( 'NONE', #170, #292, #169 ) ;
#65 = CARTESIAN_POINT ( 'NONE',  ( 2.433562493173664138E-13, 1.499999999999992673, 69.70000000000001705 ) ) ;
#66 = PLANE ( 'NONE',  #166 ) ;
#67 = VERTEX_POINT ( 'NONE', #113 ) ;
#68 = CONICAL_SURFACE ( 'NONE', #142, 2.019999999999989804, 0.5235987755983001479 ) ;
#69 = CLOSED_SHELL ( 'NONE', ( #19, #53, #104, #265, #92, #5, #144 ) ) ;
#70 = CALENDAR_DATE ( 2021, 2, 12 ) ;
#71 = CARTESIAN_POINT ( 'NONE',  ( 2.444036937190193601E-13, -8.572527594031472993E-15, 70.00000000000000000 ) ) ;
#72 = APPROVAL_ROLE ( '' ) ;
#73 = DATE_AND_TIME ( #70, #127 ) ;
#74 = DATE_AND_TIME ( #228, #242 ) ;
#75 = CIRCLE ( 'NONE', #64, 2.019999999999989804 ) ;
#76 = ORIENTED_EDGE ( 'NONE', *, *, #117, .F. ) ;
#77 = ORIENTED_EDGE ( 'NONE', *, *, #241, .F. ) ;
#78 = EDGE_CURVE ( 'NONE', #195, #195, #75, .T. ) ;
#79 = APPLICATION_CONTEXT ( 'configuration controlled 3d designs of mechanical parts and assemblies' ) ;
#80 = CIRCLE ( 'NONE', #222, 2.019999999999989804 ) ;
#81 = DATE_AND_TIME ( #251, #116 ) ;
#82 = EDGE_LOOP ( 'NONE', ( #165 ) ) ;
#83 = EDGE_CURVE ( 'NONE', #270, #270, #284, .T. ) ;
#84 = COORDINATED_UNIVERSAL_TIME_OFFSET ( 1, 0, .AHEAD. ) ;
#85 = DIRECTION ( 'NONE',  ( -3.491481338843133355E-15, 1.224646799147353207E-16, -1.000000000000000000 ) ) ;
#86 = DIRECTION ( 'NONE',  ( 0.0000000000000000000, 1.000000000000000000, 0.0000000000000000000 ) ) ;
#87 = AXIS2_PLACEMENT_3D ( 'NONE', #71, #134, #177 ) ;
#88 = DIRECTION ( 'NONE',  ( -3.491481338843133355E-15, 1.224646799147353207E-16, -1.000000000000000000 ) ) ;
#89 = EDGE_CURVE ( 'NONE', #272, #272, #97, .T. ) ;
#90 = FACE_OUTER_BOUND ( 'NONE', #182, .T. ) ;
#91 = AXIS2_PLACEMENT_3D ( 'NONE', #10, #149, #289 ) ;
#92 = ADVANCED_FACE ( 'NONE', ( #132 ), #239, .F. ) ;
#93 = VERTEX_POINT ( 'NONE', #250 ) ;
#94 = CARTESIAN_POINT ( 'NONE',  ( 2.444036937190193601E-13, 1.199999999999992628, 70.00000000000000000 ) ) ;
#95 = CARTESIAN_POINT ( 'NONE',  ( 3.805947338615985601E-14, 1.499999999999991562, 10.90066641993580809 ) ) ;
#96 = DIRECTION ( 'NONE',  ( -3.491481338843133355E-15, 1.224646799147353207E-16, -1.000000000000000000 ) ) ;
#97 = CIRCLE ( 'NONE', #235, 1.499999999999992895 ) ;
#98 = EDGE_LOOP ( 'NONE', ( #120 ) ) ;
#99 = EDGE_LOOP ( 'NONE', ( #27 ) ) ;
#100 = CC_DESIGN_DATE_AND_TIME_ASSIGNMENT ( #303, #249, ( #246 ) ) ;
#101 = AXIS2_PLACEMENT_3D ( 'NONE', #217, #174, #58 ) ;
#102 = DIRECTION ( 'NONE',  ( -3.491481338843133355E-15, 1.224646799147353207E-16, -1.000000000000000000 ) ) ;
#103 = CARTESIAN_POINT ( 'NONE',  ( 2.433562493173664138E-13, -8.535788190057053710E-15, 69.70000000000001705 ) ) ;
#104 = ADVANCED_FACE ( 'NONE', ( #172, #128 ), #55, .T. ) ;
#105 = SECURITY_CLASSIFICATION_LEVEL ( 'unclassified' ) ;
#106 = DIRECTION ( 'NONE',  ( -3.491481338843133355E-15, 1.224646799147353207E-16, -1.000000000000000000 ) ) ;
#107 = AXIS2_PLACEMENT_3D ( 'NONE', #103, #15, #131 ) ;
#108 = PRODUCT_DEFINITION_FORMATION_WITH_SPECIFIED_SOURCE ( 'ANY', '', #37, .NOT_KNOWN. ) ;
#109 = CC_DESIGN_APPROVAL ( #36, ( #108 ) ) ;
#110 = DIRECTION ( 'NONE',  ( 3.491481338843133355E-15, -1.224646799147353207E-16, 1.000000000000000000 ) ) ;
#111 = CARTESIAN_POINT ( 'NONE',  ( -3.784110829618783905E-31, 1.327287407655735608E-32, -1.083812417245400751E-16 ) ) ;
#112 = AXIS2_PLACEMENT_3D ( 'NONE', #191, #106, #147 ) ;
#113 = CARTESIAN_POINT ( 'NONE',  ( 2.444036937190193601E-13, 1.199999999999992628, 70.00000000000000000 ) ) ;
#114 = PLANE ( 'NONE',  #212 ) ;
#115 = LOCAL_TIME ( 10, 36, 20.00000000000000000, #124 ) ;
#116 = LOCAL_TIME ( 10, 36, 20.00000000000000000, #139 ) ;
#117 = EDGE_CURVE ( 'NONE', #93, #93, #162, .T. ) ;
#118 = EDGE_LOOP ( 'NONE', ( #204 ) ) ;
#119 = CALENDAR_DATE ( 2021, 2, 12 ) ;
#120 = ORIENTED_EDGE ( 'NONE', *, *, #252, .F. ) ;
#121 = PRODUCT_DEFINITION ( 'UNKNOWN', '', #108, #28 ) ;
#122 = PERSON_AND_ORGANIZATION ( #150, #301 ) ;
#123 = ORIENTED_EDGE ( 'NONE', *, *, #11, .F. ) ;
#124 = COORDINATED_UNIVERSAL_TIME_OFFSET ( 1, 0, .AHEAD. ) ;
#125 = FACE_OUTER_BOUND ( 'NONE', #1, .T. ) ;
#126 = AXIS2_PLACEMENT_3D ( 'NONE', #213, #102, #39 ) ;
#127 = LOCAL_TIME ( 10, 36, 20.00000000000000000, #3 ) ;
#128 = FACE_BOUND ( 'NONE', #99, .T. ) ;
#129 = APPROVAL_DATE_TIME ( #81, #36 ) ;
#130 = FACE_OUTER_BOUND ( 'NONE', #226, .T. ) ;
#131 = DIRECTION ( 'NONE',  ( 0.0000000000000000000, 1.000000000000000000, 0.0000000000000000000 ) ) ;
#132 = FACE_OUTER_BOUND ( 'NONE', #118, .T. ) ;
#133 = CARTESIAN_POINT ( 'NONE',  ( 2.444036937190193601E-13, -8.572527594031472993E-15, 70.00000000000000000 ) ) ;
#134 = DIRECTION ( 'NONE',  ( -3.491481338843133355E-15, 1.224646799147353207E-16, -1.000000000000000000 ) ) ;
#135 = CIRCLE ( 'NONE', #87, 1.200000000000001510 ) ;
#136 = FACE_OUTER_BOUND ( 'NONE', #8, .T. ) ;
#137 = VERTEX_POINT ( 'NONE', #20 ) ;
#138 = ADVANCED_FACE ( 'NONE', ( #145, #130 ), #68, .T. ) ;
#139 = COORDINATED_UNIVERSAL_TIME_OFFSET ( 1, 0, .AHEAD. ) ;
#140 = ORIENTED_EDGE ( 'NONE', *, *, #89, .F. ) ;
#141 = ORIENTED_EDGE ( 'NONE', *, *, #186, .F. ) ;
#142 = AXIS2_PLACEMENT_3D ( 'NONE', #234, #263, #35 ) ;
#143 = CARTESIAN_POINT ( 'NONE',  ( 3.491481338843133355E-14, -1.224646799147353256E-15, 10.00000000000000000 ) ) ;
#144 = ADVANCED_FACE ( 'NONE', ( #34, #125 ), #211, .T. ) ;
#145 = FACE_BOUND ( 'NONE', #187, .T. ) ;
#146 = CC_DESIGN_SECURITY_CLASSIFICATION ( #246, ( #108 ) ) ;
#147 = DIRECTION ( 'NONE',  ( 4.275831445896958607E-31, 1.000000000000000000, 1.224646799147353207E-16 ) ) ;
#148 = CC_DESIGN_PERSON_AND_ORGANIZATION_ASSIGNMENT ( #214, #33, ( #108 ) ) ;
#149 = DIRECTION ( 'NONE',  ( -3.491481338843133355E-15, 1.224646799147353207E-16, -1.000000000000000000 ) ) ;
#150 = PERSON ( 'UNSPECIFIED', 'UNSPECIFIED', 'UNSPECIFIED', ('UNSPECIFIED'), ('UNSPECIFIED'), ('UNSPECIFIED') ) ;
#151 = CYLINDRICAL_SURFACE ( 'NONE', #184, 2.019999999999989804 ) ;
#152 = CONICAL_SURFACE ( 'NONE', #44, 1.200000000000001510, 0.7853981633974566057 ) ;
#153 = FACE_OUTER_BOUND ( 'NONE', #82, .T. ) ;
#154 = VERTEX_POINT ( 'NONE', #94 ) ;
#155 = FACE_OUTER_BOUND ( 'NONE', #31, .T. ) ;
#156 = DIRECTION ( 'NONE',  ( -3.491481338843133355E-15, 1.224646799147353207E-16, -1.000000000000000000 ) ) ;
#157 = AXIS2_PLACEMENT_3D ( 'NONE', #198, #96, #299 ) ;
#158 = CARTESIAN_POINT ( 'NONE',  ( 3.805947338615985601E-14, 1.499999999999991562, 10.90066641993580809 ) ) ;
#159 = EDGE_CURVE ( 'NONE', #46, #46, #206, .T. ) ;
#160 = DIRECTION ( 'NONE',  ( 1.000000000000000000, 0.0000000000000000000, 0.0000000000000000000 ) ) ;
#161 = EDGE_LOOP ( 'NONE', ( #285 ) ) ;
#162 = CIRCLE ( 'NONE', #101, 2.019999999999989804 ) ;
#163 = MECHANICAL_CONTEXT ( 'NONE', #79, 'mechanical' ) ;
#164 = EDGE_LOOP ( 'NONE', ( #2 ) ) ;
#165 = ORIENTED_EDGE ( 'NONE', *, *, #186, .T. ) ;
#166 = AXIS2_PLACEMENT_3D ( 'NONE', #223, #110, #21 ) ;
#167 = PERSON_AND_ORGANIZATION ( #150, #301 ) ;
#168 = EDGE_LOOP ( 'NONE', ( #209 ) ) ;
#169 = DIRECTION ( 'NONE',  ( 0.0000000000000000000, 1.000000000000000000, 0.0000000000000000000 ) ) ;
#170 = CARTESIAN_POINT ( 'NONE',  ( 3.491481338843133355E-14, -1.224646799147353256E-15, 10.00000000000000000 ) ) ;
#171 = AXIS2_PLACEMENT_3D ( 'NONE', #45, #266, #197 ) ;
#172 = FACE_OUTER_BOUND ( 'NONE', #161, .T. ) ;
#173 = DIRECTION ( 'NONE',  ( -3.491481338843133355E-15, 1.224646799147353207E-16, -1.000000000000000000 ) ) ;
#174 = DIRECTION ( 'NONE',  ( -3.491481338843133355E-15, 1.224646799147353207E-16, -1.000000000000000000 ) ) ;
#175 = CONICAL_SURFACE ( 'NONE', #23, 2.019999999999989804, 0.5235987755983001479 ) ;
#176 = PLANE ( 'NONE',  #171 ) ;
#177 = DIRECTION ( 'NONE',  ( 0.0000000000000000000, 1.000000000000000000, 0.0000000000000000000 ) ) ;
#178 = DIRECTION ( 'NONE',  ( 0.0000000000000000000, 1.000000000000000000, 0.0000000000000000000 ) ) ;
#179 = CARTESIAN_POINT ( 'NONE',  ( 3.491481338843133355E-14, 2.019999999999988471, 10.00000000000000000 ) ) ;
#180 = PERSON_AND_ORGANIZATION_ROLE ( 'design_owner' ) ;
#181 = APPROVAL_STATUS ( 'not_yet_approved' ) ;
#182 = EDGE_LOOP ( 'NONE', ( #140 ) ) ;
#183 = ORIENTED_EDGE ( 'NONE', *, *, #78, .F. ) ;
#184 = AXIS2_PLACEMENT_3D ( 'NONE', #193, #85, #240 ) ;
#185 =( NAMED_UNIT ( * ) SI_UNIT ( $, .STERADIAN. ) SOLID_ANGLE_UNIT ( ) );
#186 = EDGE_CURVE ( 'NONE', #220, #220, #262, .T. ) ;
#187 = EDGE_LOOP ( 'NONE', ( #280 ) ) ;
#188 = ORIENTED_EDGE ( 'NONE', *, *, #83, .T. ) ;
#189 = ADVANCED_FACE ( 'NONE', ( #90, #153 ), #276, .T. ) ;
#190 = CC_DESIGN_APPROVAL ( #16, ( #246 ) ) ;
#191 = CARTESIAN_POINT ( 'NONE',  ( 2.444036937190193601E-13, -8.572527594031472993E-15, 70.00000000000000000 ) ) ;
#192 = CIRCLE ( 'NONE', #41, 1.200000000000001510 ) ;
#193 = CARTESIAN_POINT ( 'NONE',  ( 0.0000000000000000000, 0.0000000000000000000, 0.0000000000000000000 ) ) ;
#194 = CARTESIAN_POINT ( 'NONE',  ( 3.805947338615985601E-14, -1.334946623974742670E-15, 10.90066641993580809 ) ) ;
#195 = VERTEX_POINT ( 'NONE', #179 ) ;
#196 = FACE_BOUND ( 'NONE', #259, .T. ) ;
#197 = DIRECTION ( 'NONE',  ( 4.275831445896958607E-31, 1.000000000000000000, 1.224646799147353207E-16 ) ) ;
#198 = CARTESIAN_POINT ( 'NONE',  ( 0.0000000000000000000, 0.0000000000000000000, 0.0000000000000000000 ) ) ;
#199 = MANIFOLD_SOLID_BREP ( 'Corps-Déplacer/Copier1[2]', #69 ) ;
#200 = AXIS2_PLACEMENT_3D ( 'NONE', #216, #38, #13 ) ;
#201 =( NAMED_UNIT ( * ) PLANE_ANGLE_UNIT ( ) SI_UNIT ( $, .RADIAN. ) );
#202 = ORIENTED_EDGE ( 'NONE', *, *, #78, .T. ) ;
#203 = DATE_TIME_ROLE ( 'creation_date' ) ;
#204 = ORIENTED_EDGE ( 'NONE', *, *, #296, .F. ) ;
#205 = EDGE_LOOP ( 'NONE', ( #202 ) ) ;
#206 = CIRCLE ( 'NONE', #126, 1.769999999999988916 ) ;
#207 = EDGE_LOOP ( 'NONE', ( #6 ) ) ;
#208 = DATE_AND_TIME ( #119, #115 ) ;
#209 = ORIENTED_EDGE ( 'NONE', *, *, #11, .T. ) ;
#210 = MANIFOLD_SOLID_BREP ( 'Corps-Déplacer/Copier1[1]', #229 ) ;
#211 = CYLINDRICAL_SURFACE ( 'NONE', #91, 1.499999999999996891 ) ;
#212 = AXIS2_PLACEMENT_3D ( 'NONE', #111, #219, #247 ) ;
#213 = CARTESIAN_POINT ( 'NONE',  ( -7.568221659237567811E-31, 2.654574815311471216E-32, -2.167624834490801502E-16 ) ) ;
#214 = PERSON_AND_ORGANIZATION ( #150, #301 ) ;
#215 = CARTESIAN_POINT ( 'NONE',  ( 2.444036937190193601E-13, -8.572527594031472993E-15, 70.00000000000000000 ) ) ;
#216 = CARTESIAN_POINT ( 'NONE',  ( -7.568221659237567811E-31, 2.654574815311471216E-32, -2.167624834490801502E-16 ) ) ;
#217 = CARTESIAN_POINT ( 'NONE',  ( 3.491481338843133355E-14, -1.224646799147353256E-15, 10.00000000000000000 ) ) ;
#218 = ADVANCED_FACE ( 'NONE', ( #155 ), #176, .F. ) ;
#219 = DIRECTION ( 'NONE',  ( -3.491481338843133355E-15, 1.224646799147353207E-16, -1.000000000000000000 ) ) ;
#220 = VERTEX_POINT ( 'NONE', #65 ) ;
#221 = ADVANCED_FACE ( 'NONE', ( #63 ), #66, .F. ) ;
#222 = AXIS2_PLACEMENT_3D ( 'NONE', #245, #156, #295 ) ;
#223 = CARTESIAN_POINT ( 'NONE',  ( 3.491481338843133355E-14, 1.514757380488466714E-32, 10.00000000000000000 ) ) ;
#224 = DIRECTION ( 'NONE',  ( -3.491481338843133355E-15, 1.224646799147353207E-16, -1.000000000000000000 ) ) ;
#225 = APPLICATION_PROTOCOL_DEFINITION ( 'international standard', 'config_control_design', 1994, #79 ) ;
#226 = EDGE_LOOP ( 'NONE', ( #76 ) ) ;
#227 = ORIENTED_EDGE ( 'NONE', *, *, #83, .F. ) ;
#228 = CALENDAR_DATE ( 2021, 2, 12 ) ;
#229 = CLOSED_SHELL ( 'NONE', ( #221, #138, #189, #278, #218 ) ) ;
#230 = ORIENTED_EDGE ( 'NONE', *, *, #241, .T. ) ;
#231 = APPROVAL_PERSON_ORGANIZATION ( #49, #36, #72 ) ;
#232 = CARTESIAN_POINT ( 'NONE',  ( 0.0000000000000000000, 0.0000000000000000000, 0.0000000000000000000 ) ) ;
#233 = DIRECTION ( 'NONE',  ( -3.491481338843133355E-15, 1.224646799147353207E-16, -1.000000000000000000 ) ) ;
#234 = CARTESIAN_POINT ( 'NONE',  ( 3.491481338843133355E-14, -1.224646799147353256E-15, 10.00000000000000000 ) ) ;
#235 = AXIS2_PLACEMENT_3D ( 'NONE', #59, #88, #40 ) ;
#236 = CC_DESIGN_APPROVAL ( #24, ( #121 ) ) ;
#237 = FACE_BOUND ( 'NONE', #164, .T. ) ;
#238 = CC_DESIGN_PERSON_AND_ORGANIZATION_ASSIGNMENT ( #288, #60, ( #246 ) ) ;
#239 = PLANE ( 'NONE',  #112 ) ;
#240 = DIRECTION ( 'NONE',  ( 4.275831445896958607E-31, 1.000000000000000000, 1.224646799147352961E-16 ) ) ;
#241 = EDGE_CURVE ( 'NONE', #154, #154, #192, .T. ) ;
#242 = LOCAL_TIME ( 10, 36, 20.00000000000000000, #29 ) ;
#243 = DIRECTION ( 'NONE',  ( -3.491481338843133355E-15, 1.224646799147353207E-16, -1.000000000000000000 ) ) ;
#244 = UNCERTAINTY_MEASURE_WITH_UNIT (LENGTH_MEASURE( 1.000000000000000082E-05 ), #22, 'distance_accuracy_value', 'NONE');
#245 = CARTESIAN_POINT ( 'NONE',  ( 8.728703347107825500E-16, -3.061616997868380553E-17, 0.2499999999999997780 ) ) ;
#246 = SECURITY_CLASSIFICATION ( '', '', #105 ) ;
#247 = DIRECTION ( 'NONE',  ( 4.275831445896958607E-31, 1.000000000000000000, 1.224646799147353207E-16 ) ) ;
#248 = CC_DESIGN_PERSON_AND_ORGANIZATION_ASSIGNMENT ( #277, #7, ( #121 ) ) ;
#249 = DATE_TIME_ROLE ( 'classification_date' ) ;
#250 = CARTESIAN_POINT ( 'NONE',  ( 3.491481338843133355E-14, 2.019999999999988471, 10.00000000000000000 ) ) ;
#251 = CALENDAR_DATE ( 2021, 2, 12 ) ;
#252 = EDGE_CURVE ( 'NONE', #137, #137, #80, .T. ) ;
#253 = DIRECTION ( 'NONE',  ( 0.0000000000000000000, 0.0000000000000000000, 1.000000000000000000 ) ) ;
#254 = APPLICATION_PROTOCOL_DEFINITION ( 'international standard', 'config_control_design', 1994, #271 ) ;
#255 = EDGE_LOOP ( 'NONE', ( #123 ) ) ;
#256 = APPROVAL_ROLE ( '' ) ;
#257 = EDGE_LOOP ( 'NONE', ( #227 ) ) ;
#258 = PERSON_AND_ORGANIZATION_ROLE ( 'creator' ) ;
#259 = EDGE_LOOP ( 'NONE', ( #230 ) ) ;
#260 = CARTESIAN_POINT ( 'NONE',  ( 2.433562493173664138E-13, -8.535788190057053710E-15, 69.70000000000001705 ) ) ;
#261 = DIRECTION ( 'NONE',  ( -3.491481338843133355E-15, 1.224646799147353207E-16, -1.000000000000000000 ) ) ;
#262 = CIRCLE ( 'NONE', #107, 1.500000000000001110 ) ;
#263 = DIRECTION ( 'NONE',  ( -3.491481338843133355E-15, 1.224646799147353207E-16, -1.000000000000000000 ) ) ;
#264 = DIRECTION ( 'NONE',  ( 0.0000000000000000000, 1.000000000000000000, 0.0000000000000000000 ) ) ;
#265 = ADVANCED_FACE ( 'NONE', ( #43 ), #114, .T. ) ;
#266 = DIRECTION ( 'NONE',  ( -3.491481338843133355E-15, 1.224646799147353207E-16, -1.000000000000000000 ) ) ;
#267 = AXIS2_PLACEMENT_3D ( 'NONE', #194, #62, #86 ) ;
#268 = APPROVAL_PERSON_ORGANIZATION ( #274, #16, #256 ) ;
#269 = CC_DESIGN_DATE_AND_TIME_ASSIGNMENT ( #74, #203, ( #121 ) ) ;
#270 = VERTEX_POINT ( 'NONE', #298 ) ;
#271 = APPLICATION_CONTEXT ( 'configuration controlled 3d designs of mechanical parts and assemblies' ) ;
#272 = VERTEX_POINT ( 'NONE', #158 ) ;
#273 = ADVANCED_BREP_SHAPE_REPRESENTATION ( '321630', ( #210, #199, #30 ), #9 ) ;
#274 = PERSON_AND_ORGANIZATION ( #150, #301 ) ;
#275 = AXIS2_PLACEMENT_3D ( 'NONE', #133, #224, #178 ) ;
#276 = CYLINDRICAL_SURFACE ( 'NONE', #157, 1.499999999999996891 ) ;
#277 = PERSON_AND_ORGANIZATION ( #150, #301 ) ;
#278 = ADVANCED_FACE ( 'NONE', ( #136, #196 ), #4, .T. ) ;
#279 = APPROVAL_DATE_TIME ( #208, #24 ) ;
#280 = ORIENTED_EDGE ( 'NONE', *, *, #89, .T. ) ;
#281 = PRODUCT_RELATED_PRODUCT_CATEGORY ( 'detail', '', ( #37 ) ) ;
#282 = LOCAL_TIME ( 10, 36, 20.00000000000000000, #84 ) ;
#283 = EDGE_LOOP ( 'NONE', ( #54 ) ) ;
#284 = CIRCLE ( 'NONE', #294, 1.500000000000001110 ) ;
#285 = ORIENTED_EDGE ( 'NONE', *, *, #252, .T. ) ;
#286 = DIRECTION ( 'NONE',  ( 0.0000000000000000000, 1.000000000000000000, 0.0000000000000000000 ) ) ;
#287 = FACE_OUTER_BOUND ( 'NONE', #205, .T. ) ;
#288 = PERSON_AND_ORGANIZATION ( #150, #301 ) ;
#289 = DIRECTION ( 'NONE',  ( 4.275831445896958607E-31, 1.000000000000000000, 1.224646799147353454E-16 ) ) ;
#290 = APPROVAL_PERSON_ORGANIZATION ( #122, #24, #32 ) ;
#291 = FACE_BOUND ( 'NONE', #168, .T. ) ;
#292 = DIRECTION ( 'NONE',  ( -3.491481338843133355E-15, 1.224646799147353207E-16, -1.000000000000000000 ) ) ;
#293 = CARTESIAN_POINT ( 'NONE',  ( 8.552847072295026068E-47, 1.769999999999988916, 0.0000000000000000000 ) ) ;
#294 = AXIS2_PLACEMENT_3D ( 'NONE', #260, #173, #264 ) ;
#295 = DIRECTION ( 'NONE',  ( 3.813722662152961326E-31, 1.000000000000000000, 1.341834371888007237E-16 ) ) ;
#296 = EDGE_CURVE ( 'NONE', #67, #67, #135, .T. ) ;
#297 = CC_DESIGN_PERSON_AND_ORGANIZATION_ASSIGNMENT ( #26, #180, ( #37 ) ) ;
#298 = CARTESIAN_POINT ( 'NONE',  ( 2.433562493173664138E-13, 1.499999999999992673, 69.70000000000001705 ) ) ;
#299 = DIRECTION ( 'NONE',  ( 4.275831445896958607E-31, 1.000000000000000000, 1.224646799147353454E-16 ) ) ;
#300 = APPROVAL_STATUS ( 'not_yet_approved' ) ;
#301 = ORGANIZATION ( 'UNSPECIFIED', 'UNSPECIFIED', '' ) ;
#302 = DIRECTION ( 'NONE',  ( 0.0000000000000000000, 1.000000000000000000, 0.0000000000000000000 ) ) ;
#303 = DATE_AND_TIME ( #51, #282 ) ;
ENDSEC;
END-ISO-10303-21;
