ISO-10303-21;
HEADER;
FILE_DESCRIPTION (( 'STEP AP203' ),
    '1' );
FILE_NAME ('321629.step',
    '2021-12-02T09:36:19',
    ( '' ),
    ( '' ),
    'SwSTEP 2.0',
    'SolidWorks 2019',
    '' );
FILE_SCHEMA (( 'CONFIG_CONTROL_DESIGN' ));
ENDSEC;

DATA;
#1 = DIRECTION ( 'NONE',  ( -3.491481338843133355E-15, 1.224646799147353207E-16, -1.000000000000000000 ) ) ;
#2 = DIRECTION ( 'NONE',  ( -3.491481338843133355E-15, 1.224646799147353207E-16, -1.000000000000000000 ) ) ;
#3 = PERSON_AND_ORGANIZATION_ROLE ( 'creator' ) ;
#4 = AXIS2_PLACEMENT_3D ( 'NONE', #132, #248, #229 ) ;
#5 = PLANE ( 'NONE',  #188 ) ;
#6 = ADVANCED_FACE ( 'NONE', ( #91, #179 ), #203, .T. ) ;
#7 = DIRECTION ( 'NONE',  ( -3.491481338843133355E-15, 1.224646799147353207E-16, -1.000000000000000000 ) ) ;
#8 = CARTESIAN_POINT ( 'NONE',  ( -7.546842502008084848E-31, 2.647076016398162421E-32, -2.161501600495064873E-16 ) ) ;
#9 = EDGE_LOOP ( 'NONE', ( #75 ) ) ;
#10 = AXIS2_PLACEMENT_3D ( 'NONE', #117, #23, #118 ) ;
#11 = ADVANCED_FACE ( 'NONE', ( #157 ), #302, .F. ) ;
#12 = ORIENTED_EDGE ( 'NONE', *, *, #113, .F. ) ;
#13 = AXIS2_PLACEMENT_3D ( 'NONE', #8, #107, #209 ) ;
#14 = PRODUCT_DEFINITION_FORMATION_WITH_SPECIFIED_SOURCE ( 'ANY', '', #158, .NOT_KNOWN. ) ;
#15 = CC_DESIGN_PERSON_AND_ORGANIZATION_ASSIGNMENT ( #250, #66, ( #103 ) ) ;
#16 = EDGE_LOOP ( 'NONE', ( #87 ) ) ;
#17 = APPROVAL_STATUS ( 'not_yet_approved' ) ;
#18 = EDGE_LOOP ( 'NONE', ( #200 ) ) ;
#19 = EDGE_CURVE ( 'NONE', #127, #127, #41, .T. ) ;
#20 = CARTESIAN_POINT ( 'NONE',  ( 0.0000000000000000000, 0.0000000000000000000, 0.0000000000000000000 ) ) ;
#21 = AXIS2_PLACEMENT_3D ( 'NONE', #272, #162, #68 ) ;
#22 = CYLINDRICAL_SURFACE ( 'NONE', #10, 1.499999999999996891 ) ;
#23 = DIRECTION ( 'NONE',  ( -3.491481338843133355E-15, 1.224646799147353207E-16, -1.000000000000000000 ) ) ;
#24 = CYLINDRICAL_SURFACE ( 'NONE', #61, 1.499999999999996891 ) ;
#25 = AXIS2_PLACEMENT_3D ( 'NONE', #285, #7, #121 ) ;
#26 = CC_DESIGN_APPROVAL ( #264, ( #103 ) ) ;
#27 = CC_DESIGN_DATE_AND_TIME_ASSIGNMENT ( #137, #156, ( #184 ) ) ;
#28 = FACE_OUTER_BOUND ( 'NONE', #299, .T. ) ;
#29 = DIRECTION ( 'NONE',  ( 0.0000000000000000000, 1.000000000000000000, 0.0000000000000000000 ) ) ;
#30 = DIRECTION ( 'NONE',  ( -3.491481338843133355E-15, 1.224646799147353207E-16, -1.000000000000000000 ) ) ;
#31 = AXIS2_PLACEMENT_3D ( 'NONE', #251, #97, #294 ) ;
#32 = AXIS2_PLACEMENT_3D ( 'NONE', #205, #74, #163 ) ;
#33 = DIRECTION ( 'NONE',  ( 0.0000000000000000000, 1.000000000000000000, 0.0000000000000000000 ) ) ;
#34 = VERTEX_POINT ( 'NONE', #215 ) ;
#35 = EDGE_LOOP ( 'NONE', ( #177 ) ) ;
#36 = CARTESIAN_POINT ( 'NONE',  ( 0.0000000000000000000, 0.0000000000000000000, 0.0000000000000000000 ) ) ;
#37 = ORIENTED_EDGE ( 'NONE', *, *, #19, .F. ) ;
#38 = AXIS2_PLACEMENT_3D ( 'NONE', #167, #235, #213 ) ;
#39 = VERTEX_POINT ( 'NONE', #40 ) ;
#40 = CARTESIAN_POINT ( 'NONE',  ( 3.491481338843133355E-14, 2.014999999999988578, 10.00000000000000000 ) ) ;
#41 = CIRCLE ( 'NONE', #4, 1.500000000000001110 ) ;
#42 = PERSON_AND_ORGANIZATION ( #140, #134 ) ;
#43 = PERSON_AND_ORGANIZATION ( #140, #134 ) ;
#44 = COORDINATED_UNIVERSAL_TIME_OFFSET ( 1, 0, .AHEAD. ) ;
#45 = ORIENTED_EDGE ( 'NONE', *, *, #113, .T. ) ;
#46 = DIRECTION ( 'NONE',  ( 3.823185993820834864E-31, 1.000000000000000000, 1.345163985714032196E-16 ) ) ;
#47 = AXIS2_PLACEMENT_3D ( 'NONE', #180, #70, #246 ) ;
#48 = FACE_OUTER_BOUND ( 'NONE', #262, .T. ) ;
#49 = SECURITY_CLASSIFICATION_LEVEL ( 'unclassified' ) ;
#50 = EDGE_LOOP ( 'NONE', ( #220 ) ) ;
#51 = PERSON_AND_ORGANIZATION ( #140, #134 ) ;
#52 = ORIENTED_EDGE ( 'NONE', *, *, #19, .T. ) ;
#53 = PERSON_AND_ORGANIZATION ( #140, #134 ) ;
#54 = CONICAL_SURFACE ( 'NONE', #25, 2.014999999999989910, 0.5235987755983007030 ) ;
#55 = FACE_OUTER_BOUND ( 'NONE', #159, .T. ) ;
#56 = APPROVAL_ROLE ( '' ) ;
#57 = CALENDAR_DATE ( 2021, 2, 12 ) ;
#58 = ADVANCED_FACE ( 'NONE', ( #221, #48 ), #24, .T. ) ;
#59 = FACE_BOUND ( 'NONE', #129, .T. ) ;
#60 = CARTESIAN_POINT ( 'NONE',  ( 2.444036937190193601E-13, -8.572527594031472993E-15, 70.00000000000000000 ) ) ;
#61 = AXIS2_PLACEMENT_3D ( 'NONE', #20, #116, #93 ) ;
#62 = CARTESIAN_POINT ( 'NONE',  ( 2.444036937190193601E-13, 8.998558695971026591E-33, 70.00000000000000000 ) ) ;
#63 = CARTESIAN_POINT ( 'NONE',  ( 2.444036937190193601E-13, 1.199999999999992628, 70.00000000000000000 ) ) ;
#64 = CARTESIAN_POINT ( 'NONE',  ( 0.0000000000000000000, 1.764999999999989022, 0.0000000000000000000 ) ) ;
#65 = ORIENTED_EDGE ( 'NONE', *, *, #83, .F. ) ;
#66 = PERSON_AND_ORGANIZATION_ROLE ( 'creator' ) ;
#67 = EDGE_LOOP ( 'NONE', ( #252 ) ) ;
#68 = DIRECTION ( 'NONE',  ( 4.275831445896958607E-31, 1.000000000000000000, 1.224646799147353207E-16 ) ) ;
#69 = APPLICATION_PROTOCOL_DEFINITION ( 'international standard', 'config_control_design', 1994, #190 ) ;
#70 = DIRECTION ( 'NONE',  ( -3.491481338843133355E-15, 1.224646799147353207E-16, -1.000000000000000000 ) ) ;
#71 = ORIENTED_EDGE ( 'NONE', *, *, #296, .T. ) ;
#72 = COORDINATED_UNIVERSAL_TIME_OFFSET ( 1, 0, .AHEAD. ) ;
#73 = APPROVAL_DATE_TIME ( #90, #264 ) ;
#74 = DIRECTION ( 'NONE',  ( -3.491481338843133355E-15, 1.224646799147353207E-16, -1.000000000000000000 ) ) ;
#75 = ORIENTED_EDGE ( 'NONE', *, *, #108, .F. ) ;
#76 = DATE_AND_TIME ( #303, #255 ) ;
#77 = VERTEX_POINT ( 'NONE', #238 ) ;
#78 = AXIS2_PLACEMENT_3D ( 'NONE', #261, #149, #189 ) ;
#79 = EDGE_CURVE ( 'NONE', #34, #34, #206, .T. ) ;
#80 = CARTESIAN_POINT ( 'NONE',  ( 2.444036937190193601E-13, -8.572527594031472993E-15, 70.00000000000000000 ) ) ;
#81 = CARTESIAN_POINT ( 'NONE',  ( 3.802923627079708728E-14, -1.333886048736017626E-15, 10.89200616589796233 ) ) ;
#82 = DIRECTION ( 'NONE',  ( 0.0000000000000000000, 1.000000000000000000, 0.0000000000000000000 ) ) ;
#83 = EDGE_CURVE ( 'NONE', #174, #174, #160, .T. ) ;
#84 = AXIS2_PLACEMENT_3D ( 'NONE', #287, #284, #100 ) ;
#85 = FACE_OUTER_BOUND ( 'NONE', #141, .T. ) ;
#86 = EDGE_CURVE ( 'NONE', #146, #146, #212, .T. ) ;
#87 = ORIENTED_EDGE ( 'NONE', *, *, #79, .F. ) ;
#88 = ADVANCED_FACE ( 'NONE', ( #226, #138 ), #22, .T. ) ;
#89 = CLOSED_SHELL ( 'NONE', ( #253, #150, #58, #269, #219 ) ) ;
#90 = DATE_AND_TIME ( #204, #154 ) ;
#91 = FACE_OUTER_BOUND ( 'NONE', #291, .T. ) ;
#92 = CC_DESIGN_PERSON_AND_ORGANIZATION_ASSIGNMENT ( #166, #3, ( #14 ) ) ;
#93 = DIRECTION ( 'NONE',  ( 4.275831445896958607E-31, 1.000000000000000000, 1.224646799147353454E-16 ) ) ;
#94 = COORDINATED_UNIVERSAL_TIME_OFFSET ( 1, 0, .AHEAD. ) ;
#95 = DIRECTION ( 'NONE',  ( 0.0000000000000000000, 1.000000000000000000, 0.0000000000000000000 ) ) ;
#96 = AXIS2_PLACEMENT_3D ( 'NONE', #256, #30, #230 ) ;
#97 = DIRECTION ( 'NONE',  ( -3.491481338843133355E-15, 1.224646799147353207E-16, -1.000000000000000000 ) ) ;
#98 = CARTESIAN_POINT ( 'NONE',  ( 8.728703347107825500E-16, -3.061616997868380553E-17, 0.2499999999999997780 ) ) ;
#99 = CARTESIAN_POINT ( 'NONE',  ( -3.773421251004042424E-31, 1.323538008199081210E-32, -1.080750800247532437E-16 ) ) ;
#100 = DIRECTION ( 'NONE',  ( 0.0000000000000000000, 1.000000000000000000, 0.0000000000000000000 ) ) ;
#101 = CIRCLE ( 'NONE', #96, 1.764999999999989022 ) ;
#102 = APPROVAL_PERSON_ORGANIZATION ( #207, #264, #298 ) ;
#103 = PRODUCT_DEFINITION ( 'UNKNOWN', '', #14, #244 ) ;
#104 = PLANE ( 'NONE',  #182 ) ;
#105 = FACE_OUTER_BOUND ( 'NONE', #208, .T. ) ;
#106 = MANIFOLD_SOLID_BREP ( 'Corps-Déplacer/Copier1[1]', #89 ) ;
#107 = DIRECTION ( 'NONE',  ( 3.491481338843133355E-15, -1.224646799147353207E-16, 1.000000000000000000 ) ) ;
#108 = EDGE_CURVE ( 'NONE', #77, #77, #218, .T. ) ;
#109 = ORIENTED_EDGE ( 'NONE', *, *, #79, .T. ) ;
#110 = CC_DESIGN_APPROVAL ( #136, ( #184 ) ) ;
#111 = MANIFOLD_SOLID_BREP ( 'Corps-Déplacer/Copier1[2]', #151 ) ;
#112 = CARTESIAN_POINT ( 'NONE',  ( 3.802923627079708728E-14, 1.499999999999991562, 10.89200616589796233 ) ) ;
#113 = EDGE_CURVE ( 'NONE', #130, #130, #171, .T. ) ;
#114 = APPROVAL_PERSON_ORGANIZATION ( #43, #136, #183 ) ;
#115 = ORIENTED_EDGE ( 'NONE', *, *, #296, .F. ) ;
#116 = DIRECTION ( 'NONE',  ( -3.491481338843133355E-15, 1.224646799147353207E-16, -1.000000000000000000 ) ) ;
#117 = CARTESIAN_POINT ( 'NONE',  ( 0.0000000000000000000, 0.0000000000000000000, 0.0000000000000000000 ) ) ;
#118 = DIRECTION ( 'NONE',  ( 4.275831445896958607E-31, 1.000000000000000000, 1.224646799147353454E-16 ) ) ;
#119 = AXIS2_PLACEMENT_3D ( 'NONE', #60, #210, #33 ) ;
#120 = ADVANCED_FACE ( 'NONE', ( #214, #192 ), #54, .T. ) ;
#121 = DIRECTION ( 'NONE',  ( 0.0000000000000000000, 1.000000000000000000, 0.0000000000000000000 ) ) ;
#122 = CARTESIAN_POINT ( 'NONE',  ( 8.728703347107833388E-16, 2.014999999999989910, 0.2500000000000000555 ) ) ;
#123 = CC_DESIGN_PERSON_AND_ORGANIZATION_ASSIGNMENT ( #53, #258, ( #14 ) ) ;
#124 = FACE_BOUND ( 'NONE', #131, .T. ) ;
#125 = AXIS2_PLACEMENT_3D ( 'NONE', #126, #257, #170 ) ;
#126 = CARTESIAN_POINT ( 'NONE',  ( 3.491481338843133355E-14, 1.511007981031812043E-32, 10.00000000000000000 ) ) ;
#127 = VERTEX_POINT ( 'NONE', #186 ) ;
#128 = DIRECTION ( 'NONE',  ( 1.000000000000000000, 0.0000000000000000000, 0.0000000000000000000 ) ) ;
#129 = EDGE_LOOP ( 'NONE', ( #45 ) ) ;
#130 = VERTEX_POINT ( 'NONE', #63 ) ;
#131 = EDGE_LOOP ( 'NONE', ( #202 ) ) ;
#132 = CARTESIAN_POINT ( 'NONE',  ( 2.433562493173664138E-13, -8.535788190057053710E-15, 69.70000000000001705 ) ) ;
#133 = CONICAL_SURFACE ( 'NONE', #13, 1.764999999999989022, 0.7853981633974500554 ) ;
#134 = ORGANIZATION ( 'UNSPECIFIED', 'UNSPECIFIED', '' ) ;
#135 = CARTESIAN_POINT ( 'NONE',  ( 2.444036937190193601E-13, -8.572527594031472993E-15, 70.00000000000000000 ) ) ;
#136 = APPROVAL ( #17, 'UNSPECIFIED' ) ;
#137 = DATE_AND_TIME ( #152, #197 ) ;
#138 = FACE_OUTER_BOUND ( 'NONE', #243, .T. ) ;
#139 = PERSON_AND_ORGANIZATION ( #140, #134 ) ;
#140 = PERSON ( 'UNSPECIFIED', 'UNSPECIFIED', 'UNSPECIFIED', ('UNSPECIFIED'), ('UNSPECIFIED'), ('UNSPECIFIED') ) ;
#141 = EDGE_LOOP ( 'NONE', ( #37 ) ) ;
#142 = EDGE_CURVE ( 'NONE', #240, #240, #101, .T. ) ;
#143 = AXIS2_PLACEMENT_3D ( 'NONE', #98, #279, #46 ) ;
#144 = FACE_OUTER_BOUND ( 'NONE', #16, .T. ) ;
#145 = DIRECTION ( 'NONE',  ( -3.491481338843133355E-15, 1.224646799147353207E-16, -1.000000000000000000 ) ) ;
#146 = VERTEX_POINT ( 'NONE', #233 ) ;
#147 = DIRECTION ( 'NONE',  ( 4.275831445896958607E-31, 1.000000000000000000, 1.224646799147353207E-16 ) ) ;
#148 = AXIS2_PLACEMENT_3D ( 'NONE', #80, #2, #82 ) ;
#149 = DIRECTION ( 'NONE',  ( -3.491481338843133355E-15, 1.224646799147353207E-16, -1.000000000000000000 ) ) ;
#150 = ADVANCED_FACE ( 'NONE', ( #124, #55 ), #254, .T. ) ;
#151 = CLOSED_SHELL ( 'NONE', ( #120, #6, #164, #195, #11, #227, #88 ) ) ;
#152 = CALENDAR_DATE ( 2021, 2, 12 ) ;
#153 = CIRCLE ( 'NONE', #290, 2.014999999999989910 ) ;
#154 = LOCAL_TIME ( 10, 36, 19.00000000000000000, #94 ) ;
#155 = EDGE_LOOP ( 'NONE', ( #270 ) ) ;
#156 = DATE_TIME_ROLE ( 'classification_date' ) ;
#157 = FACE_OUTER_BOUND ( 'NONE', #67, .T. ) ;
#158 = PRODUCT ( '321629', '321629', '', ( #268 ) ) ;
#159 = EDGE_LOOP ( 'NONE', ( #237 ) ) ;
#160 = CIRCLE ( 'NONE', #143, 2.014999999999989910 ) ;
#161 = LOCAL_TIME ( 10, 36, 19.00000000000000000, #201 ) ;
#162 = DIRECTION ( 'NONE',  ( -3.491481338843133355E-15, 1.224646799147353207E-16, -1.000000000000000000 ) ) ;
#163 = DIRECTION ( 'NONE',  ( 0.0000000000000000000, 1.000000000000000000, 0.0000000000000000000 ) ) ;
#164 = ADVANCED_FACE ( 'NONE', ( #236, #263 ), #133, .T. ) ;
#165 = EDGE_LOOP ( 'NONE', ( #185 ) ) ;
#166 = PERSON_AND_ORGANIZATION ( #140, #134 ) ;
#167 = CARTESIAN_POINT ( 'NONE',  ( 3.491481338843133355E-14, -1.224646799147353256E-15, 10.00000000000000000 ) ) ;
#168 = PLANE ( 'NONE',  #125 ) ;
#169 = DIRECTION ( 'NONE',  ( -3.491481338843133355E-15, 1.224646799147353207E-16, -1.000000000000000000 ) ) ;
#170 = DIRECTION ( 'NONE',  ( -4.275831445896958607E-31, -1.000000000000000000, -1.224646799147353207E-16 ) ) ;
#171 = CIRCLE ( 'NONE', #148, 1.200000000000001510 ) ;
#172 = CC_DESIGN_SECURITY_CLASSIFICATION ( #184, ( #14 ) ) ;
#173 = COORDINATED_UNIVERSAL_TIME_OFFSET ( 1, 0, .AHEAD. ) ;
#174 = VERTEX_POINT ( 'NONE', #122 ) ;
#175 =( NAMED_UNIT ( * ) PLANE_ANGLE_UNIT ( ) SI_UNIT ( $, .RADIAN. ) );
#176 = APPLICATION_PROTOCOL_DEFINITION ( 'international standard', 'config_control_design', 1994, #289 ) ;
#177 = ORIENTED_EDGE ( 'NONE', *, *, #142, .F. ) ;
#178 =( LENGTH_UNIT ( ) NAMED_UNIT ( * ) SI_UNIT ( .MILLI., .METRE. ) );
#179 = FACE_OUTER_BOUND ( 'NONE', #275, .T. ) ;
#180 = CARTESIAN_POINT ( 'NONE',  ( 2.433562493173664138E-13, -8.535788190057053710E-15, 69.70000000000001705 ) ) ;
#181 = ORIENTED_EDGE ( 'NONE', *, *, #142, .T. ) ;
#182 = AXIS2_PLACEMENT_3D ( 'NONE', #62, #145, #194 ) ;
#183 = APPROVAL_ROLE ( '' ) ;
#184 = SECURITY_CLASSIFICATION ( '', '', #49 ) ;
#185 = ORIENTED_EDGE ( 'NONE', *, *, #83, .T. ) ;
#186 = CARTESIAN_POINT ( 'NONE',  ( 2.433562493173664138E-13, 1.499999999999992673, 69.70000000000001705 ) ) ;
#187 = UNCERTAINTY_MEASURE_WITH_UNIT (LENGTH_MEASURE( 1.000000000000000082E-05 ), #178, 'distance_accuracy_value', 'NONE');
#188 = AXIS2_PLACEMENT_3D ( 'NONE', #99, #282, #147 ) ;
#189 = DIRECTION ( 'NONE',  ( 0.0000000000000000000, 1.000000000000000000, 0.0000000000000000000 ) ) ;
#190 = APPLICATION_CONTEXT ( 'configuration controlled 3d designs of mechanical parts and assemblies' ) ;
#191 = CC_DESIGN_PERSON_AND_ORGANIZATION_ASSIGNMENT ( #139, #295, ( #184 ) ) ;
#192 = FACE_OUTER_BOUND ( 'NONE', #216, .T. ) ;
#193 = DIRECTION ( 'NONE',  ( 0.0000000000000000000, 1.000000000000000000, 0.0000000000000000000 ) ) ;
#194 = DIRECTION ( 'NONE',  ( 4.275831445896958607E-31, 1.000000000000000000, 1.224646799147353207E-16 ) ) ;
#195 = ADVANCED_FACE ( 'NONE', ( #105 ), #5, .T. ) ;
#196 = CIRCLE ( 'NONE', #78, 2.014999999999989910 ) ;
#197 = LOCAL_TIME ( 10, 36, 19.00000000000000000, #173 ) ;
#198 = DIRECTION ( 'NONE',  ( 0.0000000000000000000, 0.0000000000000000000, 1.000000000000000000 ) ) ;
#199 = VERTEX_POINT ( 'NONE', #112 ) ;
#200 = ORIENTED_EDGE ( 'NONE', *, *, #242, .F. ) ;
#201 = COORDINATED_UNIVERSAL_TIME_OFFSET ( 1, 0, .AHEAD. ) ;
#202 = ORIENTED_EDGE ( 'NONE', *, *, #108, .T. ) ;
#203 = CYLINDRICAL_SURFACE ( 'NONE', #21, 2.014999999999989910 ) ;
#204 = CALENDAR_DATE ( 2021, 2, 12 ) ;
#205 = CARTESIAN_POINT ( 'NONE',  ( 3.802923627079708728E-14, -1.333886048736017626E-15, 10.89200616589796233 ) ) ;
#206 = CIRCLE ( 'NONE', #47, 1.500000000000001110 ) ;
#207 = PERSON_AND_ORGANIZATION ( #140, #134 ) ;
#208 = EDGE_LOOP ( 'NONE', ( #181 ) ) ;
#209 = DIRECTION ( 'NONE',  ( -4.275831445896958607E-31, -1.000000000000000000, -1.224646799147353207E-16 ) ) ;
#210 = DIRECTION ( 'NONE',  ( -3.491481338843133355E-15, 1.224646799147353207E-16, -1.000000000000000000 ) ) ;
#211 = CC_DESIGN_DATE_AND_TIME_ASSIGNMENT ( #276, #249, ( #103 ) ) ;
#212 = CIRCLE ( 'NONE', #277, 1.200000000000001510 ) ;
#213 = DIRECTION ( 'NONE',  ( 0.0000000000000000000, 1.000000000000000000, 0.0000000000000000000 ) ) ;
#214 = FACE_BOUND ( 'NONE', #288, .T. ) ;
#215 = CARTESIAN_POINT ( 'NONE',  ( 2.433562493173664138E-13, 1.499999999999992673, 69.70000000000001705 ) ) ;
#216 = EDGE_LOOP ( 'NONE', ( #115 ) ) ;
#217 = CARTESIAN_POINT ( 'NONE',  ( 3.491481338843133355E-14, 2.014999999999988578, 10.00000000000000000 ) ) ;
#218 = CIRCLE ( 'NONE', #32, 1.499999999999992895 ) ;
#219 = ADVANCED_FACE ( 'NONE', ( #28 ), #104, .F. ) ;
#220 = ORIENTED_EDGE ( 'NONE', *, *, #86, .T. ) ;
#221 = FACE_OUTER_BOUND ( 'NONE', #9, .T. ) ;
#222 = CONICAL_SURFACE ( 'NONE', #84, 1.200000000000001510, 0.7853981633974566057 ) ;
#223 = APPROVAL_PERSON_ORGANIZATION ( #51, #239, #56 ) ;
#224 = CALENDAR_DATE ( 2021, 2, 12 ) ;
#225 = DIRECTION ( 'NONE',  ( -3.491481338843133355E-15, 1.224646799147353207E-16, -1.000000000000000000 ) ) ;
#226 = FACE_OUTER_BOUND ( 'NONE', #18, .T. ) ;
#227 = ADVANCED_FACE ( 'NONE', ( #144, #231 ), #222, .T. ) ;
#228 = PERSON_AND_ORGANIZATION_ROLE ( 'design_owner' ) ;
#229 = DIRECTION ( 'NONE',  ( 0.0000000000000000000, 1.000000000000000000, 0.0000000000000000000 ) ) ;
#230 = DIRECTION ( 'NONE',  ( 4.275831445896958607E-31, 1.000000000000000000, 1.224646799147353207E-16 ) ) ;
#231 = FACE_BOUND ( 'NONE', #50, .T. ) ;
#232 = APPROVAL_DATE_TIME ( #76, #239 ) ;
#233 = CARTESIAN_POINT ( 'NONE',  ( 2.444036937190193601E-13, 1.199999999999992628, 70.00000000000000000 ) ) ;
#234 =( GEOMETRIC_REPRESENTATION_CONTEXT ( 3 ) GLOBAL_UNCERTAINTY_ASSIGNED_CONTEXT ( ( #187 ) ) GLOBAL_UNIT_ASSIGNED_CONTEXT ( ( #178, #175, #265 ) ) REPRESENTATION_CONTEXT ( 'NONE', 'WORKASPACE' ) );
#235 = DIRECTION ( 'NONE',  ( -3.491481338843133355E-15, 1.224646799147353207E-16, -1.000000000000000000 ) ) ;
#236 = FACE_OUTER_BOUND ( 'NONE', #165, .T. ) ;
#237 = ORIENTED_EDGE ( 'NONE', *, *, #281, .F. ) ;
#238 = CARTESIAN_POINT ( 'NONE',  ( 3.802923627079708728E-14, 1.499999999999991562, 10.89200616589796233 ) ) ;
#239 = APPROVAL ( #300, 'UNSPECIFIED' ) ;
#240 = VERTEX_POINT ( 'NONE', #64 ) ;
#241 = CONICAL_SURFACE ( 'NONE', #119, 1.200000000000001510, 0.7853981633974566057 ) ;
#242 = EDGE_CURVE ( 'NONE', #199, #199, #286, .T. ) ;
#243 = EDGE_LOOP ( 'NONE', ( #109 ) ) ;
#244 = DESIGN_CONTEXT ( 'detailed design', #190, 'design' ) ;
#245 = APPROVAL_STATUS ( 'not_yet_approved' ) ;
#246 = DIRECTION ( 'NONE',  ( 0.0000000000000000000, 1.000000000000000000, 0.0000000000000000000 ) ) ;
#247 = SHAPE_DEFINITION_REPRESENTATION ( #274, #260 ) ;
#248 = DIRECTION ( 'NONE',  ( -3.491481338843133355E-15, 1.224646799147353207E-16, -1.000000000000000000 ) ) ;
#249 = DATE_TIME_ROLE ( 'creation_date' ) ;
#250 = PERSON_AND_ORGANIZATION ( #140, #134 ) ;
#251 = CARTESIAN_POINT ( 'NONE',  ( 2.444036937190193601E-13, -8.572527594031472993E-15, 70.00000000000000000 ) ) ;
#252 = ORIENTED_EDGE ( 'NONE', *, *, #86, .F. ) ;
#253 = ADVANCED_FACE ( 'NONE', ( #259 ), #168, .F. ) ;
#254 = CONICAL_SURFACE ( 'NONE', #38, 2.014999999999989910, 0.5235987755983007030 ) ;
#255 = LOCAL_TIME ( 10, 36, 19.00000000000000000, #72 ) ;
#256 = CARTESIAN_POINT ( 'NONE',  ( -7.546842502008084848E-31, 2.647076016398162421E-32, -2.161501600495064873E-16 ) ) ;
#257 = DIRECTION ( 'NONE',  ( 3.491481338843133355E-15, -1.224646799147353207E-16, 1.000000000000000000 ) ) ;
#258 = PERSON_AND_ORGANIZATION_ROLE ( 'design_supplier' ) ;
#259 = FACE_OUTER_BOUND ( 'NONE', #155, .T. ) ;
#260 = ADVANCED_BREP_SHAPE_REPRESENTATION ( '321629', ( #106, #111, #292 ), #234 ) ;
#261 = CARTESIAN_POINT ( 'NONE',  ( 3.491481338843133355E-14, -1.224646799147353256E-15, 10.00000000000000000 ) ) ;
#262 = EDGE_LOOP ( 'NONE', ( #52 ) ) ;
#263 = FACE_BOUND ( 'NONE', #35, .T. ) ;
#264 = APPROVAL ( #245, 'UNSPECIFIED' ) ;
#265 =( NAMED_UNIT ( * ) SI_UNIT ( $, .STERADIAN. ) SOLID_ANGLE_UNIT ( ) );
#266 = CC_DESIGN_APPROVAL ( #239, ( #14 ) ) ;
#267 = VERTEX_POINT ( 'NONE', #217 ) ;
#268 = MECHANICAL_CONTEXT ( 'NONE', #289, 'mechanical' ) ;
#269 = ADVANCED_FACE ( 'NONE', ( #85, #59 ), #241, .T. ) ;
#270 = ORIENTED_EDGE ( 'NONE', *, *, #281, .T. ) ;
#271 = PRODUCT_RELATED_PRODUCT_CATEGORY ( 'detail', '', ( #158 ) ) ;
#272 = CARTESIAN_POINT ( 'NONE',  ( 0.0000000000000000000, 0.0000000000000000000, 0.0000000000000000000 ) ) ;
#273 = APPROVAL_DATE_TIME ( #293, #136 ) ;
#274 = PRODUCT_DEFINITION_SHAPE ( 'NONE', 'NONE',  #103 ) ;
#275 = EDGE_LOOP ( 'NONE', ( #65 ) ) ;
#276 = DATE_AND_TIME ( #57, #278 ) ;
#277 = AXIS2_PLACEMENT_3D ( 'NONE', #135, #225, #95 ) ;
#278 = LOCAL_TIME ( 10, 36, 19.00000000000000000, #44 ) ;
#279 = DIRECTION ( 'NONE',  ( -3.491481338843133355E-15, 1.224646799147353207E-16, -1.000000000000000000 ) ) ;
#280 = ORIENTED_EDGE ( 'NONE', *, *, #242, .T. ) ;
#281 = EDGE_CURVE ( 'NONE', #267, #267, #153, .T. ) ;
#282 = DIRECTION ( 'NONE',  ( -3.491481338843133355E-15, 1.224646799147353207E-16, -1.000000000000000000 ) ) ;
#283 = CARTESIAN_POINT ( 'NONE',  ( 3.491481338843133355E-14, -1.224646799147353256E-15, 10.00000000000000000 ) ) ;
#284 = DIRECTION ( 'NONE',  ( -3.491481338843133355E-15, 1.224646799147353207E-16, -1.000000000000000000 ) ) ;
#285 = CARTESIAN_POINT ( 'NONE',  ( 3.491481338843133355E-14, -1.224646799147353256E-15, 10.00000000000000000 ) ) ;
#286 = CIRCLE ( 'NONE', #301, 1.499999999999992895 ) ;
#287 = CARTESIAN_POINT ( 'NONE',  ( 2.444036937190193601E-13, -8.572527594031472993E-15, 70.00000000000000000 ) ) ;
#288 = EDGE_LOOP ( 'NONE', ( #280 ) ) ;
#289 = APPLICATION_CONTEXT ( 'configuration controlled 3d designs of mechanical parts and assemblies' ) ;
#290 = AXIS2_PLACEMENT_3D ( 'NONE', #283, #1, #193 ) ;
#291 = EDGE_LOOP ( 'NONE', ( #71 ) ) ;
#292 = AXIS2_PLACEMENT_3D ( 'NONE', #36, #198, #128 ) ;
#293 = DATE_AND_TIME ( #224, #161 ) ;
#294 = DIRECTION ( 'NONE',  ( 4.275831445896958607E-31, 1.000000000000000000, 1.224646799147353207E-16 ) ) ;
#295 = PERSON_AND_ORGANIZATION_ROLE ( 'classification_officer' ) ;
#296 = EDGE_CURVE ( 'NONE', #39, #39, #196, .T. ) ;
#297 = CC_DESIGN_PERSON_AND_ORGANIZATION_ASSIGNMENT ( #42, #228, ( #158 ) ) ;
#298 = APPROVAL_ROLE ( '' ) ;
#299 = EDGE_LOOP ( 'NONE', ( #12 ) ) ;
#300 = APPROVAL_STATUS ( 'not_yet_approved' ) ;
#301 = AXIS2_PLACEMENT_3D ( 'NONE', #81, #169, #29 ) ;
#302 = PLANE ( 'NONE',  #31 ) ;
#303 = CALENDAR_DATE ( 2021, 2, 12 ) ;
ENDSEC;
END-ISO-10303-21;
