ISO-10303-21;
HEADER;
FILE_DESCRIPTION (( 'STEP AP203' ),
    '1' );
FILE_NAME ('321628.step',
    '2021-12-02T09:36:19',
    ( '' ),
    ( '' ),
    'SwSTEP 2.0',
    'SolidWorks 2019',
    '' );
FILE_SCHEMA (( 'CONFIG_CONTROL_DESIGN' ));
ENDSEC;

DATA;
#1 = PERSON_AND_ORGANIZATION_ROLE ( 'classification_officer' ) ;
#2 = AXIS2_PLACEMENT_3D ( 'NONE', #141, #250, #76 ) ;
#3 = FACE_OUTER_BOUND ( 'NONE', #62, .T. ) ;
#4 = APPROVAL_ROLE ( '' ) ;
#5 = DIRECTION ( 'NONE',  ( -3.491481338843133355E-15, 1.224646799147353207E-16, -1.000000000000000000 ) ) ;
#6 = ADVANCED_FACE ( 'NONE', ( #3 ), #21, .F. ) ;
#7 = CALENDAR_DATE ( 2021, 2, 12 ) ;
#8 = CYLINDRICAL_SURFACE ( 'NONE', #80, 1.499999999999996891 ) ;
#9 = CARTESIAN_POINT ( 'NONE',  ( 0.0000000000000000000, 0.0000000000000000000, 0.0000000000000000000 ) ) ;
#10 = CLOSED_SHELL ( 'NONE', ( #86, #241, #28, #106, #295, #79, #163 ) ) ;
#11 = EDGE_CURVE ( 'NONE', #235, #235, #188, .T. ) ;
#12 = CARTESIAN_POINT ( 'NONE',  ( 3.799899915543431223E-14, 1.499999999999991562, 10.88334591186012013 ) ) ;
#13 = CIRCLE ( 'NONE', #181, 1.500000000000001110 ) ;
#14 = FACE_BOUND ( 'NONE', #180, .T. ) ;
#15 = EDGE_LOOP ( 'NONE', ( #120 ) ) ;
#16 = CALENDAR_DATE ( 2021, 2, 12 ) ;
#17 = CARTESIAN_POINT ( 'NONE',  ( 2.444036937190193601E-13, 1.199999999999992628, 70.00000000000000000 ) ) ;
#18 = EDGE_CURVE ( 'NONE', #258, #258, #139, .T. ) ;
#19 = EDGE_LOOP ( 'NONE', ( #202 ) ) ;
#20 = CARTESIAN_POINT ( 'NONE',  ( 3.799899915543431223E-14, -1.332825473497292779E-15, 10.88334591186012013 ) ) ;
#21 = PLANE ( 'NONE',  #236 ) ;
#22 = CARTESIAN_POINT ( 'NONE',  ( 3.491481338843133355E-14, -1.224646799147353256E-15, 10.00000000000000000 ) ) ;
#23 = DIRECTION ( 'NONE',  ( 4.275831445896958607E-31, 1.000000000000000000, 1.224646799147353207E-16 ) ) ;
#24 = PERSON_AND_ORGANIZATION_ROLE ( 'creator' ) ;
#25 = PLANE ( 'NONE',  #299 ) ;
#26 = CARTESIAN_POINT ( 'NONE',  ( 2.444036937190193601E-13, -8.572527594031472993E-15, 70.00000000000000000 ) ) ;
#27 = CLOSED_SHELL ( 'NONE', ( #6, #265, #279, #220, #251 ) ) ;
#28 = ADVANCED_FACE ( 'NONE', ( #143, #44 ), #98, .T. ) ;
#29 = EDGE_LOOP ( 'NONE', ( #159 ) ) ;
#30 = VERTEX_POINT ( 'NONE', #131 ) ;
#31 = COORDINATED_UNIVERSAL_TIME_OFFSET ( 1, 0, .AHEAD. ) ;
#32 = DIRECTION ( 'NONE',  ( 0.0000000000000000000, 1.000000000000000000, 0.0000000000000000000 ) ) ;
#33 = CARTESIAN_POINT ( 'NONE',  ( 3.491481338843133355E-14, 2.009999999999988685, 10.00000000000000000 ) ) ;
#34 =( LENGTH_UNIT ( ) NAMED_UNIT ( * ) SI_UNIT ( .MILLI., .METRE. ) );
#35 = CONICAL_SURFACE ( 'NONE', #104, 2.009999999999990017, 0.5235987755983005920 ) ;
#36 = EDGE_LOOP ( 'NONE', ( #246 ) ) ;
#37 = PERSON_AND_ORGANIZATION ( #259, #213 ) ;
#38 = CARTESIAN_POINT ( 'NONE',  ( 3.799899915543431223E-14, -1.332825473497292779E-15, 10.88334591186012013 ) ) ;
#39 = PERSON_AND_ORGANIZATION ( #259, #213 ) ;
#40 = FACE_OUTER_BOUND ( 'NONE', #243, .T. ) ;
#41 = CC_DESIGN_PERSON_AND_ORGANIZATION_ASSIGNMENT ( #78, #24, ( #223 ) ) ;
#42 = DATE_TIME_ROLE ( 'classification_date' ) ;
#43 = APPROVAL_PERSON_ORGANIZATION ( #186, #55, #47 ) ;
#44 = FACE_BOUND ( 'NONE', #132, .T. ) ;
#45 = COORDINATED_UNIVERSAL_TIME_OFFSET ( 1, 0, .AHEAD. ) ;
#46 = CARTESIAN_POINT ( 'NONE',  ( 3.491481338843133355E-14, -1.224646799147353256E-15, 10.00000000000000000 ) ) ;
#47 = APPROVAL_ROLE ( '' ) ;
#48 = EDGE_CURVE ( 'NONE', #30, #30, #116, .T. ) ;
#49 = FACE_OUTER_BOUND ( 'NONE', #29, .T. ) ;
#50 = DESIGN_CONTEXT ( 'detailed design', #57, 'design' ) ;
#51 = CIRCLE ( 'NONE', #215, 1.759999999999989129 ) ;
#52 = CARTESIAN_POINT ( 'NONE',  ( 3.799899915543431223E-14, 1.499999999999991562, 10.88334591186012013 ) ) ;
#53 = DIRECTION ( 'NONE',  ( 0.0000000000000000000, 1.000000000000000000, 0.0000000000000000000 ) ) ;
#54 = DIRECTION ( 'NONE',  ( 0.0000000000000000000, 1.000000000000000000, 0.0000000000000000000 ) ) ;
#55 = APPROVAL ( #253, 'UNSPECIFIED' ) ;
#56 = EDGE_LOOP ( 'NONE', ( #210 ) ) ;
#57 = APPLICATION_CONTEXT ( 'configuration controlled 3d designs of mechanical parts and assemblies' ) ;
#58 = CARTESIAN_POINT ( 'NONE',  ( 3.491481338843133355E-14, 2.009999999999988685, 10.00000000000000000 ) ) ;
#59 = AXIS2_PLACEMENT_3D ( 'NONE', #95, #276, #67 ) ;
#60 =( GEOMETRIC_REPRESENTATION_CONTEXT ( 3 ) GLOBAL_UNCERTAINTY_ASSIGNED_CONTEXT ( ( #162 ) ) GLOBAL_UNIT_ASSIGNED_CONTEXT ( ( #34, #301, #111 ) ) REPRESENTATION_CONTEXT ( 'NONE', 'WORKASPACE' ) );
#61 = CARTESIAN_POINT ( 'NONE',  ( 8.728703347107833388E-16, 2.009999999999990017, 0.2500000000000000555 ) ) ;
#62 = EDGE_LOOP ( 'NONE', ( #166 ) ) ;
#63 = PERSON_AND_ORGANIZATION ( #259, #213 ) ;
#64 = AXIS2_PLACEMENT_3D ( 'NONE', #129, #5, #54 ) ;
#65 = CARTESIAN_POINT ( 'NONE',  ( 0.0000000000000000000, 1.759999999999989129, 0.0000000000000000000 ) ) ;
#66 = SECURITY_CLASSIFICATION_LEVEL ( 'unclassified' ) ;
#67 = DIRECTION ( 'NONE',  ( 4.275831445896958607E-31, 1.000000000000000000, 1.224646799147353207E-16 ) ) ;
#68 = PRODUCT ( '321628', '321628', '', ( #224 ) ) ;
#69 = DIRECTION ( 'NONE',  ( 1.000000000000000000, 0.0000000000000000000, 0.0000000000000000000 ) ) ;
#70 = DIRECTION ( 'NONE',  ( -3.491481338843133355E-15, 1.224646799147353207E-16, -1.000000000000000000 ) ) ;
#71 = APPLICATION_PROTOCOL_DEFINITION ( 'international standard', 'config_control_design', 1994, #57 ) ;
#72 = PERSON_AND_ORGANIZATION_ROLE ( 'creator' ) ;
#73 = DIRECTION ( 'NONE',  ( 0.0000000000000000000, 1.000000000000000000, 0.0000000000000000000 ) ) ;
#74 = LOCAL_TIME ( 10, 36, 19.00000000000000000, #125 ) ;
#75 = DIRECTION ( 'NONE',  ( -4.275831445896958607E-31, -1.000000000000000000, -1.224646799147353207E-16 ) ) ;
#76 = DIRECTION ( 'NONE',  ( 0.0000000000000000000, 1.000000000000000000, 0.0000000000000000000 ) ) ;
#77 = DIRECTION ( 'NONE',  ( -3.491481338843133355E-15, 1.224646799147353207E-16, -1.000000000000000000 ) ) ;
#78 = PERSON_AND_ORGANIZATION ( #259, #213 ) ;
#79 = ADVANCED_FACE ( 'NONE', ( #49, #124 ), #134, .T. ) ;
#80 = AXIS2_PLACEMENT_3D ( 'NONE', #261, #268, #133 ) ;
#81 = FACE_OUTER_BOUND ( 'NONE', #15, .T. ) ;
#82 = APPROVAL_STATUS ( 'not_yet_approved' ) ;
#83 = FACE_OUTER_BOUND ( 'NONE', #257, .T. ) ;
#84 = CIRCLE ( 'NONE', #244, 1.499999999999992895 ) ;
#85 = DIRECTION ( 'NONE',  ( -3.491481338843133355E-15, 1.224646799147353207E-16, -1.000000000000000000 ) ) ;
#86 = ADVANCED_FACE ( 'NONE', ( #228, #144 ), #286, .T. ) ;
#87 = CARTESIAN_POINT ( 'NONE',  ( 0.0000000000000000000, 0.0000000000000000000, 0.0000000000000000000 ) ) ;
#88 = AXIS2_PLACEMENT_3D ( 'NONE', #26, #168, #218 ) ;
#89 = APPLICATION_PROTOCOL_DEFINITION ( 'international standard', 'config_control_design', 1994, #203 ) ;
#90 = VERTEX_POINT ( 'NONE', #65 ) ;
#91 = ORIENTED_EDGE ( 'NONE', *, *, #148, .F. ) ;
#92 = ORIENTED_EDGE ( 'NONE', *, *, #118, .T. ) ;
#93 = CIRCLE ( 'NONE', #64, 1.200000000000001510 ) ;
#94 = CC_DESIGN_APPROVAL ( #55, ( #260 ) ) ;
#95 = CARTESIAN_POINT ( 'NONE',  ( -3.762731672389300505E-31, 1.319788608742426539E-32, -1.077689183249664245E-16 ) ) ;
#96 = PERSON_AND_ORGANIZATION_ROLE ( 'design_owner' ) ;
#97 = ORIENTED_EDGE ( 'NONE', *, *, #121, .T. ) ;
#98 = CONICAL_SURFACE ( 'NONE', #154, 1.759999999999989129, 0.7853981633974500554 ) ;
#99 = CARTESIAN_POINT ( 'NONE',  ( 3.491481338843133355E-14, 1.507258581575157645E-32, 10.00000000000000000 ) ) ;
#100 = CC_DESIGN_PERSON_AND_ORGANIZATION_ASSIGNMENT ( #39, #165, ( #260 ) ) ;
#101 = FACE_OUTER_BOUND ( 'NONE', #174, .T. ) ;
#102 = DATE_AND_TIME ( #7, #74 ) ;
#103 = FACE_OUTER_BOUND ( 'NONE', #117, .T. ) ;
#104 = AXIS2_PLACEMENT_3D ( 'NONE', #263, #285, #175 ) ;
#105 = DIRECTION ( 'NONE',  ( -3.491481338843133355E-15, 1.224646799147353207E-16, -1.000000000000000000 ) ) ;
#106 = ADVANCED_FACE ( 'NONE', ( #40 ), #182, .T. ) ;
#107 = CARTESIAN_POINT ( 'NONE',  ( 2.444036937190193601E-13, -8.572527594031472993E-15, 70.00000000000000000 ) ) ;
#108 = ORIENTED_EDGE ( 'NONE', *, *, #121, .F. ) ;
#109 = VERTEX_POINT ( 'NONE', #52 ) ;
#110 = ORIENTED_EDGE ( 'NONE', *, *, #118, .F. ) ;
#111 =( NAMED_UNIT ( * ) SI_UNIT ( $, .STERADIAN. ) SOLID_ANGLE_UNIT ( ) );
#112 = ORIENTED_EDGE ( 'NONE', *, *, #18, .F. ) ;
#113 = CC_DESIGN_DATE_AND_TIME_ASSIGNMENT ( #229, #42, ( #128 ) ) ;
#114 = DIRECTION ( 'NONE',  ( -3.491481338843133355E-15, 1.224646799147353207E-16, -1.000000000000000000 ) ) ;
#115 = MANIFOLD_SOLID_BREP ( 'Corps-Déplacer/Copier1[1]', #27 ) ;
#116 = CIRCLE ( 'NONE', #178, 1.500000000000001110 ) ;
#117 = EDGE_LOOP ( 'NONE', ( #300 ) ) ;
#118 = EDGE_CURVE ( 'NONE', #109, #109, #84, .T. ) ;
#119 = DATE_TIME_ROLE ( 'creation_date' ) ;
#120 = ORIENTED_EDGE ( 'NONE', *, *, #194, .T. ) ;
#121 = EDGE_CURVE ( 'NONE', #200, #200, #289, .T. ) ;
#122 = CARTESIAN_POINT ( 'NONE',  ( 2.433562493173664138E-13, -8.535788190057053710E-15, 69.70000000000001705 ) ) ;
#123 = AXIS2_PLACEMENT_3D ( 'NONE', #20, #70, #254 ) ;
#124 = FACE_BOUND ( 'NONE', #19, .T. ) ;
#125 = COORDINATED_UNIVERSAL_TIME_OFFSET ( 1, 0, .AHEAD. ) ;
#126 = FACE_OUTER_BOUND ( 'NONE', #130, .T. ) ;
#127 = FACE_OUTER_BOUND ( 'NONE', #36, .T. ) ;
#128 = SECURITY_CLASSIFICATION ( '', '', #66 ) ;
#129 = CARTESIAN_POINT ( 'NONE',  ( 2.444036937190193601E-13, -8.572527594031472993E-15, 70.00000000000000000 ) ) ;
#130 = EDGE_LOOP ( 'NONE', ( #108 ) ) ;
#131 = CARTESIAN_POINT ( 'NONE',  ( 2.433562493173664138E-13, 1.499999999999992673, 69.70000000000001705 ) ) ;
#132 = EDGE_LOOP ( 'NONE', ( #272 ) ) ;
#133 = DIRECTION ( 'NONE',  ( 4.275831445896958607E-31, 1.000000000000000000, 1.224646799147353454E-16 ) ) ;
#134 = CONICAL_SURFACE ( 'NONE', #2, 1.200000000000001510, 0.7853981633974566057 ) ;
#135 = CALENDAR_DATE ( 2021, 2, 12 ) ;
#136 = DIRECTION ( 'NONE',  ( 0.0000000000000000000, 1.000000000000000000, 0.0000000000000000000 ) ) ;
#137 = DIRECTION ( 'NONE',  ( 3.832696406740786904E-31, 1.000000000000000000, 1.348510164782972350E-16 ) ) ;
#138 = EDGE_CURVE ( 'NONE', #158, #158, #93, .T. ) ;
#139 = CIRCLE ( 'NONE', #264, 2.009999999999990017 ) ;
#140 = DATE_AND_TIME ( #262, #216 ) ;
#141 = CARTESIAN_POINT ( 'NONE',  ( 2.444036937190193601E-13, -8.572527594031472993E-15, 70.00000000000000000 ) ) ;
#142 = APPROVAL_DATE_TIME ( #102, #270 ) ;
#143 = FACE_OUTER_BOUND ( 'NONE', #282, .T. ) ;
#144 = FACE_OUTER_BOUND ( 'NONE', #152, .T. ) ;
#145 = CARTESIAN_POINT ( 'NONE',  ( 2.433562493173664138E-13, -8.535788190057053710E-15, 69.70000000000001705 ) ) ;
#146 = FACE_OUTER_BOUND ( 'NONE', #160, .T. ) ;
#147 = DIRECTION ( 'NONE',  ( 4.275831445896958607E-31, 1.000000000000000000, 1.224646799147353207E-16 ) ) ;
#148 = EDGE_CURVE ( 'NONE', #273, #273, #169, .T. ) ;
#149 = APPROVAL_PERSON_ORGANIZATION ( #294, #198, #150 ) ;
#150 = APPROVAL_ROLE ( '' ) ;
#151 = CC_DESIGN_DATE_AND_TIME_ASSIGNMENT ( #140, #119, ( #223 ) ) ;
#152 = EDGE_LOOP ( 'NONE', ( #91 ) ) ;
#153 = FACE_OUTER_BOUND ( 'NONE', #56, .T. ) ;
#154 = AXIS2_PLACEMENT_3D ( 'NONE', #230, #205, #226 ) ;
#155 = CIRCLE ( 'NONE', #88, 1.200000000000001510 ) ;
#156 = ORIENTED_EDGE ( 'NONE', *, *, #148, .T. ) ;
#157 = APPROVAL_DATE_TIME ( #201, #198 ) ;
#158 = VERTEX_POINT ( 'NONE', #17 ) ;
#159 = ORIENTED_EDGE ( 'NONE', *, *, #194, .F. ) ;
#160 = EDGE_LOOP ( 'NONE', ( #156 ) ) ;
#161 = ORIENTED_EDGE ( 'NONE', *, *, #11, .T. ) ;
#162 = UNCERTAINTY_MEASURE_WITH_UNIT (LENGTH_MEASURE( 1.000000000000000082E-05 ), #34, 'distance_accuracy_value', 'NONE');
#163 = ADVANCED_FACE ( 'NONE', ( #101, #81 ), #192, .T. ) ;
#164 = PRODUCT_DEFINITION_SHAPE ( 'NONE', 'NONE',  #223 ) ;
#165 = PERSON_AND_ORGANIZATION_ROLE ( 'design_supplier' ) ;
#166 = ORIENTED_EDGE ( 'NONE', *, *, #18, .T. ) ;
#167 = DIRECTION ( 'NONE',  ( 3.491481338843133355E-15, -1.224646799147353207E-16, 1.000000000000000000 ) ) ;
#168 = DIRECTION ( 'NONE',  ( -3.491481338843133355E-15, 1.224646799147353207E-16, -1.000000000000000000 ) ) ;
#169 = CIRCLE ( 'NONE', #232, 2.009999999999990017 ) ;
#170 = AXIS2_PLACEMENT_3D ( 'NONE', #290, #85, #147 ) ;
#171 = APPROVAL_STATUS ( 'not_yet_approved' ) ;
#172 = CYLINDRICAL_SURFACE ( 'NONE', #195, 2.009999999999990017 ) ;
#173 = PLANE ( 'NONE',  #170 ) ;
#174 = EDGE_LOOP ( 'NONE', ( #110 ) ) ;
#175 = DIRECTION ( 'NONE',  ( 0.0000000000000000000, 1.000000000000000000, 0.0000000000000000000 ) ) ;
#176 = EDGE_LOOP ( 'NONE', ( #92 ) ) ;
#177 = DIRECTION ( 'NONE',  ( -3.491481338843133355E-15, 1.224646799147353207E-16, -1.000000000000000000 ) ) ;
#178 = AXIS2_PLACEMENT_3D ( 'NONE', #122, #208, #190 ) ;
#179 = CC_DESIGN_APPROVAL ( #270, ( #223 ) ) ;
#180 = EDGE_LOOP ( 'NONE', ( #161 ) ) ;
#181 = AXIS2_PLACEMENT_3D ( 'NONE', #145, #177, #32 ) ;
#182 = PLANE ( 'NONE',  #59 ) ;
#183 = LOCAL_TIME ( 10, 36, 19.00000000000000000, #31 ) ;
#184 = CARTESIAN_POINT ( 'NONE',  ( 0.0000000000000000000, 0.0000000000000000000, 0.0000000000000000000 ) ) ;
#185 = ORIENTED_EDGE ( 'NONE', *, *, #207, .T. ) ;
#186 = PERSON_AND_ORGANIZATION ( #259, #213 ) ;
#187 = EDGE_LOOP ( 'NONE', ( #219 ) ) ;
#188 = CIRCLE ( 'NONE', #123, 1.499999999999992895 ) ;
#189 = LOCAL_TIME ( 10, 36, 19.00000000000000000, #45 ) ;
#190 = DIRECTION ( 'NONE',  ( 0.0000000000000000000, 1.000000000000000000, 0.0000000000000000000 ) ) ;
#191 = DIRECTION ( 'NONE',  ( 4.275831445896958607E-31, 1.000000000000000000, 1.224646799147353454E-16 ) ) ;
#192 = CYLINDRICAL_SURFACE ( 'NONE', #267, 1.499999999999996891 ) ;
#193 = COORDINATED_UNIVERSAL_TIME_OFFSET ( 1, 0, .AHEAD. ) ;
#194 = EDGE_CURVE ( 'NONE', #221, #221, #13, .T. ) ;
#195 = AXIS2_PLACEMENT_3D ( 'NONE', #9, #196, #239 ) ;
#196 = DIRECTION ( 'NONE',  ( -3.491481338843133355E-15, 1.224646799147353207E-16, -1.000000000000000000 ) ) ;
#197 = AXIS2_PLACEMENT_3D ( 'NONE', #22, #231, #248 ) ;
#198 = APPROVAL ( #171, 'UNSPECIFIED' ) ;
#199 = FACE_OUTER_BOUND ( 'NONE', #297, .T. ) ;
#200 = VERTEX_POINT ( 'NONE', #61 ) ;
#201 = DATE_AND_TIME ( #16, #183 ) ;
#202 = ORIENTED_EDGE ( 'NONE', *, *, #255, .T. ) ;
#203 = APPLICATION_CONTEXT ( 'configuration controlled 3d designs of mechanical parts and assemblies' ) ;
#204 = CONICAL_SURFACE ( 'NONE', #225, 1.200000000000001510, 0.7853981633974566057 ) ;
#205 = DIRECTION ( 'NONE',  ( 3.491481338843133355E-15, -1.224646799147353207E-16, 1.000000000000000000 ) ) ;
#206 = CC_DESIGN_PERSON_AND_ORGANIZATION_ASSIGNMENT ( #256, #72, ( #260 ) ) ;
#207 = EDGE_CURVE ( 'NONE', #90, #90, #51, .T. ) ;
#208 = DIRECTION ( 'NONE',  ( -3.491481338843133355E-15, 1.224646799147353207E-16, -1.000000000000000000 ) ) ;
#209 = MANIFOLD_SOLID_BREP ( 'Corps-Déplacer/Copier1[2]', #10 ) ;
#210 = ORIENTED_EDGE ( 'NONE', *, *, #138, .F. ) ;
#211 = CARTESIAN_POINT ( 'NONE',  ( 3.491481338843133355E-14, -1.224646799147353256E-15, 10.00000000000000000 ) ) ;
#212 = DIRECTION ( 'NONE',  ( 0.0000000000000000000, 1.000000000000000000, 0.0000000000000000000 ) ) ;
#213 = ORGANIZATION ( 'UNSPECIFIED', 'UNSPECIFIED', '' ) ;
#214 = DIRECTION ( 'NONE',  ( -3.491481338843133355E-15, 1.224646799147353207E-16, -1.000000000000000000 ) ) ;
#215 = AXIS2_PLACEMENT_3D ( 'NONE', #266, #105, #23 ) ;
#216 = LOCAL_TIME ( 10, 36, 19.00000000000000000, #193 ) ;
#217 = EDGE_LOOP ( 'NONE', ( #281 ) ) ;
#218 = DIRECTION ( 'NONE',  ( 0.0000000000000000000, 1.000000000000000000, 0.0000000000000000000 ) ) ;
#219 = ORIENTED_EDGE ( 'NONE', *, *, #48, .T. ) ;
#220 = ADVANCED_FACE ( 'NONE', ( #127, #234 ), #204, .T. ) ;
#221 = VERTEX_POINT ( 'NONE', #271 ) ;
#222 = CARTESIAN_POINT ( 'NONE',  ( 8.728703347107825500E-16, -3.061616997868380553E-17, 0.2499999999999997780 ) ) ;
#223 = PRODUCT_DEFINITION ( 'UNKNOWN', '', #260, #50 ) ;
#224 = MECHANICAL_CONTEXT ( 'NONE', #203, 'mechanical' ) ;
#225 = AXIS2_PLACEMENT_3D ( 'NONE', #107, #214, #53 ) ;
#226 = DIRECTION ( 'NONE',  ( -4.275831445896958607E-31, -1.000000000000000000, -1.224646799147353207E-16 ) ) ;
#227 = APPROVAL_PERSON_ORGANIZATION ( #249, #270, #4 ) ;
#228 = FACE_BOUND ( 'NONE', #176, .T. ) ;
#229 = DATE_AND_TIME ( #135, #189 ) ;
#230 = CARTESIAN_POINT ( 'NONE',  ( -7.525463344778601010E-31, 2.639577217484853078E-32, -2.155378366499328490E-16 ) ) ;
#231 = DIRECTION ( 'NONE',  ( -3.491481338843133355E-15, 1.224646799147353207E-16, -1.000000000000000000 ) ) ;
#232 = AXIS2_PLACEMENT_3D ( 'NONE', #211, #283, #212 ) ;
#233 = FACE_OUTER_BOUND ( 'NONE', #187, .T. ) ;
#234 = FACE_BOUND ( 'NONE', #217, .T. ) ;
#235 = VERTEX_POINT ( 'NONE', #12 ) ;
#236 = AXIS2_PLACEMENT_3D ( 'NONE', #99, #167, #75 ) ;
#237 = CC_DESIGN_APPROVAL ( #198, ( #128 ) ) ;
#238 = PRODUCT_RELATED_PRODUCT_CATEGORY ( 'detail', '', ( #68 ) ) ;
#239 = DIRECTION ( 'NONE',  ( 4.275831445896958607E-31, 1.000000000000000000, 1.224646799147353207E-16 ) ) ;
#240 = CC_DESIGN_SECURITY_CLASSIFICATION ( #128, ( #260 ) ) ;
#241 = ADVANCED_FACE ( 'NONE', ( #146, #126 ), #172, .T. ) ;
#242 = DIRECTION ( 'NONE',  ( -3.491481338843133355E-15, 1.224646799147353207E-16, -1.000000000000000000 ) ) ;
#243 = EDGE_LOOP ( 'NONE', ( #185 ) ) ;
#244 = AXIS2_PLACEMENT_3D ( 'NONE', #38, #278, #136 ) ;
#245 = CALENDAR_DATE ( 2021, 2, 12 ) ;
#246 = ORIENTED_EDGE ( 'NONE', *, *, #48, .F. ) ;
#247 = CARTESIAN_POINT ( 'NONE',  ( 2.444036937190193601E-13, 1.199999999999992628, 70.00000000000000000 ) ) ;
#248 = DIRECTION ( 'NONE',  ( 0.0000000000000000000, 1.000000000000000000, 0.0000000000000000000 ) ) ;
#249 = PERSON_AND_ORGANIZATION ( #259, #213 ) ;
#250 = DIRECTION ( 'NONE',  ( -3.491481338843133355E-15, 1.224646799147353207E-16, -1.000000000000000000 ) ) ;
#251 = ADVANCED_FACE ( 'NONE', ( #153 ), #25, .F. ) ;
#252 = LOCAL_TIME ( 10, 36, 19.00000000000000000, #298 ) ;
#253 = APPROVAL_STATUS ( 'not_yet_approved' ) ;
#254 = DIRECTION ( 'NONE',  ( 0.0000000000000000000, 1.000000000000000000, 0.0000000000000000000 ) ) ;
#255 = EDGE_CURVE ( 'NONE', #292, #292, #155, .T. ) ;
#256 = PERSON_AND_ORGANIZATION ( #259, #213 ) ;
#257 = EDGE_LOOP ( 'NONE', ( #303 ) ) ;
#258 = VERTEX_POINT ( 'NONE', #58 ) ;
#259 = PERSON ( 'UNSPECIFIED', 'UNSPECIFIED', 'UNSPECIFIED', ('UNSPECIFIED'), ('UNSPECIFIED'), ('UNSPECIFIED') ) ;
#260 = PRODUCT_DEFINITION_FORMATION_WITH_SPECIFIED_SOURCE ( 'ANY', '', #68, .NOT_KNOWN. ) ;
#261 = CARTESIAN_POINT ( 'NONE',  ( 0.0000000000000000000, 0.0000000000000000000, 0.0000000000000000000 ) ) ;
#262 = CALENDAR_DATE ( 2021, 2, 12 ) ;
#263 = CARTESIAN_POINT ( 'NONE',  ( 3.491481338843133355E-14, -1.224646799147353256E-15, 10.00000000000000000 ) ) ;
#264 = AXIS2_PLACEMENT_3D ( 'NONE', #46, #280, #73 ) ;
#265 = ADVANCED_FACE ( 'NONE', ( #14, #199 ), #35, .T. ) ;
#266 = CARTESIAN_POINT ( 'NONE',  ( -7.525463344778601010E-31, 2.639577217484853078E-32, -2.155378366499328490E-16 ) ) ;
#267 = AXIS2_PLACEMENT_3D ( 'NONE', #87, #242, #191 ) ;
#268 = DIRECTION ( 'NONE',  ( -3.491481338843133355E-15, 1.224646799147353207E-16, -1.000000000000000000 ) ) ;
#269 = AXIS2_PLACEMENT_3D ( 'NONE', #184, #277, #69 ) ;
#270 = APPROVAL ( #82, 'UNSPECIFIED' ) ;
#271 = CARTESIAN_POINT ( 'NONE',  ( 2.433562493173664138E-13, 1.499999999999992673, 69.70000000000001705 ) ) ;
#272 = ORIENTED_EDGE ( 'NONE', *, *, #207, .F. ) ;
#273 = VERTEX_POINT ( 'NONE', #33 ) ;
#274 = ADVANCED_BREP_SHAPE_REPRESENTATION ( '321628', ( #115, #209, #269 ), #60 ) ;
#275 = APPROVAL_DATE_TIME ( #302, #55 ) ;
#276 = DIRECTION ( 'NONE',  ( -3.491481338843133355E-15, 1.224646799147353207E-16, -1.000000000000000000 ) ) ;
#277 = DIRECTION ( 'NONE',  ( 0.0000000000000000000, 0.0000000000000000000, 1.000000000000000000 ) ) ;
#278 = DIRECTION ( 'NONE',  ( -3.491481338843133355E-15, 1.224646799147353207E-16, -1.000000000000000000 ) ) ;
#279 = ADVANCED_FACE ( 'NONE', ( #103, #233 ), #8, .T. ) ;
#280 = DIRECTION ( 'NONE',  ( -3.491481338843133355E-15, 1.224646799147353207E-16, -1.000000000000000000 ) ) ;
#281 = ORIENTED_EDGE ( 'NONE', *, *, #138, .T. ) ;
#282 = EDGE_LOOP ( 'NONE', ( #97 ) ) ;
#283 = DIRECTION ( 'NONE',  ( -3.491481338843133355E-15, 1.224646799147353207E-16, -1.000000000000000000 ) ) ;
#284 = CC_DESIGN_PERSON_AND_ORGANIZATION_ASSIGNMENT ( #63, #96, ( #68 ) ) ;
#285 = DIRECTION ( 'NONE',  ( -3.491481338843133355E-15, 1.224646799147353207E-16, -1.000000000000000000 ) ) ;
#286 = CONICAL_SURFACE ( 'NONE', #197, 2.009999999999990017, 0.5235987755983005920 ) ;
#287 = CARTESIAN_POINT ( 'NONE',  ( 2.444036937190193601E-13, 8.998558695971026591E-33, 70.00000000000000000 ) ) ;
#288 = AXIS2_PLACEMENT_3D ( 'NONE', #222, #114, #137 ) ;
#289 = CIRCLE ( 'NONE', #288, 2.009999999999990017 ) ;
#290 = CARTESIAN_POINT ( 'NONE',  ( 2.444036937190193601E-13, -8.572527594031472993E-15, 70.00000000000000000 ) ) ;
#291 = DIRECTION ( 'NONE',  ( 4.275831445896958607E-31, 1.000000000000000000, 1.224646799147353207E-16 ) ) ;
#292 = VERTEX_POINT ( 'NONE', #247 ) ;
#293 = SHAPE_DEFINITION_REPRESENTATION ( #164, #274 ) ;
#294 = PERSON_AND_ORGANIZATION ( #259, #213 ) ;
#295 = ADVANCED_FACE ( 'NONE', ( #83 ), #173, .F. ) ;
#296 = CC_DESIGN_PERSON_AND_ORGANIZATION_ASSIGNMENT ( #37, #1, ( #128 ) ) ;
#297 = EDGE_LOOP ( 'NONE', ( #112 ) ) ;
#298 = COORDINATED_UNIVERSAL_TIME_OFFSET ( 1, 0, .AHEAD. ) ;
#299 = AXIS2_PLACEMENT_3D ( 'NONE', #287, #77, #291 ) ;
#300 = ORIENTED_EDGE ( 'NONE', *, *, #11, .F. ) ;
#301 =( NAMED_UNIT ( * ) PLANE_ANGLE_UNIT ( ) SI_UNIT ( $, .RADIAN. ) );
#302 = DATE_AND_TIME ( #245, #252 ) ;
#303 = ORIENTED_EDGE ( 'NONE', *, *, #255, .F. ) ;
ENDSEC;
END-ISO-10303-21;
