ISO-10303-21;
HEADER;
FILE_DESCRIPTION (( 'STEP AP203' ),
    '1' );
FILE_NAME ('321627.step',
    '2021-12-02T09:36:18',
    ( '' ),
    ( '' ),
    'SwSTEP 2.0',
    'SolidWorks 2019',
    '' );
FILE_SCHEMA (( 'CONFIG_CONTROL_DESIGN' ));
ENDSEC;

DATA;
#1 = DIRECTION ( 'NONE',  ( -3.491481338843133355E-15, 1.224646799147353207E-16, -1.000000000000000000 ) ) ;
#2 = DIRECTION ( 'NONE',  ( 0.0000000000000000000, 1.000000000000000000, 0.0000000000000000000 ) ) ;
#3 = ADVANCED_FACE ( 'NONE', ( #134, #277 ), #193, .T. ) ;
#4 = DIRECTION ( 'NONE',  ( -3.491481338843133355E-15, 1.224646799147353207E-16, -1.000000000000000000 ) ) ;
#5 = LOCAL_TIME ( 10, 36, 18.00000000000000000, #33 ) ;
#6 = EDGE_CURVE ( 'NONE', #101, #101, #94, .T. ) ;
#7 = DATE_AND_TIME ( #120, #5 ) ;
#8 = DIRECTION ( 'NONE',  ( 0.0000000000000000000, 1.000000000000000000, 0.0000000000000000000 ) ) ;
#9 = APPLICATION_PROTOCOL_DEFINITION ( 'international standard', 'config_control_design', 1994, #227 ) ;
#10 = DATE_AND_TIME ( #260, #172 ) ;
#11 = ORIENTED_EDGE ( 'NONE', *, *, #6, .F. ) ;
#12 = DATE_AND_TIME ( #268, #157 ) ;
#13 = ORIENTED_EDGE ( 'NONE', *, *, #48, .T. ) ;
#14 = SECURITY_CLASSIFICATION ( '', '', #128 ) ;
#15 = ADVANCED_FACE ( 'NONE', ( #156, #178 ), #18, .T. ) ;
#16 = PERSON_AND_ORGANIZATION ( #145, #251 ) ;
#17 = ORIENTED_EDGE ( 'NONE', *, *, #48, .F. ) ;
#18 = CONICAL_SURFACE ( 'NONE', #24, 1.200000000000001510, 0.7853981633974566057 ) ;
#19 = CIRCLE ( 'NONE', #267, 1.200000000000001510 ) ;
#20 = CARTESIAN_POINT ( 'NONE',  ( 2.433562493173664138E-13, -8.535788190057053710E-15, 69.70000000000001705 ) ) ;
#21 = DIRECTION ( 'NONE',  ( -3.491481338843133355E-15, 1.224646799147353207E-16, -1.000000000000000000 ) ) ;
#22 = FACE_OUTER_BOUND ( 'NONE', #303, .T. ) ;
#23 = DIRECTION ( 'NONE',  ( -3.491481338843133355E-15, 1.224646799147353207E-16, -1.000000000000000000 ) ) ;
#24 = AXIS2_PLACEMENT_3D ( 'NONE', #105, #137, #280 ) ;
#25 = APPROVAL_STATUS ( 'not_yet_approved' ) ;
#26 = CC_DESIGN_PERSON_AND_ORGANIZATION_ASSIGNMENT ( #54, #72, ( #297 ) ) ;
#27 = VERTEX_POINT ( 'NONE', #161 ) ;
#28 = DIRECTION ( 'NONE',  ( 4.275831445896958607E-31, 1.000000000000000000, 1.224646799147353454E-16 ) ) ;
#29 = CARTESIAN_POINT ( 'NONE',  ( 0.0000000000000000000, 0.0000000000000000000, 0.0000000000000000000 ) ) ;
#30 = AXIS2_PLACEMENT_3D ( 'NONE', #284, #170, #230 ) ;
#31 = EDGE_LOOP ( 'NONE', ( #215 ) ) ;
#32 = LOCAL_TIME ( 10, 36, 18.00000000000000000, #220 ) ;
#33 = COORDINATED_UNIVERSAL_TIME_OFFSET ( 1, 0, .AHEAD. ) ;
#34 = ORIENTED_EDGE ( 'NONE', *, *, #79, .F. ) ;
#35 = APPROVAL_STATUS ( 'not_yet_approved' ) ;
#36 = EDGE_LOOP ( 'NONE', ( #192 ) ) ;
#37 = DIRECTION ( 'NONE',  ( -3.491481338843133355E-15, 1.224646799147353207E-16, -1.000000000000000000 ) ) ;
#38 = DIRECTION ( 'NONE',  ( -3.491481338843133355E-15, 1.224646799147353207E-16, -1.000000000000000000 ) ) ;
#39 = PERSON_AND_ORGANIZATION_ROLE ( 'design_supplier' ) ;
#40 = CARTESIAN_POINT ( 'NONE',  ( 3.796876204007154350E-14, -1.331764898258567932E-15, 10.87468565782227614 ) ) ;
#41 = APPROVAL ( #285, 'UNSPECIFIED' ) ;
#42 = AXIS2_PLACEMENT_3D ( 'NONE', #126, #248, #133 ) ;
#43 = DIRECTION ( 'NONE',  ( -3.491481338843133355E-15, 1.224646799147353207E-16, -1.000000000000000000 ) ) ;
#44 = EDGE_LOOP ( 'NONE', ( #217 ) ) ;
#45 = FACE_OUTER_BOUND ( 'NONE', #44, .T. ) ;
#46 = ORIENTED_EDGE ( 'NONE', *, *, #70, .T. ) ;
#47 = FACE_OUTER_BOUND ( 'NONE', #240, .T. ) ;
#48 = EDGE_CURVE ( 'NONE', #242, #242, #147, .T. ) ;
#49 = FACE_OUTER_BOUND ( 'NONE', #190, .T. ) ;
#50 = FACE_OUTER_BOUND ( 'NONE', #197, .T. ) ;
#51 = FACE_BOUND ( 'NONE', #82, .T. ) ;
#52 = APPROVAL_ROLE ( '' ) ;
#53 = AXIS2_PLACEMENT_3D ( 'NONE', #275, #65, #202 ) ;
#54 = PERSON_AND_ORGANIZATION ( #145, #251 ) ;
#55 = AXIS2_PLACEMENT_3D ( 'NONE', #254, #273, #247 ) ;
#56 =( NAMED_UNIT ( * ) PLANE_ANGLE_UNIT ( ) SI_UNIT ( $, .RADIAN. ) );
#57 = DIRECTION ( 'NONE',  ( -3.491481338843133355E-15, 1.224646799147353207E-16, -1.000000000000000000 ) ) ;
#58 = CARTESIAN_POINT ( 'NONE',  ( -3.752042093774558586E-31, 1.316039209285772141E-32, -1.074627566251795931E-16 ) ) ;
#59 = APPLICATION_PROTOCOL_DEFINITION ( 'international standard', 'config_control_design', 1994, #191 ) ;
#60 = EDGE_LOOP ( 'NONE', ( #177 ) ) ;
#61 = CALENDAR_DATE ( 2021, 2, 12 ) ;
#62 = DIRECTION ( 'NONE',  ( 4.275831445896958607E-31, 1.000000000000000000, 1.224646799147353454E-16 ) ) ;
#63 = DIRECTION ( 'NONE',  ( 0.0000000000000000000, 1.000000000000000000, 0.0000000000000000000 ) ) ;
#64 = PLANE ( 'NONE',  #109 ) ;
#65 = DIRECTION ( 'NONE',  ( -3.491481338843133355E-15, 1.224646799147353207E-16, -1.000000000000000000 ) ) ;
#66 = LOCAL_TIME ( 10, 36, 18.00000000000000000, #183 ) ;
#67 = CARTESIAN_POINT ( 'NONE',  ( 8.728703347107825500E-16, -3.061616997868380553E-17, 0.2499999999999997780 ) ) ;
#68 = EDGE_LOOP ( 'NONE', ( #34 ) ) ;
#69 = PRODUCT ( '321627', '321627', '', ( #149 ) ) ;
#70 = EDGE_CURVE ( 'NONE', #135, #135, #152, .T. ) ;
#71 = CC_DESIGN_PERSON_AND_ORGANIZATION_ASSIGNMENT ( #249, #196, ( #14 ) ) ;
#72 = PERSON_AND_ORGANIZATION_ROLE ( 'creator' ) ;
#73 = AXIS2_PLACEMENT_3D ( 'NONE', #187, #228, #119 ) ;
#74 = CIRCLE ( 'NONE', #298, 1.500000000000001110 ) ;
#75 = VERTEX_POINT ( 'NONE', #231 ) ;
#76 = AXIS2_PLACEMENT_3D ( 'NONE', #142, #37, #122 ) ;
#77 = CC_DESIGN_DATE_AND_TIME_ASSIGNMENT ( #10, #182, ( #297 ) ) ;
#78 = EDGE_LOOP ( 'NONE', ( #151 ) ) ;
#79 = EDGE_CURVE ( 'NONE', #281, #281, #115, .T. ) ;
#80 = PERSON_AND_ORGANIZATION ( #145, #251 ) ;
#81 = AXIS2_PLACEMENT_3D ( 'NONE', #271, #198, #173 ) ;
#82 = EDGE_LOOP ( 'NONE', ( #250 ) ) ;
#83 = CARTESIAN_POINT ( 'NONE',  ( 0.0000000000000000000, 0.0000000000000000000, 0.0000000000000000000 ) ) ;
#84 = AXIS2_PLACEMENT_3D ( 'NONE', #67, #158, #253 ) ;
#85 = APPROVAL_PERSON_ORGANIZATION ( #259, #41, #52 ) ;
#86 = FACE_BOUND ( 'NONE', #224, .T. ) ;
#87 = DIRECTION ( 'NONE',  ( 0.0000000000000000000, 1.000000000000000000, 0.0000000000000000000 ) ) ;
#88 = CARTESIAN_POINT ( 'NONE',  ( 8.728703347107833388E-16, 2.004999999999990123, 0.2500000000000000555 ) ) ;
#89 = ADVANCED_FACE ( 'NONE', ( #255, #49 ), #225, .T. ) ;
#90 = APPROVAL ( #35, 'UNSPECIFIED' ) ;
#91 = AXIS2_PLACEMENT_3D ( 'NONE', #208, #57, #28 ) ;
#92 = DIRECTION ( 'NONE',  ( 0.0000000000000000000, 1.000000000000000000, 0.0000000000000000000 ) ) ;
#93 = EDGE_CURVE ( 'NONE', #75, #75, #74, .T. ) ;
#94 = CIRCLE ( 'NONE', #53, 2.004999999999990123 ) ;
#95 =( GEOMETRIC_REPRESENTATION_CONTEXT ( 3 ) GLOBAL_UNCERTAINTY_ASSIGNED_CONTEXT ( ( #276 ) ) GLOBAL_UNIT_ASSIGNED_CONTEXT ( ( #114, #56, #186 ) ) REPRESENTATION_CONTEXT ( 'NONE', 'WORKASPACE' ) );
#96 = FACE_OUTER_BOUND ( 'NONE', #238, .T. ) ;
#97 = PERSON_AND_ORGANIZATION_ROLE ( 'design_owner' ) ;
#98 = ORIENTED_EDGE ( 'NONE', *, *, #264, .F. ) ;
#99 = PLANE ( 'NONE',  #243 ) ;
#100 = EDGE_LOOP ( 'NONE', ( #46 ) ) ;
#101 = VERTEX_POINT ( 'NONE', #293 ) ;
#102 = CARTESIAN_POINT ( 'NONE',  ( 2.444036937190193601E-13, -8.572527594031472993E-15, 70.00000000000000000 ) ) ;
#103 = COORDINATED_UNIVERSAL_TIME_OFFSET ( 1, 0, .AHEAD. ) ;
#104 = APPROVAL ( #25, 'UNSPECIFIED' ) ;
#105 = CARTESIAN_POINT ( 'NONE',  ( 2.444036937190193601E-13, -8.572527594031472993E-15, 70.00000000000000000 ) ) ;
#106 = ADVANCED_FACE ( 'NONE', ( #130 ), #301, .F. ) ;
#107 = ORIENTED_EDGE ( 'NONE', *, *, #167, .T. ) ;
#108 = CC_DESIGN_DATE_AND_TIME_ASSIGNMENT ( #12, #274, ( #14 ) ) ;
#109 = AXIS2_PLACEMENT_3D ( 'NONE', #155, #43, #294 ) ;
#110 = DIRECTION ( 'NONE',  ( 4.275831445896958607E-31, 1.000000000000000000, 1.224646799147353454E-16 ) ) ;
#111 = MANIFOLD_SOLID_BREP ( 'Corps-Déplacer/Copier1[2]', #209 ) ;
#112 = COORDINATED_UNIVERSAL_TIME_OFFSET ( 1, 0, .AHEAD. ) ;
#113 = CARTESIAN_POINT ( 'NONE',  ( 3.796876204007154350E-14, 1.499999999999991562, 10.87468565782227614 ) ) ;
#114 =( LENGTH_UNIT ( ) NAMED_UNIT ( * ) SI_UNIT ( .MILLI., .METRE. ) );
#115 = CIRCLE ( 'NONE', #266, 1.500000000000001110 ) ;
#116 = CIRCLE ( 'NONE', #55, 1.499999999999992895 ) ;
#117 = CARTESIAN_POINT ( 'NONE',  ( 2.444036937190193601E-13, -8.572527594031472993E-15, 70.00000000000000000 ) ) ;
#118 = EDGE_LOOP ( 'NONE', ( #221 ) ) ;
#119 = DIRECTION ( 'NONE',  ( -4.275831445896958607E-31, -1.000000000000000000, -1.224646799147353207E-16 ) ) ;
#120 = CALENDAR_DATE ( 2021, 2, 12 ) ;
#121 = EDGE_LOOP ( 'NONE', ( #11 ) ) ;
#122 = DIRECTION ( 'NONE',  ( 0.0000000000000000000, 1.000000000000000000, 0.0000000000000000000 ) ) ;
#123 = DESIGN_CONTEXT ( 'detailed design', #227, 'design' ) ;
#124 = APPROVAL_ROLE ( '' ) ;
#125 = ORIENTED_EDGE ( 'NONE', *, *, #93, .T. ) ;
#126 = CARTESIAN_POINT ( 'NONE',  ( -7.504084187549117171E-31, 2.632078418571544282E-32, -2.149255132503591861E-16 ) ) ;
#127 = DIRECTION ( 'NONE',  ( 0.0000000000000000000, 1.000000000000000000, 0.0000000000000000000 ) ) ;
#128 = SECURITY_CLASSIFICATION_LEVEL ( 'unclassified' ) ;
#129 = ADVANCED_BREP_SHAPE_REPRESENTATION ( '321627', ( #211, #111, #205 ), #95 ) ;
#130 = FACE_OUTER_BOUND ( 'NONE', #31, .T. ) ;
#131 = ADVANCED_FACE ( 'NONE', ( #50, #51 ), #287, .T. ) ;
#132 = CIRCLE ( 'NONE', #185, 1.499999999999992895 ) ;
#133 = DIRECTION ( 'NONE',  ( -4.275831445896958607E-31, -1.000000000000000000, -1.224646799147353207E-16 ) ) ;
#134 = FACE_BOUND ( 'NONE', #36, .T. ) ;
#135 = VERTEX_POINT ( 'NONE', #88 ) ;
#136 = DIRECTION ( 'NONE',  ( 4.275831445896958607E-31, 1.000000000000000000, 1.224646799147353207E-16 ) ) ;
#137 = DIRECTION ( 'NONE',  ( -3.491481338843133355E-15, 1.224646799147353207E-16, -1.000000000000000000 ) ) ;
#138 = CC_DESIGN_PERSON_AND_ORGANIZATION_ASSIGNMENT ( #80, #39, ( #148 ) ) ;
#139 = APPROVAL_ROLE ( '' ) ;
#140 = ADVANCED_FACE ( 'NONE', ( #22 ), #99, .T. ) ;
#141 = CALENDAR_DATE ( 2021, 2, 12 ) ;
#142 = CARTESIAN_POINT ( 'NONE',  ( 3.491481338843133355E-14, -1.224646799147353256E-15, 10.00000000000000000 ) ) ;
#143 = FACE_BOUND ( 'NONE', #241, .T. ) ;
#144 = EDGE_CURVE ( 'NONE', #168, #168, #200, .T. ) ;
#145 = PERSON ( 'UNSPECIFIED', 'UNSPECIFIED', 'UNSPECIFIED', ('UNSPECIFIED'), ('UNSPECIFIED'), ('UNSPECIFIED') ) ;
#146 = CARTESIAN_POINT ( 'NONE',  ( 2.433562493173664138E-13, 1.499999999999992673, 69.70000000000001705 ) ) ;
#147 = CIRCLE ( 'NONE', #171, 1.754999999999989457 ) ;
#148 = PRODUCT_DEFINITION_FORMATION_WITH_SPECIFIED_SOURCE ( 'ANY', '', #69, .NOT_KNOWN. ) ;
#149 = MECHANICAL_CONTEXT ( 'NONE', #191, 'mechanical' ) ;
#150 = ADVANCED_FACE ( 'NONE', ( #47, #45 ), #302, .T. ) ;
#151 = ORIENTED_EDGE ( 'NONE', *, *, #70, .F. ) ;
#152 = CIRCLE ( 'NONE', #84, 2.004999999999990123 ) ;
#153 = DIRECTION ( 'NONE',  ( -3.491481338843133355E-15, 1.224646799147353207E-16, -1.000000000000000000 ) ) ;
#154 = EDGE_CURVE ( 'NONE', #236, #236, #116, .T. ) ;
#155 = CARTESIAN_POINT ( 'NONE',  ( 2.444036937190193601E-13, 8.998558695971026591E-33, 70.00000000000000000 ) ) ;
#156 = FACE_OUTER_BOUND ( 'NONE', #68, .T. ) ;
#157 = LOCAL_TIME ( 10, 36, 18.00000000000000000, #103 ) ;
#158 = DIRECTION ( 'NONE',  ( -3.491481338843133355E-15, 1.224646799147353207E-16, -1.000000000000000000 ) ) ;
#159 = CLOSED_SHELL ( 'NONE', ( #106, #3, #89, #131, #181 ) ) ;
#160 = FACE_OUTER_BOUND ( 'NONE', #100, .T. ) ;
#161 = CARTESIAN_POINT ( 'NONE',  ( 2.444036937190193601E-13, 1.199999999999992628, 70.00000000000000000 ) ) ;
#162 = PRODUCT_DEFINITION_SHAPE ( 'NONE', 'NONE',  #297 ) ;
#163 = CARTESIAN_POINT ( 'NONE',  ( 3.796876204007154350E-14, 1.499999999999991562, 10.87468565782227614 ) ) ;
#164 = APPROVAL_PERSON_ORGANIZATION ( #270, #90, #124 ) ;
#165 = VERTEX_POINT ( 'NONE', #163 ) ;
#166 = CARTESIAN_POINT ( 'NONE',  ( 2.444036937190193601E-13, 1.199999999999992628, 70.00000000000000000 ) ) ;
#167 = EDGE_CURVE ( 'NONE', #165, #165, #132, .T. ) ;
#168 = VERTEX_POINT ( 'NONE', #233 ) ;
#169 = EDGE_LOOP ( 'NONE', ( #269 ) ) ;
#170 = DIRECTION ( 'NONE',  ( -3.491481338843133355E-15, 1.224646799147353207E-16, -1.000000000000000000 ) ) ;
#171 = AXIS2_PLACEMENT_3D ( 'NONE', #282, #206, #136 ) ;
#172 = LOCAL_TIME ( 10, 36, 18.00000000000000000, #112 ) ;
#173 = DIRECTION ( 'NONE',  ( 4.275831445896958607E-31, 1.000000000000000000, 1.224646799147353207E-16 ) ) ;
#174 = CARTESIAN_POINT ( 'NONE',  ( 0.0000000000000000000, 1.754999999999989457, 0.0000000000000000000 ) ) ;
#175 = DIRECTION ( 'NONE',  ( -3.491481338843133355E-15, 1.224646799147353207E-16, -1.000000000000000000 ) ) ;
#176 = SHAPE_DEFINITION_REPRESENTATION ( #162, #129 ) ;
#177 = ORIENTED_EDGE ( 'NONE', *, *, #264, .T. ) ;
#178 = FACE_BOUND ( 'NONE', #60, .T. ) ;
#179 = CC_DESIGN_PERSON_AND_ORGANIZATION_ASSIGNMENT ( #16, #290, ( #148 ) ) ;
#180 = CC_DESIGN_SECURITY_CLASSIFICATION ( #14, ( #148 ) ) ;
#181 = ADVANCED_FACE ( 'NONE', ( #300 ), #64, .F. ) ;
#182 = DATE_TIME_ROLE ( 'creation_date' ) ;
#183 = COORDINATED_UNIVERSAL_TIME_OFFSET ( 1, 0, .AHEAD. ) ;
#184 = DIRECTION ( 'NONE',  ( 0.0000000000000000000, 0.0000000000000000000, 1.000000000000000000 ) ) ;
#185 = AXIS2_PLACEMENT_3D ( 'NONE', #40, #38, #127 ) ;
#186 =( NAMED_UNIT ( * ) SI_UNIT ( $, .STERADIAN. ) SOLID_ANGLE_UNIT ( ) );
#187 = CARTESIAN_POINT ( 'NONE',  ( 3.491481338843133355E-14, 1.503509182118503247E-32, 10.00000000000000000 ) ) ;
#188 = PLANE ( 'NONE',  #81 ) ;
#189 = PERSON_AND_ORGANIZATION ( #145, #251 ) ;
#190 = EDGE_LOOP ( 'NONE', ( #125 ) ) ;
#191 = APPLICATION_CONTEXT ( 'configuration controlled 3d designs of mechanical parts and assemblies' ) ;
#192 = ORIENTED_EDGE ( 'NONE', *, *, #154, .T. ) ;
#193 = CONICAL_SURFACE ( 'NONE', #204, 2.004999999999990123, 0.5235987755983002589 ) ;
#194 = APPROVAL_PERSON_ORGANIZATION ( #189, #104, #139 ) ;
#195 = DATE_AND_TIME ( #141, #66 ) ;
#196 = PERSON_AND_ORGANIZATION_ROLE ( 'classification_officer' ) ;
#197 = EDGE_LOOP ( 'NONE', ( #292 ) ) ;
#198 = DIRECTION ( 'NONE',  ( -3.491481338843133355E-15, 1.224646799147353207E-16, -1.000000000000000000 ) ) ;
#199 = DATE_AND_TIME ( #61, #32 ) ;
#200 = CIRCLE ( 'NONE', #256, 2.004999999999990123 ) ;
#201 = CARTESIAN_POINT ( 'NONE',  ( 2.433562493173664138E-13, -8.535788190057053710E-15, 69.70000000000001705 ) ) ;
#202 = DIRECTION ( 'NONE',  ( 0.0000000000000000000, 1.000000000000000000, 0.0000000000000000000 ) ) ;
#203 = DIRECTION ( 'NONE',  ( -3.491481338843133355E-15, 1.224646799147353207E-16, -1.000000000000000000 ) ) ;
#204 = AXIS2_PLACEMENT_3D ( 'NONE', #279, #153, #87 ) ;
#205 = AXIS2_PLACEMENT_3D ( 'NONE', #29, #184, #263 ) ;
#206 = DIRECTION ( 'NONE',  ( -3.491481338843133355E-15, 1.224646799147353207E-16, -1.000000000000000000 ) ) ;
#207 = AXIS2_PLACEMENT_3D ( 'NONE', #117, #210, #8 ) ;
#208 = CARTESIAN_POINT ( 'NONE',  ( 0.0000000000000000000, 0.0000000000000000000, 0.0000000000000000000 ) ) ;
#209 = CLOSED_SHELL ( 'NONE', ( #295, #252, #216, #140, #278, #15, #150 ) ) ;
#210 = DIRECTION ( 'NONE',  ( -3.491481338843133355E-15, 1.224646799147353207E-16, -1.000000000000000000 ) ) ;
#211 = MANIFOLD_SOLID_BREP ( 'Corps-Déplacer/Copier1[1]', #159 ) ;
#212 = ORIENTED_EDGE ( 'NONE', *, *, #144, .F. ) ;
#213 = DIRECTION ( 'NONE',  ( 0.0000000000000000000, 1.000000000000000000, 0.0000000000000000000 ) ) ;
#214 = APPROVAL_DATE_TIME ( #7, #104 ) ;
#215 = ORIENTED_EDGE ( 'NONE', *, *, #144, .T. ) ;
#216 = ADVANCED_FACE ( 'NONE', ( #160, #143 ), #272, .T. ) ;
#217 = ORIENTED_EDGE ( 'NONE', *, *, #79, .T. ) ;
#218 = AXIS2_PLACEMENT_3D ( 'NONE', #223, #1, #62 ) ;
#219 = APPROVAL_DATE_TIME ( #199, #90 ) ;
#220 = COORDINATED_UNIVERSAL_TIME_OFFSET ( 1, 0, .AHEAD. ) ;
#221 = ORIENTED_EDGE ( 'NONE', *, *, #239, .F. ) ;
#222 = PRODUCT_RELATED_PRODUCT_CATEGORY ( 'detail', '', ( #69 ) ) ;
#223 = CARTESIAN_POINT ( 'NONE',  ( 0.0000000000000000000, 0.0000000000000000000, 0.0000000000000000000 ) ) ;
#224 = EDGE_LOOP ( 'NONE', ( #107 ) ) ;
#225 = CYLINDRICAL_SURFACE ( 'NONE', #283, 1.499999999999996891 ) ;
#226 = CC_DESIGN_APPROVAL ( #41, ( #148 ) ) ;
#227 = APPLICATION_CONTEXT ( 'configuration controlled 3d designs of mechanical parts and assemblies' ) ;
#228 = DIRECTION ( 'NONE',  ( 3.491481338843133355E-15, -1.224646799147353207E-16, 1.000000000000000000 ) ) ;
#229 = CARTESIAN_POINT ( 'NONE',  ( 3.491481338843133355E-14, -1.224646799147353256E-15, 10.00000000000000000 ) ) ;
#230 = DIRECTION ( 'NONE',  ( 0.0000000000000000000, 1.000000000000000000, 0.0000000000000000000 ) ) ;
#231 = CARTESIAN_POINT ( 'NONE',  ( 2.433562493173664138E-13, 1.499999999999992673, 69.70000000000001705 ) ) ;
#232 = FACE_OUTER_BOUND ( 'NONE', #121, .T. ) ;
#233 = CARTESIAN_POINT ( 'NONE',  ( 3.491481338843133355E-14, 2.004999999999988791, 10.00000000000000000 ) ) ;
#234 = CC_DESIGN_PERSON_AND_ORGANIZATION_ASSIGNMENT ( #237, #97, ( #69 ) ) ;
#235 = FACE_OUTER_BOUND ( 'NONE', #246, .T. ) ;
#236 = VERTEX_POINT ( 'NONE', #113 ) ;
#237 = PERSON_AND_ORGANIZATION ( #145, #251 ) ;
#238 = EDGE_LOOP ( 'NONE', ( #98 ) ) ;
#239 = EDGE_CURVE ( 'NONE', #286, #286, #19, .T. ) ;
#240 = EDGE_LOOP ( 'NONE', ( #265 ) ) ;
#241 = EDGE_LOOP ( 'NONE', ( #17 ) ) ;
#242 = VERTEX_POINT ( 'NONE', #174 ) ;
#243 = AXIS2_PLACEMENT_3D ( 'NONE', #58, #4, #257 ) ;
#244 = CC_DESIGN_APPROVAL ( #104, ( #297 ) ) ;
#245 = APPROVAL_DATE_TIME ( #195, #41 ) ;
#246 = EDGE_LOOP ( 'NONE', ( #291 ) ) ;
#247 = DIRECTION ( 'NONE',  ( 0.0000000000000000000, 1.000000000000000000, 0.0000000000000000000 ) ) ;
#248 = DIRECTION ( 'NONE',  ( 3.491481338843133355E-15, -1.224646799147353207E-16, 1.000000000000000000 ) ) ;
#249 = PERSON_AND_ORGANIZATION ( #145, #251 ) ;
#250 = ORIENTED_EDGE ( 'NONE', *, *, #239, .T. ) ;
#251 = ORGANIZATION ( 'UNSPECIFIED', 'UNSPECIFIED', '' ) ;
#252 = ADVANCED_FACE ( 'NONE', ( #235, #258 ), #262, .T. ) ;
#253 = DIRECTION ( 'NONE',  ( 3.842254253141636553E-31, 1.000000000000000000, 1.351873033024326421E-16 ) ) ;
#254 = CARTESIAN_POINT ( 'NONE',  ( 3.796876204007154350E-14, -1.331764898258567932E-15, 10.87468565782227614 ) ) ;
#255 = FACE_OUTER_BOUND ( 'NONE', #169, .T. ) ;
#256 = AXIS2_PLACEMENT_3D ( 'NONE', #229, #23, #213 ) ;
#257 = DIRECTION ( 'NONE',  ( 4.275831445896958607E-31, 1.000000000000000000, 1.224646799147353207E-16 ) ) ;
#258 = FACE_OUTER_BOUND ( 'NONE', #78, .T. ) ;
#259 = PERSON_AND_ORGANIZATION ( #145, #251 ) ;
#260 = CALENDAR_DATE ( 2021, 2, 12 ) ;
#261 = CC_DESIGN_APPROVAL ( #90, ( #14 ) ) ;
#262 = CYLINDRICAL_SURFACE ( 'NONE', #91, 2.004999999999990123 ) ;
#263 = DIRECTION ( 'NONE',  ( 1.000000000000000000, 0.0000000000000000000, 0.0000000000000000000 ) ) ;
#264 = EDGE_CURVE ( 'NONE', #27, #27, #288, .T. ) ;
#265 = ORIENTED_EDGE ( 'NONE', *, *, #167, .F. ) ;
#266 = AXIS2_PLACEMENT_3D ( 'NONE', #20, #203, #2 ) ;
#267 = AXIS2_PLACEMENT_3D ( 'NONE', #102, #289, #92 ) ;
#268 = CALENDAR_DATE ( 2021, 2, 12 ) ;
#269 = ORIENTED_EDGE ( 'NONE', *, *, #154, .F. ) ;
#270 = PERSON_AND_ORGANIZATION ( #145, #251 ) ;
#271 = CARTESIAN_POINT ( 'NONE',  ( 2.444036937190193601E-13, -8.572527594031472993E-15, 70.00000000000000000 ) ) ;
#272 = CONICAL_SURFACE ( 'NONE', #42, 1.754999999999989457, 0.7853981633974500554 ) ;
#273 = DIRECTION ( 'NONE',  ( -3.491481338843133355E-15, 1.224646799147353207E-16, -1.000000000000000000 ) ) ;
#274 = DATE_TIME_ROLE ( 'classification_date' ) ;
#275 = CARTESIAN_POINT ( 'NONE',  ( 3.491481338843133355E-14, -1.224646799147353256E-15, 10.00000000000000000 ) ) ;
#276 = UNCERTAINTY_MEASURE_WITH_UNIT (LENGTH_MEASURE( 1.000000000000000082E-05 ), #114, 'distance_accuracy_value', 'NONE');
#277 = FACE_OUTER_BOUND ( 'NONE', #296, .T. ) ;
#278 = ADVANCED_FACE ( 'NONE', ( #96 ), #188, .F. ) ;
#279 = CARTESIAN_POINT ( 'NONE',  ( 3.491481338843133355E-14, -1.224646799147353256E-15, 10.00000000000000000 ) ) ;
#280 = DIRECTION ( 'NONE',  ( 0.0000000000000000000, 1.000000000000000000, 0.0000000000000000000 ) ) ;
#281 = VERTEX_POINT ( 'NONE', #146 ) ;
#282 = CARTESIAN_POINT ( 'NONE',  ( -7.504084187549117171E-31, 2.632078418571544282E-32, -2.149255132503591861E-16 ) ) ;
#283 = AXIS2_PLACEMENT_3D ( 'NONE', #83, #21, #110 ) ;
#284 = CARTESIAN_POINT ( 'NONE',  ( 2.444036937190193601E-13, -8.572527594031472993E-15, 70.00000000000000000 ) ) ;
#285 = APPROVAL_STATUS ( 'not_yet_approved' ) ;
#286 = VERTEX_POINT ( 'NONE', #166 ) ;
#287 = CONICAL_SURFACE ( 'NONE', #30, 1.200000000000001510, 0.7853981633974566057 ) ;
#288 = CIRCLE ( 'NONE', #207, 1.200000000000001510 ) ;
#289 = DIRECTION ( 'NONE',  ( -3.491481338843133355E-15, 1.224646799147353207E-16, -1.000000000000000000 ) ) ;
#290 = PERSON_AND_ORGANIZATION_ROLE ( 'creator' ) ;
#291 = ORIENTED_EDGE ( 'NONE', *, *, #6, .T. ) ;
#292 = ORIENTED_EDGE ( 'NONE', *, *, #93, .F. ) ;
#293 = CARTESIAN_POINT ( 'NONE',  ( 3.491481338843133355E-14, 2.004999999999988791, 10.00000000000000000 ) ) ;
#294 = DIRECTION ( 'NONE',  ( 4.275831445896958607E-31, 1.000000000000000000, 1.224646799147353207E-16 ) ) ;
#295 = ADVANCED_FACE ( 'NONE', ( #86, #232 ), #299, .T. ) ;
#296 = EDGE_LOOP ( 'NONE', ( #212 ) ) ;
#297 = PRODUCT_DEFINITION ( 'UNKNOWN', '', #148, #123 ) ;
#298 = AXIS2_PLACEMENT_3D ( 'NONE', #201, #175, #63 ) ;
#299 = CONICAL_SURFACE ( 'NONE', #76, 2.004999999999990123, 0.5235987755983002589 ) ;
#300 = FACE_OUTER_BOUND ( 'NONE', #118, .T. ) ;
#301 = PLANE ( 'NONE',  #73 ) ;
#302 = CYLINDRICAL_SURFACE ( 'NONE', #218, 1.499999999999996891 ) ;
#303 = EDGE_LOOP ( 'NONE', ( #13 ) ) ;
ENDSEC;
END-ISO-10303-21;
