ISO-10303-21;
HEADER;
FILE_DESCRIPTION (( 'STEP AP203' ),
    '1' );
FILE_NAME ('321626.step',
    '2021-12-02T09:36:17',
    ( '' ),
    ( '' ),
    'SwSTEP 2.0',
    'SolidWorks 2019',
    '' );
FILE_SCHEMA (( 'CONFIG_CONTROL_DESIGN' ));
ENDSEC;

DATA;
#1 = MANIFOLD_SOLID_BREP ( 'Corps-Déplacer/Copier1[2]', #259 ) ;
#2 = CALENDAR_DATE ( 2021, 2, 12 ) ;
#3 = CARTESIAN_POINT ( 'NONE',  ( 2.444036937190193601E-13, 1.199999999999992628, 70.00000000000000000 ) ) ;
#4 = CONICAL_SURFACE ( 'NONE', #247, 1.200000000000001510, 0.7853981633974566057 ) ;
#5 = APPROVAL_ROLE ( '' ) ;
#6 = PERSON_AND_ORGANIZATION ( #151, #199 ) ;
#7 = CARTESIAN_POINT ( 'NONE',  ( 2.444036937190193601E-13, 8.998558695971026591E-33, 70.00000000000000000 ) ) ;
#8 = MANIFOLD_SOLID_BREP ( 'Corps-Déplacer/Copier1[1]', #171 ) ;
#9 = AXIS2_PLACEMENT_3D ( 'NONE', #7, #98, #189 ) ;
#10 = DIRECTION ( 'NONE',  ( 4.275831445896958607E-31, 1.000000000000000000, 1.224646799147353454E-16 ) ) ;
#11 = CC_DESIGN_PERSON_AND_ORGANIZATION_ASSIGNMENT ( #97, #94, ( #93 ) ) ;
#12 = SECURITY_CLASSIFICATION ( '', '', #76 ) ;
#13 = DIRECTION ( 'NONE',  ( -3.491481338843133355E-15, 1.224646799147353207E-16, -1.000000000000000000 ) ) ;
#14 = EDGE_CURVE ( 'NONE', #85, #85, #43, .T. ) ;
#15 = DIRECTION ( 'NONE',  ( 1.000000000000000000, 0.0000000000000000000, 0.0000000000000000000 ) ) ;
#16 = APPLICATION_PROTOCOL_DEFINITION ( 'international standard', 'config_control_design', 1994, #61 ) ;
#17 = CARTESIAN_POINT ( 'NONE',  ( 0.0000000000000000000, 0.0000000000000000000, 0.0000000000000000000 ) ) ;
#18 = DIRECTION ( 'NONE',  ( -3.491481338843133355E-15, 1.224646799147353207E-16, -1.000000000000000000 ) ) ;
#19 = AXIS2_PLACEMENT_3D ( 'NONE', #101, #138, #187 ) ;
#20 = PRODUCT_DEFINITION_SHAPE ( 'NONE', 'NONE',  #93 ) ;
#21 = FACE_OUTER_BOUND ( 'NONE', #284, .T. ) ;
#22 = EDGE_LOOP ( 'NONE', ( #197 ) ) ;
#23 =( NAMED_UNIT ( * ) SI_UNIT ( $, .STERADIAN. ) SOLID_ANGLE_UNIT ( ) );
#24 = CC_DESIGN_APPROVAL ( #133, ( #287 ) ) ;
#25 = CALENDAR_DATE ( 2021, 2, 12 ) ;
#26 = EDGE_CURVE ( 'NONE', #174, #174, #82, .T. ) ;
#27 = COORDINATED_UNIVERSAL_TIME_OFFSET ( 1, 0, .AHEAD. ) ;
#28 = CIRCLE ( 'NONE', #163, 1.500000000000001110 ) ;
#29 = EDGE_CURVE ( 'NONE', #143, #143, #28, .T. ) ;
#30 = ADVANCED_BREP_SHAPE_REPRESENTATION ( '321626', ( #8, #1, #221 ), #252 ) ;
#31 = FACE_BOUND ( 'NONE', #239, .T. ) ;
#32 = EDGE_LOOP ( 'NONE', ( #263 ) ) ;
#33 = FACE_OUTER_BOUND ( 'NONE', #47, .T. ) ;
#34 = ADVANCED_FACE ( 'NONE', ( #297, #182 ), #4, .T. ) ;
#35 = FACE_OUTER_BOUND ( 'NONE', #258, .T. ) ;
#36 = FACE_OUTER_BOUND ( 'NONE', #105, .T. ) ;
#37 = CARTESIAN_POINT ( 'NONE',  ( 8.728703347107833388E-16, 1.999999999999990008, 0.2500000000000000555 ) ) ;
#38 = AXIS2_PLACEMENT_3D ( 'NONE', #248, #18, #155 ) ;
#39 = ADVANCED_FACE ( 'NONE', ( #226, #110 ), #234, .T. ) ;
#40 = CC_DESIGN_APPROVAL ( #46, ( #12 ) ) ;
#41 = DIRECTION ( 'NONE',  ( -3.491481338843133355E-15, 1.224646799147353207E-16, -1.000000000000000000 ) ) ;
#42 = ORIENTED_EDGE ( 'NONE', *, *, #51, .T. ) ;
#43 = CIRCLE ( 'NONE', #209, 1.749999999999989120 ) ;
#44 = AXIS2_PLACEMENT_3D ( 'NONE', #115, #108, #289 ) ;
#45 = DIRECTION ( 'NONE',  ( -3.491481338843133355E-15, 1.224646799147353207E-16, -1.000000000000000000 ) ) ;
#46 = APPROVAL ( #71, 'UNSPECIFIED' ) ;
#47 = EDGE_LOOP ( 'NONE', ( #149 ) ) ;
#48 = DATE_AND_TIME ( #25, #255 ) ;
#49 = CARTESIAN_POINT ( 'NONE',  ( 3.491481338843133355E-14, 1.999999999999988676, 10.00000000000000000 ) ) ;
#50 = DIRECTION ( 'NONE',  ( -3.491481338843133355E-15, 1.224646799147353207E-16, -1.000000000000000000 ) ) ;
#51 = EDGE_CURVE ( 'NONE', #262, #262, #204, .T. ) ;
#52 = PERSON_AND_ORGANIZATION_ROLE ( 'design_supplier' ) ;
#53 = VERTEX_POINT ( 'NONE', #229 ) ;
#54 = VERTEX_POINT ( 'NONE', #3 ) ;
#55 = CARTESIAN_POINT ( 'NONE',  ( 2.433562493173664138E-13, 1.499999999999992673, 69.70000000000001705 ) ) ;
#56 = AXIS2_PLACEMENT_3D ( 'NONE', #146, #232, #235 ) ;
#57 = CYLINDRICAL_SURFACE ( 'NONE', #195, 1.499999999999996891 ) ;
#58 = DIRECTION ( 'NONE',  ( -3.491481338843133355E-15, 1.224646799147353207E-16, -1.000000000000000000 ) ) ;
#59 = CARTESIAN_POINT ( 'NONE',  ( 3.793852492470876215E-14, 1.499999999999991562, 10.86602540378443038 ) ) ;
#60 = ADVANCED_FACE ( 'NONE', ( #200, #36 ), #257, .T. ) ;
#61 = APPLICATION_CONTEXT ( 'configuration controlled 3d designs of mechanical parts and assemblies' ) ;
#62 = CONICAL_SURFACE ( 'NONE', #157, 1.200000000000001510, 0.7853981633974566057 ) ;
#63 = ORIENTED_EDGE ( 'NONE', *, *, #90, .F. ) ;
#64 = CARTESIAN_POINT ( 'NONE',  ( 0.0000000000000000000, 0.0000000000000000000, 0.0000000000000000000 ) ) ;
#65 = ORIENTED_EDGE ( 'NONE', *, *, #90, .T. ) ;
#66 = EDGE_LOOP ( 'NONE', ( #129 ) ) ;
#67 = FACE_OUTER_BOUND ( 'NONE', #109, .T. ) ;
#68 = EDGE_LOOP ( 'NONE', ( #159 ) ) ;
#69 = COORDINATED_UNIVERSAL_TIME_OFFSET ( 1, 0, .AHEAD. ) ;
#70 = AXIS2_PLACEMENT_3D ( 'NONE', #241, #245, #132 ) ;
#71 = APPROVAL_STATUS ( 'not_yet_approved' ) ;
#72 = VERTEX_POINT ( 'NONE', #160 ) ;
#73 = SHAPE_DEFINITION_REPRESENTATION ( #20, #30 ) ;
#74 = APPROVAL_PERSON_ORGANIZATION ( #156, #86, #293 ) ;
#75 = ADVANCED_FACE ( 'NONE', ( #67 ), #218, .F. ) ;
#76 = SECURITY_CLASSIFICATION_LEVEL ( 'unclassified' ) ;
#77 = DIRECTION ( 'NONE',  ( -3.491481338843133355E-15, 1.224646799147353207E-16, -1.000000000000000000 ) ) ;
#78 = ADVANCED_FACE ( 'NONE', ( #290, #175 ), #83, .T. ) ;
#79 = CARTESIAN_POINT ( 'NONE',  ( 2.444036937190193601E-13, -8.572527594031472993E-15, 70.00000000000000000 ) ) ;
#80 = ORIENTED_EDGE ( 'NONE', *, *, #186, .T. ) ;
#81 = DIRECTION ( 'NONE',  ( 0.0000000000000000000, 1.000000000000000000, 0.0000000000000000000 ) ) ;
#82 = CIRCLE ( 'NONE', #38, 1.499999999999992895 ) ;
#83 = CONICAL_SURFACE ( 'NONE', #70, 1.999999999999990008, 0.5235987755983005920 ) ;
#84 = ORIENTED_EDGE ( 'NONE', *, *, #220, .F. ) ;
#85 = VERTEX_POINT ( 'NONE', #256 ) ;
#86 = APPROVAL ( #201, 'UNSPECIFIED' ) ;
#87 = CARTESIAN_POINT ( 'NONE',  ( 0.0000000000000000000, 0.0000000000000000000, 0.0000000000000000000 ) ) ;
#88 = DIRECTION ( 'NONE',  ( 0.0000000000000000000, 1.000000000000000000, 0.0000000000000000000 ) ) ;
#89 = AXIS2_PLACEMENT_3D ( 'NONE', #64, #250, #137 ) ;
#90 = EDGE_CURVE ( 'NONE', #127, #127, #277, .T. ) ;
#91 = EDGE_LOOP ( 'NONE', ( #193 ) ) ;
#92 = ORIENTED_EDGE ( 'NONE', *, *, #99, .T. ) ;
#93 = PRODUCT_DEFINITION ( 'UNKNOWN', '', #287, #158 ) ;
#94 = PERSON_AND_ORGANIZATION_ROLE ( 'creator' ) ;
#95 = CC_DESIGN_DATE_AND_TIME_ASSIGNMENT ( #228, #301, ( #12 ) ) ;
#96 = PERSON_AND_ORGANIZATION ( #151, #199 ) ;
#97 = PERSON_AND_ORGANIZATION ( #151, #199 ) ;
#98 = DIRECTION ( 'NONE',  ( -3.491481338843133355E-15, 1.224646799147353207E-16, -1.000000000000000000 ) ) ;
#99 = EDGE_CURVE ( 'NONE', #72, #72, #123, .T. ) ;
#100 = AXIS2_PLACEMENT_3D ( 'NONE', #192, #77, #169 ) ;
#101 = CARTESIAN_POINT ( 'NONE',  ( 2.444036937190193601E-13, -8.572527594031472993E-15, 70.00000000000000000 ) ) ;
#102 = CARTESIAN_POINT ( 'NONE',  ( 2.444036937190193601E-13, -8.572527594031472993E-15, 70.00000000000000000 ) ) ;
#103 = ORIENTED_EDGE ( 'NONE', *, *, #26, .F. ) ;
#104 = CARTESIAN_POINT ( 'NONE',  ( 3.491481338843133355E-14, -1.224646799147353256E-15, 10.00000000000000000 ) ) ;
#105 = EDGE_LOOP ( 'NONE', ( #154 ) ) ;
#106 = PLANE ( 'NONE',  #121 ) ;
#107 = AXIS2_PLACEMENT_3D ( 'NONE', #104, #58, #81 ) ;
#108 = DIRECTION ( 'NONE',  ( -3.491481338843133355E-15, 1.224646799147353207E-16, -1.000000000000000000 ) ) ;
#109 = EDGE_LOOP ( 'NONE', ( #145 ) ) ;
#110 = FACE_OUTER_BOUND ( 'NONE', #267, .T. ) ;
#111 = PERSON_AND_ORGANIZATION ( #151, #199 ) ;
#112 = DIRECTION ( 'NONE',  ( 3.491481338843133355E-15, -1.224646799147353207E-16, 1.000000000000000000 ) ) ;
#113 = DIRECTION ( 'NONE',  ( 3.851859888774490974E-31, 1.000000000000000000, 1.355252715606887199E-16 ) ) ;
#114 = LOCAL_TIME ( 10, 36, 17.00000000000000000, #69 ) ;
#115 = CARTESIAN_POINT ( 'NONE',  ( 2.444036937190193601E-13, -8.572527594031472993E-15, 70.00000000000000000 ) ) ;
#116 = ORIENTED_EDGE ( 'NONE', *, *, #29, .T. ) ;
#117 = DIRECTION ( 'NONE',  ( 0.0000000000000000000, 1.000000000000000000, 0.0000000000000000000 ) ) ;
#118 = APPROVAL_STATUS ( 'not_yet_approved' ) ;
#119 = APPROVAL_DATE_TIME ( #223, #86 ) ;
#120 = CC_DESIGN_PERSON_AND_ORGANIZATION_ASSIGNMENT ( #6, #52, ( #287 ) ) ;
#121 = AXIS2_PLACEMENT_3D ( 'NONE', #79, #194, #288 ) ;
#122 = CARTESIAN_POINT ( 'NONE',  ( -7.482705030319631581E-31, 2.624579619658234940E-32, -2.143131898507854985E-16 ) ) ;
#123 = CIRCLE ( 'NONE', #246, 1.999999999999990008 ) ;
#124 = EDGE_LOOP ( 'NONE', ( #80 ) ) ;
#125 = DIRECTION ( 'NONE',  ( 0.0000000000000000000, 1.000000000000000000, 0.0000000000000000000 ) ) ;
#126 = FACE_OUTER_BOUND ( 'NONE', #202, .T. ) ;
#127 = VERTEX_POINT ( 'NONE', #55 ) ;
#128 = DIRECTION ( 'NONE',  ( 0.0000000000000000000, 0.0000000000000000000, 1.000000000000000000 ) ) ;
#129 = ORIENTED_EDGE ( 'NONE', *, *, #210, .T. ) ;
#130 = LOCAL_TIME ( 10, 36, 17.00000000000000000, #212 ) ;
#131 = CALENDAR_DATE ( 2021, 2, 12 ) ;
#132 = DIRECTION ( 'NONE',  ( 0.0000000000000000000, 1.000000000000000000, 0.0000000000000000000 ) ) ;
#133 = APPROVAL ( #118, 'UNSPECIFIED' ) ;
#134 = ORIENTED_EDGE ( 'NONE', *, *, #140, .F. ) ;
#135 = DIRECTION ( 'NONE',  ( 0.0000000000000000000, 1.000000000000000000, 0.0000000000000000000 ) ) ;
#136 = CALENDAR_DATE ( 2021, 2, 12 ) ;
#137 = DIRECTION ( 'NONE',  ( 4.275831445896958607E-31, 1.000000000000000000, 1.224646799147353454E-16 ) ) ;
#138 = DIRECTION ( 'NONE',  ( -3.491481338843133355E-15, 1.224646799147353207E-16, -1.000000000000000000 ) ) ;
#139 = AXIS2_PLACEMENT_3D ( 'NONE', #217, #112, #178 ) ;
#140 = EDGE_CURVE ( 'NONE', #53, #53, #240, .T. ) ;
#141 = PLANE ( 'NONE',  #56 ) ;
#142 = EDGE_LOOP ( 'NONE', ( #237 ) ) ;
#143 = VERTEX_POINT ( 'NONE', #216 ) ;
#144 = CIRCLE ( 'NONE', #107, 1.999999999999990008 ) ;
#145 = ORIENTED_EDGE ( 'NONE', *, *, #220, .T. ) ;
#146 = CARTESIAN_POINT ( 'NONE',  ( -3.741352515159815791E-31, 1.312289809829117470E-32, -1.071565949253927493E-16 ) ) ;
#147 = FACE_OUTER_BOUND ( 'NONE', #203, .T. ) ;
#148 = ADVANCED_FACE ( 'NONE', ( #164, #21 ), #243, .T. ) ;
#149 = ORIENTED_EDGE ( 'NONE', *, *, #14, .T. ) ;
#150 = DIRECTION ( 'NONE',  ( -4.275831445896958607E-31, -1.000000000000000000, -1.224646799147353207E-16 ) ) ;
#151 = PERSON ( 'UNSPECIFIED', 'UNSPECIFIED', 'UNSPECIFIED', ('UNSPECIFIED'), ('UNSPECIFIED'), ('UNSPECIFIED') ) ;
#152 = EDGE_LOOP ( 'NONE', ( #63 ) ) ;
#153 = LOCAL_TIME ( 10, 36, 17.00000000000000000, #185 ) ;
#154 = ORIENTED_EDGE ( 'NONE', *, *, #51, .F. ) ;
#155 = DIRECTION ( 'NONE',  ( 0.0000000000000000000, 1.000000000000000000, 0.0000000000000000000 ) ) ;
#156 = PERSON_AND_ORGANIZATION ( #151, #199 ) ;
#157 = AXIS2_PLACEMENT_3D ( 'NONE', #102, #285, #125 ) ;
#158 = DESIGN_CONTEXT ( 'detailed design', #179, 'design' ) ;
#159 = ORIENTED_EDGE ( 'NONE', *, *, #140, .T. ) ;
#160 = CARTESIAN_POINT ( 'NONE',  ( 3.491481338843133355E-14, 1.999999999999988676, 10.00000000000000000 ) ) ;
#161 = DIRECTION ( 'NONE',  ( 0.0000000000000000000, 1.000000000000000000, 0.0000000000000000000 ) ) ;
#162 = UNCERTAINTY_MEASURE_WITH_UNIT (LENGTH_MEASURE( 1.000000000000000082E-05 ), #302, 'distance_accuracy_value', 'NONE');
#163 = AXIS2_PLACEMENT_3D ( 'NONE', #225, #41, #117 ) ;
#164 = FACE_OUTER_BOUND ( 'NONE', #173, .T. ) ;
#165 = PERSON_AND_ORGANIZATION ( #151, #199 ) ;
#166 = DATE_TIME_ROLE ( 'creation_date' ) ;
#167 = LOCAL_TIME ( 10, 36, 17.00000000000000000, #230 ) ;
#168 = FACE_OUTER_BOUND ( 'NONE', #32, .T. ) ;
#169 = DIRECTION ( 'NONE',  ( 0.0000000000000000000, 1.000000000000000000, 0.0000000000000000000 ) ) ;
#170 = CC_DESIGN_PERSON_AND_ORGANIZATION_ASSIGNMENT ( #280, #188, ( #287 ) ) ;
#171 = CLOSED_SHELL ( 'NONE', ( #75, #39, #196, #34, #206 ) ) ;
#172 = AXIS2_PLACEMENT_3D ( 'NONE', #198, #291, #88 ) ;
#173 = EDGE_LOOP ( 'NONE', ( #103 ) ) ;
#174 = VERTEX_POINT ( 'NONE', #59 ) ;
#175 = FACE_OUTER_BOUND ( 'NONE', #22, .T. ) ;
#176 = CIRCLE ( 'NONE', #100, 1.499999999999992895 ) ;
#177 = CARTESIAN_POINT ( 'NONE',  ( 8.728703347107825500E-16, -3.061616997868380553E-17, 0.2499999999999997780 ) ) ;
#178 = DIRECTION ( 'NONE',  ( -4.275831445896958607E-31, -1.000000000000000000, -1.224646799147353207E-16 ) ) ;
#179 = APPLICATION_CONTEXT ( 'configuration controlled 3d designs of mechanical parts and assemblies' ) ;
#180 = DIRECTION ( 'NONE',  ( 4.275831445896958607E-31, 1.000000000000000000, 1.224646799147353207E-16 ) ) ;
#181 = APPROVAL_PERSON_ORGANIZATION ( #165, #46, #5 ) ;
#182 = FACE_BOUND ( 'NONE', #124, .T. ) ;
#183 = APPROVAL_ROLE ( '' ) ;
#184 = DATE_AND_TIME ( #274, #153 ) ;
#185 = COORDINATED_UNIVERSAL_TIME_OFFSET ( 1, 0, .AHEAD. ) ;
#186 = EDGE_CURVE ( 'NONE', #54, #54, #282, .T. ) ;
#187 = DIRECTION ( 'NONE',  ( 0.0000000000000000000, 1.000000000000000000, 0.0000000000000000000 ) ) ;
#188 = PERSON_AND_ORGANIZATION_ROLE ( 'creator' ) ;
#189 = DIRECTION ( 'NONE',  ( 4.275831445896958607E-31, 1.000000000000000000, 1.224646799147353207E-16 ) ) ;
#190 = AXIS2_PLACEMENT_3D ( 'NONE', #177, #244, #113 ) ;
#191 = EDGE_LOOP ( 'NONE', ( #92 ) ) ;
#192 = CARTESIAN_POINT ( 'NONE',  ( 3.793852492470876215E-14, -1.330704323019842888E-15, 10.86602540378443038 ) ) ;
#193 = ORIENTED_EDGE ( 'NONE', *, *, #26, .T. ) ;
#194 = DIRECTION ( 'NONE',  ( -3.491481338843133355E-15, 1.224646799147353207E-16, -1.000000000000000000 ) ) ;
#195 = AXIS2_PLACEMENT_3D ( 'NONE', #214, #13, #10 ) ;
#196 = ADVANCED_FACE ( 'NONE', ( #147, #278 ), #57, .T. ) ;
#197 = ORIENTED_EDGE ( 'NONE', *, *, #99, .F. ) ;
#198 = CARTESIAN_POINT ( 'NONE',  ( 3.491481338843133355E-14, -1.224646799147353256E-15, 10.00000000000000000 ) ) ;
#199 = ORGANIZATION ( 'UNSPECIFIED', 'UNSPECIFIED', '' ) ;
#200 = FACE_OUTER_BOUND ( 'NONE', #191, .T. ) ;
#201 = APPROVAL_STATUS ( 'not_yet_approved' ) ;
#202 = EDGE_LOOP ( 'NONE', ( #42 ) ) ;
#203 = EDGE_LOOP ( 'NONE', ( #264 ) ) ;
#204 = CIRCLE ( 'NONE', #190, 1.999999999999990008 ) ;
#205 = PERSON_AND_ORGANIZATION_ROLE ( 'classification_officer' ) ;
#206 = ADVANCED_FACE ( 'NONE', ( #168 ), #283, .F. ) ;
#207 = CARTESIAN_POINT ( 'NONE',  ( 3.491481338843133355E-14, -1.224646799147353256E-15, 10.00000000000000000 ) ) ;
#208 = APPROVAL_DATE_TIME ( #48, #46 ) ;
#209 = AXIS2_PLACEMENT_3D ( 'NONE', #251, #222, #180 ) ;
#210 = EDGE_CURVE ( 'NONE', #254, #254, #176, .T. ) ;
#211 = AXIS2_PLACEMENT_3D ( 'NONE', #122, #233, #150 ) ;
#212 = COORDINATED_UNIVERSAL_TIME_OFFSET ( 1, 0, .AHEAD. ) ;
#213 = CC_DESIGN_SECURITY_CLASSIFICATION ( #12, ( #287 ) ) ;
#214 = CARTESIAN_POINT ( 'NONE',  ( 0.0000000000000000000, 0.0000000000000000000, 0.0000000000000000000 ) ) ;
#215 = FACE_BOUND ( 'NONE', #68, .T. ) ;
#216 = CARTESIAN_POINT ( 'NONE',  ( 2.433562493173664138E-13, 1.499999999999992673, 69.70000000000001705 ) ) ;
#217 = CARTESIAN_POINT ( 'NONE',  ( 3.491481338843133355E-14, 1.499759782661848029E-32, 10.00000000000000000 ) ) ;
#218 = PLANE ( 'NONE',  #139 ) ;
#219 = DIRECTION ( 'NONE',  ( -3.491481338843133355E-15, 1.224646799147353207E-16, -1.000000000000000000 ) ) ;
#220 = EDGE_CURVE ( 'NONE', #271, #271, #144, .T. ) ;
#221 = AXIS2_PLACEMENT_3D ( 'NONE', #87, #128, #15 ) ;
#222 = DIRECTION ( 'NONE',  ( -3.491481338843133355E-15, 1.224646799147353207E-16, -1.000000000000000000 ) ) ;
#223 = DATE_AND_TIME ( #131, #114 ) ;
#224 = DIRECTION ( 'NONE',  ( 0.0000000000000000000, 1.000000000000000000, 0.0000000000000000000 ) ) ;
#225 = CARTESIAN_POINT ( 'NONE',  ( 2.433562493173664138E-13, -8.535788190057053710E-15, 69.70000000000001705 ) ) ;
#226 = FACE_BOUND ( 'NONE', #66, .T. ) ;
#227 = AXIS2_PLACEMENT_3D ( 'NONE', #275, #219, #224 ) ;
#228 = DATE_AND_TIME ( #136, #167 ) ;
#229 = CARTESIAN_POINT ( 'NONE',  ( 2.444036937190193601E-13, 1.199999999999992628, 70.00000000000000000 ) ) ;
#230 = COORDINATED_UNIVERSAL_TIME_OFFSET ( 1, 0, .AHEAD. ) ;
#231 = PERSON_AND_ORGANIZATION ( #151, #199 ) ;
#232 = DIRECTION ( 'NONE',  ( -3.491481338843133355E-15, 1.224646799147353207E-16, -1.000000000000000000 ) ) ;
#233 = DIRECTION ( 'NONE',  ( 3.491481338843133355E-15, -1.224646799147353207E-16, 1.000000000000000000 ) ) ;
#234 = CONICAL_SURFACE ( 'NONE', #172, 1.999999999999990008, 0.5235987755983005920 ) ;
#235 = DIRECTION ( 'NONE',  ( 4.275831445896958607E-31, 1.000000000000000000, 1.224646799147353207E-16 ) ) ;
#236 = CC_DESIGN_DATE_AND_TIME_ASSIGNMENT ( #276, #166, ( #93 ) ) ;
#237 = ORIENTED_EDGE ( 'NONE', *, *, #29, .F. ) ;
#238 = FACE_OUTER_BOUND ( 'NONE', #152, .T. ) ;
#239 = EDGE_LOOP ( 'NONE', ( #300 ) ) ;
#240 = CIRCLE ( 'NONE', #19, 1.200000000000001510 ) ;
#241 = CARTESIAN_POINT ( 'NONE',  ( 3.491481338843133355E-14, -1.224646799147353256E-15, 10.00000000000000000 ) ) ;
#242 = DIRECTION ( 'NONE',  ( 4.275831445896958607E-31, 1.000000000000000000, 1.224646799147353207E-16 ) ) ;
#243 = CYLINDRICAL_SURFACE ( 'NONE', #89, 1.499999999999996891 ) ;
#244 = DIRECTION ( 'NONE',  ( -3.491481338843133355E-15, 1.224646799147353207E-16, -1.000000000000000000 ) ) ;
#245 = DIRECTION ( 'NONE',  ( -3.491481338843133355E-15, 1.224646799147353207E-16, -1.000000000000000000 ) ) ;
#246 = AXIS2_PLACEMENT_3D ( 'NONE', #207, #303, #161 ) ;
#247 = AXIS2_PLACEMENT_3D ( 'NONE', #273, #50, #135 ) ;
#248 = CARTESIAN_POINT ( 'NONE',  ( 3.793852492470876215E-14, -1.330704323019842888E-15, 10.86602540378443038 ) ) ;
#249 = CC_DESIGN_PERSON_AND_ORGANIZATION_ASSIGNMENT ( #231, #205, ( #12 ) ) ;
#250 = DIRECTION ( 'NONE',  ( -3.491481338843133355E-15, 1.224646799147353207E-16, -1.000000000000000000 ) ) ;
#251 = CARTESIAN_POINT ( 'NONE',  ( -7.482705030319631581E-31, 2.624579619658234940E-32, -2.143131898507854985E-16 ) ) ;
#252 =( GEOMETRIC_REPRESENTATION_CONTEXT ( 3 ) GLOBAL_UNCERTAINTY_ASSIGNED_CONTEXT ( ( #162 ) ) GLOBAL_UNIT_ASSIGNED_CONTEXT ( ( #302, #294, #23 ) ) REPRESENTATION_CONTEXT ( 'NONE', 'WORKASPACE' ) );
#253 = ADVANCED_FACE ( 'NONE', ( #33 ), #141, .T. ) ;
#254 = VERTEX_POINT ( 'NONE', #299 ) ;
#255 = LOCAL_TIME ( 10, 36, 17.00000000000000000, #27 ) ;
#256 = CARTESIAN_POINT ( 'NONE',  ( 0.0000000000000000000, 1.749999999999989120, 0.0000000000000000000 ) ) ;
#257 = CYLINDRICAL_SURFACE ( 'NONE', #292, 1.999999999999990008 ) ;
#258 = EDGE_LOOP ( 'NONE', ( #134 ) ) ;
#259 = CLOSED_SHELL ( 'NONE', ( #78, #60, #261, #253, #279, #265, #148 ) ) ;
#260 = CC_DESIGN_APPROVAL ( #86, ( #93 ) ) ;
#261 = ADVANCED_FACE ( 'NONE', ( #126, #31 ), #298, .T. ) ;
#262 = VERTEX_POINT ( 'NONE', #37 ) ;
#263 = ORIENTED_EDGE ( 'NONE', *, *, #186, .F. ) ;
#264 = ORIENTED_EDGE ( 'NONE', *, *, #210, .F. ) ;
#265 = ADVANCED_FACE ( 'NONE', ( #238, #215 ), #62, .T. ) ;
#266 = PERSON_AND_ORGANIZATION_ROLE ( 'design_owner' ) ;
#267 = EDGE_LOOP ( 'NONE', ( #84 ) ) ;
#268 = APPLICATION_PROTOCOL_DEFINITION ( 'international standard', 'config_control_design', 1994, #179 ) ;
#269 = PRODUCT_RELATED_PRODUCT_CATEGORY ( 'detail', '', ( #296 ) ) ;
#270 = APPROVAL_PERSON_ORGANIZATION ( #96, #133, #183 ) ;
#271 = VERTEX_POINT ( 'NONE', #49 ) ;
#272 = MECHANICAL_CONTEXT ( 'NONE', #61, 'mechanical' ) ;
#273 = CARTESIAN_POINT ( 'NONE',  ( 2.444036937190193601E-13, -8.572527594031472993E-15, 70.00000000000000000 ) ) ;
#274 = CALENDAR_DATE ( 2021, 2, 12 ) ;
#275 = CARTESIAN_POINT ( 'NONE',  ( 2.433562493173664138E-13, -8.535788190057053710E-15, 69.70000000000001705 ) ) ;
#276 = DATE_AND_TIME ( #2, #130 ) ;
#277 = CIRCLE ( 'NONE', #227, 1.500000000000001110 ) ;
#278 = FACE_OUTER_BOUND ( 'NONE', #286, .T. ) ;
#279 = ADVANCED_FACE ( 'NONE', ( #35 ), #106, .F. ) ;
#280 = PERSON_AND_ORGANIZATION ( #151, #199 ) ;
#281 = APPROVAL_DATE_TIME ( #184, #133 ) ;
#282 = CIRCLE ( 'NONE', #44, 1.200000000000001510 ) ;
#283 = PLANE ( 'NONE',  #9 ) ;
#284 = EDGE_LOOP ( 'NONE', ( #65 ) ) ;
#285 = DIRECTION ( 'NONE',  ( -3.491481338843133355E-15, 1.224646799147353207E-16, -1.000000000000000000 ) ) ;
#286 = EDGE_LOOP ( 'NONE', ( #116 ) ) ;
#287 = PRODUCT_DEFINITION_FORMATION_WITH_SPECIFIED_SOURCE ( 'ANY', '', #296, .NOT_KNOWN. ) ;
#288 = DIRECTION ( 'NONE',  ( 4.275831445896958607E-31, 1.000000000000000000, 1.224646799147353207E-16 ) ) ;
#289 = DIRECTION ( 'NONE',  ( 0.0000000000000000000, 1.000000000000000000, 0.0000000000000000000 ) ) ;
#290 = FACE_BOUND ( 'NONE', #91, .T. ) ;
#291 = DIRECTION ( 'NONE',  ( -3.491481338843133355E-15, 1.224646799147353207E-16, -1.000000000000000000 ) ) ;
#292 = AXIS2_PLACEMENT_3D ( 'NONE', #17, #45, #242 ) ;
#293 = APPROVAL_ROLE ( '' ) ;
#294 =( NAMED_UNIT ( * ) PLANE_ANGLE_UNIT ( ) SI_UNIT ( $, .RADIAN. ) );
#295 = CC_DESIGN_PERSON_AND_ORGANIZATION_ASSIGNMENT ( #111, #266, ( #296 ) ) ;
#296 = PRODUCT ( '321626', '321626', '', ( #272 ) ) ;
#297 = FACE_OUTER_BOUND ( 'NONE', #142, .T. ) ;
#298 = CONICAL_SURFACE ( 'NONE', #211, 1.749999999999989120, 0.7853981633974500554 ) ;
#299 = CARTESIAN_POINT ( 'NONE',  ( 3.793852492470876215E-14, 1.499999999999991562, 10.86602540378443038 ) ) ;
#300 = ORIENTED_EDGE ( 'NONE', *, *, #14, .F. ) ;
#301 = DATE_TIME_ROLE ( 'classification_date' ) ;
#302 =( LENGTH_UNIT ( ) NAMED_UNIT ( * ) SI_UNIT ( .MILLI., .METRE. ) );
#303 = DIRECTION ( 'NONE',  ( -3.491481338843133355E-15, 1.224646799147353207E-16, -1.000000000000000000 ) ) ;
ENDSEC;
END-ISO-10303-21;
