ISO-10303-21;
HEADER;
FILE_DESCRIPTION (( 'STEP AP203' ),
    '1' );
FILE_NAME ('321625.step',
    '2021-12-02T09:36:17',
    ( '' ),
    ( '' ),
    'SwSTEP 2.0',
    'SolidWorks 2019',
    '' );
FILE_SCHEMA (( 'CONFIG_CONTROL_DESIGN' ));
ENDSEC;

DATA;
#1 = EDGE_LOOP ( 'NONE', ( #203 ) ) ;
#2 = ADVANCED_FACE ( 'NONE', ( #264, #289 ), #243, .T. ) ;
#3 = EDGE_LOOP ( 'NONE', ( #33 ) ) ;
#4 =( GEOMETRIC_REPRESENTATION_CONTEXT ( 3 ) GLOBAL_UNCERTAINTY_ASSIGNED_CONTEXT ( ( #106 ) ) GLOBAL_UNIT_ASSIGNED_CONTEXT ( ( #299, #40, #77 ) ) REPRESENTATION_CONTEXT ( 'NONE', 'WORKASPACE' ) );
#5 = FACE_OUTER_BOUND ( 'NONE', #279, .T. ) ;
#6 = DIRECTION ( 'NONE',  ( 4.275831445896958607E-31, 1.000000000000000000, 1.224646799147353207E-16 ) ) ;
#7 = CARTESIAN_POINT ( 'NONE',  ( 2.444036937190193601E-13, -8.572527594031472993E-15, 70.00000000000000000 ) ) ;
#8 = CARTESIAN_POINT ( 'NONE',  ( 8.728703347107824514E-16, -3.061616997868379936E-17, 0.2499999999999997224 ) ) ;
#9 = FACE_OUTER_BOUND ( 'NONE', #131, .T. ) ;
#10 = FACE_OUTER_BOUND ( 'NONE', #273, .T. ) ;
#11 = VERTEX_POINT ( 'NONE', #288 ) ;
#12 = CARTESIAN_POINT ( 'NONE',  ( 2.444036937190193601E-13, 1.199999999999992628, 70.00000000000000000 ) ) ;
#13 = SECURITY_CLASSIFICATION_LEVEL ( 'unclassified' ) ;
#14 = APPLICATION_PROTOCOL_DEFINITION ( 'international standard', 'config_control_design', 1994, #263 ) ;
#15 = CIRCLE ( 'NONE', #178, 1.500000000000001110 ) ;
#16 = ADVANCED_FACE ( 'NONE', ( #9, #5 ), #211, .T. ) ;
#17 = CARTESIAN_POINT ( 'NONE',  ( 0.0000000000000000000, 0.0000000000000000000, 0.0000000000000000000 ) ) ;
#18 = CIRCLE ( 'NONE', #82, 1.499999999999992895 ) ;
#19 = ADVANCED_FACE ( 'NONE', ( #10 ), #215, .F. ) ;
#20 = EDGE_LOOP ( 'NONE', ( #174 ) ) ;
#21 = ORIENTED_EDGE ( 'NONE', *, *, #83, .T. ) ;
#22 = CC_DESIGN_PERSON_AND_ORGANIZATION_ASSIGNMENT ( #220, #296, ( #68 ) ) ;
#23 = AXIS2_PLACEMENT_3D ( 'NONE', #90, #189, #185 ) ;
#24 = LOCAL_TIME ( 10, 36, 17.00000000000000000, #147 ) ;
#25 = DIRECTION ( 'NONE',  ( -3.491481338843133355E-15, 1.224646799147353207E-16, -1.000000000000000000 ) ) ;
#26 = ORIENTED_EDGE ( 'NONE', *, *, #300, .F. ) ;
#27 = APPROVAL_ROLE ( '' ) ;
#28 = FACE_OUTER_BOUND ( 'NONE', #241, .T. ) ;
#29 = ORIENTED_EDGE ( 'NONE', *, *, #229, .T. ) ;
#30 = CARTESIAN_POINT ( 'NONE',  ( 0.0000000000000000000, 0.0000000000000000000, 0.0000000000000000000 ) ) ;
#31 = CARTESIAN_POINT ( 'NONE',  ( 3.491481338843133355E-14, 1.994999999999988560, 10.00000000000000000 ) ) ;
#32 = AXIS2_PLACEMENT_3D ( 'NONE', #293, #25, #272 ) ;
#33 = ORIENTED_EDGE ( 'NONE', *, *, #286, .T. ) ;
#34 = CARTESIAN_POINT ( 'NONE',  ( 3.790828780934598711E-14, 1.499999999999991562, 10.85736514974658640 ) ) ;
#35 = PERSON_AND_ORGANIZATION ( #256, #42 ) ;
#36 = AXIS2_PLACEMENT_3D ( 'NONE', #152, #47, #210 ) ;
#37 = CALENDAR_DATE ( 2021, 2, 12 ) ;
#38 = FACE_OUTER_BOUND ( 'NONE', #184, .T. ) ;
#39 = FACE_BOUND ( 'NONE', #20, .T. ) ;
#40 =( NAMED_UNIT ( * ) PLANE_ANGLE_UNIT ( ) SI_UNIT ( $, .RADIAN. ) );
#41 = PERSON_AND_ORGANIZATION ( #256, #42 ) ;
#42 = ORGANIZATION ( 'UNSPECIFIED', 'UNSPECIFIED', '' ) ;
#43 = ORIENTED_EDGE ( 'NONE', *, *, #57, .T. ) ;
#44 = ORIENTED_EDGE ( 'NONE', *, *, #197, .F. ) ;
#45 = DIRECTION ( 'NONE',  ( -3.491481338843133355E-15, 1.224646799147353207E-16, -1.000000000000000000 ) ) ;
#46 = LOCAL_TIME ( 10, 36, 17.00000000000000000, #196 ) ;
#47 = DIRECTION ( 'NONE',  ( -3.491481338843133355E-15, 1.224646799147353207E-16, -1.000000000000000000 ) ) ;
#48 = FACE_OUTER_BOUND ( 'NONE', #103, .T. ) ;
#49 = VERTEX_POINT ( 'NONE', #138 ) ;
#50 = EDGE_LOOP ( 'NONE', ( #248 ) ) ;
#51 = FACE_BOUND ( 'NONE', #137, .T. ) ;
#52 = VERTEX_POINT ( 'NONE', #141 ) ;
#53 = AXIS2_PLACEMENT_3D ( 'NONE', #283, #87, #236 ) ;
#54 = COORDINATED_UNIVERSAL_TIME_OFFSET ( 1, 0, .AHEAD. ) ;
#55 = PRODUCT ( '321625', '321625', '', ( #170 ) ) ;
#56 = COORDINATED_UNIVERSAL_TIME_OFFSET ( 1, 0, .AHEAD. ) ;
#57 = EDGE_CURVE ( 'NONE', #49, #49, #96, .T. ) ;
#58 = CARTESIAN_POINT ( 'NONE',  ( -7.461325873090145116E-31, 2.617080820744925049E-32, -2.137008664512117617E-16 ) ) ;
#59 = CC_DESIGN_APPROVAL ( #270, ( #68 ) ) ;
#60 = FACE_BOUND ( 'NONE', #175, .T. ) ;
#61 = EDGE_LOOP ( 'NONE', ( #29 ) ) ;
#62 = CONICAL_SURFACE ( 'NONE', #64, 1.200000000000001510, 0.7853981633974566057 ) ;
#63 = CC_DESIGN_DATE_AND_TIME_ASSIGNMENT ( #226, #250, ( #127 ) ) ;
#64 = AXIS2_PLACEMENT_3D ( 'NONE', #70, #181, #183 ) ;
#65 = ADVANCED_BREP_SHAPE_REPRESENTATION ( '321625', ( #149, #146, #133 ), #4 ) ;
#66 = ORIENTED_EDGE ( 'NONE', *, *, #229, .F. ) ;
#67 = CARTESIAN_POINT ( 'NONE',  ( 2.433562493173664138E-13, -8.535788190057053710E-15, 69.70000000000001705 ) ) ;
#68 = PRODUCT_DEFINITION_FORMATION_WITH_SPECIFIED_SOURCE ( 'ANY', '', #55, .NOT_KNOWN. ) ;
#69 = FACE_BOUND ( 'NONE', #80, .T. ) ;
#70 = CARTESIAN_POINT ( 'NONE',  ( 2.444036937190193601E-13, -8.572527594031472993E-15, 70.00000000000000000 ) ) ;
#71 = DIRECTION ( 'NONE',  ( -4.275831445896958607E-31, -1.000000000000000000, -1.224646799147353207E-16 ) ) ;
#72 = CC_DESIGN_PERSON_AND_ORGANIZATION_ASSIGNMENT ( #193, #99, ( #127 ) ) ;
#73 = EDGE_LOOP ( 'NONE', ( #118 ) ) ;
#74 = DIRECTION ( 'NONE',  ( 0.0000000000000000000, 1.000000000000000000, 0.0000000000000000000 ) ) ;
#75 = APPROVAL_STATUS ( 'not_yet_approved' ) ;
#76 = APPROVAL_PERSON_ORGANIZATION ( #93, #144, #302 ) ;
#77 =( NAMED_UNIT ( * ) SI_UNIT ( $, .STERADIAN. ) SOLID_ANGLE_UNIT ( ) );
#78 = CIRCLE ( 'NONE', #195, 1.744999999999989004 ) ;
#79 = DIRECTION ( 'NONE',  ( 0.0000000000000000000, 1.000000000000000000, 0.0000000000000000000 ) ) ;
#80 = EDGE_LOOP ( 'NONE', ( #294 ) ) ;
#81 = DIRECTION ( 'NONE',  ( 4.275831445896958607E-31, 1.000000000000000000, 1.224646799147353207E-16 ) ) ;
#82 = AXIS2_PLACEMENT_3D ( 'NONE', #290, #113, #139 ) ;
#83 = EDGE_CURVE ( 'NONE', #242, #242, #172, .T. ) ;
#84 = CONICAL_SURFACE ( 'NONE', #268, 1.200000000000001510, 0.7853981633974566057 ) ;
#85 = DIRECTION ( 'NONE',  ( 0.0000000000000000000, 1.000000000000000000, 0.0000000000000000000 ) ) ;
#86 = CALENDAR_DATE ( 2021, 2, 12 ) ;
#87 = DIRECTION ( 'NONE',  ( -3.491481338843133355E-15, 1.224646799147353207E-16, -1.000000000000000000 ) ) ;
#88 = DIRECTION ( 'NONE',  ( -3.491481338843133355E-15, 1.224646799147353207E-16, -1.000000000000000000 ) ) ;
#89 = LOCAL_TIME ( 10, 36, 17.00000000000000000, #56 ) ;
#90 = CARTESIAN_POINT ( 'NONE',  ( 2.444036937190193601E-13, 8.998558695971026591E-33, 70.00000000000000000 ) ) ;
#91 = CARTESIAN_POINT ( 'NONE',  ( 3.491481338843133355E-14, 1.496010383205193631E-32, 10.00000000000000000 ) ) ;
#92 = DIRECTION ( 'NONE',  ( 0.0000000000000000000, 1.000000000000000000, 0.0000000000000000000 ) ) ;
#93 = PERSON_AND_ORGANIZATION ( #256, #42 ) ;
#94 = PRODUCT_RELATED_PRODUCT_CATEGORY ( 'detail', '', ( #55 ) ) ;
#95 = PERSON_AND_ORGANIZATION ( #256, #42 ) ;
#96 = CIRCLE ( 'NONE', #281, 1.200000000000001510 ) ;
#97 = CALENDAR_DATE ( 2021, 2, 12 ) ;
#98 = PLANE ( 'NONE',  #222 ) ;
#99 = PERSON_AND_ORGANIZATION_ROLE ( 'creator' ) ;
#100 = PERSON_AND_ORGANIZATION_ROLE ( 'design_owner' ) ;
#101 = APPROVAL ( #303, 'UNSPECIFIED' ) ;
#102 = CIRCLE ( 'NONE', #260, 1.994999999999989893 ) ;
#103 = EDGE_LOOP ( 'NONE', ( #107 ) ) ;
#104 = EDGE_LOOP ( 'NONE', ( #207 ) ) ;
#105 = LOCAL_TIME ( 10, 36, 17.00000000000000000, #221 ) ;
#106 = UNCERTAINTY_MEASURE_WITH_UNIT (LENGTH_MEASURE( 1.000000000000000082E-05 ), #299, 'distance_accuracy_value', 'NONE');
#107 = ORIENTED_EDGE ( 'NONE', *, *, #206, .F. ) ;
#108 = AXIS2_PLACEMENT_3D ( 'NONE', #30, #45, #112 ) ;
#109 = AXIS2_PLACEMENT_3D ( 'NONE', #91, #188, #71 ) ;
#110 = DIRECTION ( 'NONE',  ( 0.0000000000000000000, 1.000000000000000000, 0.0000000000000000000 ) ) ;
#111 = VERTEX_POINT ( 'NONE', #31 ) ;
#112 = DIRECTION ( 'NONE',  ( 4.275831445896958607E-31, 1.000000000000000000, 1.224646799147353454E-16 ) ) ;
#113 = DIRECTION ( 'NONE',  ( -3.491481338843133355E-15, 1.224646799147353207E-16, -1.000000000000000000 ) ) ;
#114 = CC_DESIGN_PERSON_AND_ORGANIZATION_ASSIGNMENT ( #41, #100, ( #55 ) ) ;
#115 = DIRECTION ( 'NONE',  ( 0.0000000000000000000, 1.000000000000000000, 0.0000000000000000000 ) ) ;
#116 = ORIENTED_EDGE ( 'NONE', *, *, #168, .F. ) ;
#117 = AXIS2_PLACEMENT_3D ( 'NONE', #246, #192, #232 ) ;
#118 = ORIENTED_EDGE ( 'NONE', *, *, #286, .F. ) ;
#119 = VERTEX_POINT ( 'NONE', #208 ) ;
#120 = DIRECTION ( 'NONE',  ( 3.861513672956883220E-31, 1.000000000000000000, 1.358649338954272987E-16 ) ) ;
#121 = VERTEX_POINT ( 'NONE', #265 ) ;
#122 = ADVANCED_FACE ( 'NONE', ( #69, #48 ), #213, .T. ) ;
#123 = DIRECTION ( 'NONE',  ( 0.0000000000000000000, 1.000000000000000000, 0.0000000000000000000 ) ) ;
#124 = PRODUCT_DEFINITION_SHAPE ( 'NONE', 'NONE',  #127 ) ;
#125 = FACE_OUTER_BOUND ( 'NONE', #73, .T. ) ;
#126 = DATE_AND_TIME ( #37, #89 ) ;
#127 = PRODUCT_DEFINITION ( 'UNKNOWN', '', #68, #224 ) ;
#128 = DIRECTION ( 'NONE',  ( 0.0000000000000000000, 0.0000000000000000000, 1.000000000000000000 ) ) ;
#129 = DIRECTION ( 'NONE',  ( -3.491481338843133355E-15, 1.224646799147353207E-16, -1.000000000000000000 ) ) ;
#130 = APPROVAL_DATE_TIME ( #148, #101 ) ;
#131 = EDGE_LOOP ( 'NONE', ( #163 ) ) ;
#132 = CARTESIAN_POINT ( 'NONE',  ( 3.491481338843133355E-14, -1.224646799147353256E-15, 10.00000000000000000 ) ) ;
#133 = AXIS2_PLACEMENT_3D ( 'NONE', #17, #128, #165 ) ;
#134 = ORIENTED_EDGE ( 'NONE', *, *, #83, .F. ) ;
#135 = FACE_OUTER_BOUND ( 'NONE', #230, .T. ) ;
#136 = DIRECTION ( 'NONE',  ( 4.275831445896958607E-31, 1.000000000000000000, 1.224646799147352961E-16 ) ) ;
#137 = EDGE_LOOP ( 'NONE', ( #43 ) ) ;
#138 = CARTESIAN_POINT ( 'NONE',  ( 2.444036937190193601E-13, 1.199999999999992628, 70.00000000000000000 ) ) ;
#139 = DIRECTION ( 'NONE',  ( 0.0000000000000000000, 1.000000000000000000, 0.0000000000000000000 ) ) ;
#140 = AXIS2_PLACEMENT_3D ( 'NONE', #132, #269, #115 ) ;
#141 = CARTESIAN_POINT ( 'NONE',  ( 3.790828780934598711E-14, 1.499999999999991562, 10.85736514974658640 ) ) ;
#142 = EDGE_LOOP ( 'NONE', ( #21 ) ) ;
#143 = DATE_AND_TIME ( #223, #46 ) ;
#144 = APPROVAL ( #75, 'UNSPECIFIED' ) ;
#145 = CIRCLE ( 'NONE', #284, 1.994999999999989893 ) ;
#146 = MANIFOLD_SOLID_BREP ( 'Corps-Déplacer/Copier1[2]', #227 ) ;
#147 = COORDINATED_UNIVERSAL_TIME_OFFSET ( 1, 0, .AHEAD. ) ;
#148 = DATE_AND_TIME ( #86, #24 ) ;
#149 = MANIFOLD_SOLID_BREP ( 'Corps-Déplacer/Copier1[1]', #199 ) ;
#150 = AXIS2_PLACEMENT_3D ( 'NONE', #253, #169, #123 ) ;
#151 = CC_DESIGN_DATE_AND_TIME_ASSIGNMENT ( #126, #225, ( #233 ) ) ;
#152 = CARTESIAN_POINT ( 'NONE',  ( 0.0000000000000000000, 0.0000000000000000000, 0.0000000000000000000 ) ) ;
#153 = DIRECTION ( 'NONE',  ( -3.491481338843133355E-15, 1.224646799147353207E-16, -1.000000000000000000 ) ) ;
#154 = CC_DESIGN_APPROVAL ( #144, ( #127 ) ) ;
#155 = DIRECTION ( 'NONE',  ( -3.491481338843133355E-15, 1.224646799147353207E-16, -1.000000000000000000 ) ) ;
#156 = FACE_BOUND ( 'NONE', #61, .T. ) ;
#157 = DIRECTION ( 'NONE',  ( -3.491481338843133355E-15, 1.224646799147353207E-16, -1.000000000000000000 ) ) ;
#158 = PLANE ( 'NONE',  #32 ) ;
#159 = DIRECTION ( 'NONE',  ( -3.491481338843133355E-15, 1.224646799147353207E-16, -1.000000000000000000 ) ) ;
#160 = CALENDAR_DATE ( 2021, 2, 12 ) ;
#161 = CARTESIAN_POINT ( 'NONE',  ( 0.0000000000000000000, 0.0000000000000000000, 0.0000000000000000000 ) ) ;
#162 = CARTESIAN_POINT ( 'NONE',  ( 3.491481338843133355E-14, 1.994999999999988560, 10.00000000000000000 ) ) ;
#163 = ORIENTED_EDGE ( 'NONE', *, *, #206, .T. ) ;
#164 = CC_DESIGN_APPROVAL ( #101, ( #233 ) ) ;
#165 = DIRECTION ( 'NONE',  ( 1.000000000000000000, 0.0000000000000000000, 0.0000000000000000000 ) ) ;
#166 = PERSON_AND_ORGANIZATION_ROLE ( 'classification_officer' ) ;
#167 = DIRECTION ( 'NONE',  ( 0.0000000000000000000, 1.000000000000000000, 0.0000000000000000000 ) ) ;
#168 = EDGE_CURVE ( 'NONE', #111, #111, #102, .T. ) ;
#169 = DIRECTION ( 'NONE',  ( -3.491481338843133355E-15, 1.224646799147353207E-16, -1.000000000000000000 ) ) ;
#170 = MECHANICAL_CONTEXT ( 'NONE', #263, 'mechanical' ) ;
#171 = APPROVAL_DATE_TIME ( #143, #144 ) ;
#172 = CIRCLE ( 'NONE', #282, 1.500000000000001110 ) ;
#173 = CIRCLE ( 'NONE', #228, 1.200000000000001510 ) ;
#174 = ORIENTED_EDGE ( 'NONE', *, *, #200, .F. ) ;
#175 = EDGE_LOOP ( 'NONE', ( #234 ) ) ;
#176 = SHAPE_DEFINITION_REPRESENTATION ( #124, #65 ) ;
#177 = ADVANCED_FACE ( 'NONE', ( #125, #60 ), #84, .T. ) ;
#178 = AXIS2_PLACEMENT_3D ( 'NONE', #67, #153, #92 ) ;
#179 = EDGE_LOOP ( 'NONE', ( #134 ) ) ;
#180 = DIRECTION ( 'NONE',  ( -3.491481338843133355E-15, 1.224646799147353207E-16, -1.000000000000000000 ) ) ;
#181 = DIRECTION ( 'NONE',  ( -3.491481338843133355E-15, 1.224646799147353207E-16, -1.000000000000000000 ) ) ;
#182 = CC_DESIGN_PERSON_AND_ORGANIZATION_ASSIGNMENT ( #252, #217, ( #68 ) ) ;
#183 = DIRECTION ( 'NONE',  ( 0.0000000000000000000, 1.000000000000000000, 0.0000000000000000000 ) ) ;
#184 = EDGE_LOOP ( 'NONE', ( #26 ) ) ;
#185 = DIRECTION ( 'NONE',  ( 4.275831445896958607E-31, 1.000000000000000000, 1.224646799147353207E-16 ) ) ;
#186 = FACE_OUTER_BOUND ( 'NONE', #104, .T. ) ;
#187 = CIRCLE ( 'NONE', #53, 1.499999999999992895 ) ;
#188 = DIRECTION ( 'NONE',  ( 3.491481338843133355E-15, -1.224646799147353207E-16, 1.000000000000000000 ) ) ;
#189 = DIRECTION ( 'NONE',  ( -3.491481338843133355E-15, 1.224646799147353207E-16, -1.000000000000000000 ) ) ;
#190 = FACE_OUTER_BOUND ( 'NONE', #3, .T. ) ;
#191 = ADVANCED_FACE ( 'NONE', ( #255, #39 ), #205, .T. ) ;
#192 = DIRECTION ( 'NONE',  ( 3.491481338843133355E-15, -1.224646799147353207E-16, 1.000000000000000000 ) ) ;
#193 = PERSON_AND_ORGANIZATION ( #256, #42 ) ;
#194 = ORIENTED_EDGE ( 'NONE', *, *, #168, .T. ) ;
#195 = AXIS2_PLACEMENT_3D ( 'NONE', #58, #239, #136 ) ;
#196 = COORDINATED_UNIVERSAL_TIME_OFFSET ( 1, 0, .AHEAD. ) ;
#197 = EDGE_CURVE ( 'NONE', #119, #119, #145, .T. ) ;
#198 = DIRECTION ( 'NONE',  ( -3.491481338843133355E-15, 1.224646799147353207E-16, -1.000000000000000000 ) ) ;
#199 = CLOSED_SHELL ( 'NONE', ( #231, #262, #2, #259, #19 ) ) ;
#200 = EDGE_CURVE ( 'NONE', #11, #11, #78, .T. ) ;
#201 = PERSON_AND_ORGANIZATION ( #256, #42 ) ;
#202 = APPROVAL_PERSON_ORGANIZATION ( #35, #270, #27 ) ;
#203 = ORIENTED_EDGE ( 'NONE', *, *, #275, .F. ) ;
#204 = ORIENTED_EDGE ( 'NONE', *, *, #57, .F. ) ;
#205 = CONICAL_SURFACE ( 'NONE', #117, 1.744999999999989004, 0.7853981633974501664 ) ;
#206 = EDGE_CURVE ( 'NONE', #274, #274, #254, .T. ) ;
#207 = ORIENTED_EDGE ( 'NONE', *, *, #200, .T. ) ;
#208 = CARTESIAN_POINT ( 'NONE',  ( 8.728703347107831416E-16, 1.994999999999989893, 0.2500000000000000000 ) ) ;
#209 = DIRECTION ( 'NONE',  ( -3.491481338843133355E-15, 1.224646799147353207E-16, -1.000000000000000000 ) ) ;
#210 = DIRECTION ( 'NONE',  ( 4.275831445896958607E-31, 1.000000000000000000, 1.224646799147353454E-16 ) ) ;
#211 = CYLINDRICAL_SURFACE ( 'NONE', #237, 1.994999999999989893 ) ;
#212 = CARTESIAN_POINT ( 'NONE',  ( 2.433562493173664138E-13, 1.499999999999992673, 69.70000000000001705 ) ) ;
#213 = CONICAL_SURFACE ( 'NONE', #301, 1.994999999999989893, 0.5235987755983007030 ) ;
#214 = ADVANCED_FACE ( 'NONE', ( #38 ), #98, .F. ) ;
#215 = PLANE ( 'NONE',  #23 ) ;
#216 = PLANE ( 'NONE',  #109 ) ;
#217 = PERSON_AND_ORGANIZATION_ROLE ( 'design_supplier' ) ;
#218 = CARTESIAN_POINT ( 'NONE',  ( 2.444036937190193601E-13, -8.572527594031472993E-15, 70.00000000000000000 ) ) ;
#219 = VERTEX_POINT ( 'NONE', #12 ) ;
#220 = PERSON_AND_ORGANIZATION ( #256, #42 ) ;
#221 = COORDINATED_UNIVERSAL_TIME_OFFSET ( 1, 0, .AHEAD. ) ;
#222 = AXIS2_PLACEMENT_3D ( 'NONE', #298, #129, #81 ) ;
#223 = CALENDAR_DATE ( 2021, 2, 12 ) ;
#224 = DESIGN_CONTEXT ( 'detailed design', #297, 'design' ) ;
#225 = DATE_TIME_ROLE ( 'classification_date' ) ;
#226 = DATE_AND_TIME ( #97, #257 ) ;
#227 = CLOSED_SHELL ( 'NONE', ( #122, #16, #191, #251, #214, #177, #291 ) ) ;
#228 = AXIS2_PLACEMENT_3D ( 'NONE', #7, #88, #74 ) ;
#229 = EDGE_CURVE ( 'NONE', #52, #52, #187, .T. ) ;
#230 = EDGE_LOOP ( 'NONE', ( #194 ) ) ;
#231 = ADVANCED_FACE ( 'NONE', ( #135 ), #216, .F. ) ;
#232 = DIRECTION ( 'NONE',  ( -4.275831445896958607E-31, -1.000000000000000000, -1.224646799147352961E-16 ) ) ;
#233 = SECURITY_CLASSIFICATION ( '', '', #13 ) ;
#234 = ORIENTED_EDGE ( 'NONE', *, *, #300, .T. ) ;
#235 = CARTESIAN_POINT ( 'NONE',  ( 3.491481338843133355E-14, -1.224646799147353256E-15, 10.00000000000000000 ) ) ;
#236 = DIRECTION ( 'NONE',  ( 0.0000000000000000000, 1.000000000000000000, 0.0000000000000000000 ) ) ;
#237 = AXIS2_PLACEMENT_3D ( 'NONE', #161, #209, #6 ) ;
#238 = CONICAL_SURFACE ( 'NONE', #140, 1.994999999999989893, 0.5235987755983007030 ) ;
#239 = DIRECTION ( 'NONE',  ( -3.491481338843133355E-15, 1.224646799147353207E-16, -1.000000000000000000 ) ) ;
#240 = FACE_OUTER_BOUND ( 'NONE', #179, .T. ) ;
#241 = EDGE_LOOP ( 'NONE', ( #116 ) ) ;
#242 = VERTEX_POINT ( 'NONE', #212 ) ;
#243 = CYLINDRICAL_SURFACE ( 'NONE', #108, 1.499999999999996891 ) ;
#244 = CYLINDRICAL_SURFACE ( 'NONE', #36, 1.499999999999996891 ) ;
#245 = APPROVAL_DATE_TIME ( #249, #270 ) ;
#246 = CARTESIAN_POINT ( 'NONE',  ( -7.461325873090145116E-31, 2.617080820744925049E-32, -2.137008664512117617E-16 ) ) ;
#247 = VERTEX_POINT ( 'NONE', #34 ) ;
#248 = ORIENTED_EDGE ( 'NONE', *, *, #197, .T. ) ;
#249 = DATE_AND_TIME ( #160, #105 ) ;
#250 = DATE_TIME_ROLE ( 'creation_date' ) ;
#251 = ADVANCED_FACE ( 'NONE', ( #186 ), #158, .T. ) ;
#252 = PERSON_AND_ORGANIZATION ( #256, #42 ) ;
#253 = CARTESIAN_POINT ( 'NONE',  ( 3.491481338843133355E-14, -1.224646799147353256E-15, 10.00000000000000000 ) ) ;
#254 = CIRCLE ( 'NONE', #150, 1.994999999999989893 ) ;
#255 = FACE_OUTER_BOUND ( 'NONE', #50, .T. ) ;
#256 = PERSON ( 'UNSPECIFIED', 'UNSPECIFIED', 'UNSPECIFIED', ('UNSPECIFIED'), ('UNSPECIFIED'), ('UNSPECIFIED') ) ;
#257 = LOCAL_TIME ( 10, 36, 17.00000000000000000, #54 ) ;
#258 = EDGE_LOOP ( 'NONE', ( #66 ) ) ;
#259 = ADVANCED_FACE ( 'NONE', ( #240, #51 ), #62, .T. ) ;
#260 = AXIS2_PLACEMENT_3D ( 'NONE', #271, #198, #167 ) ;
#261 = APPROVAL_PERSON_ORGANIZATION ( #201, #101, #280 ) ;
#262 = ADVANCED_FACE ( 'NONE', ( #156, #28 ), #238, .T. ) ;
#263 = APPLICATION_CONTEXT ( 'configuration controlled 3d designs of mechanical parts and assemblies' ) ;
#264 = FACE_OUTER_BOUND ( 'NONE', #258, .T. ) ;
#265 = CARTESIAN_POINT ( 'NONE',  ( 2.433562493173664138E-13, 1.499999999999992673, 69.70000000000001705 ) ) ;
#266 = APPROVAL_STATUS ( 'not_yet_approved' ) ;
#267 = FACE_OUTER_BOUND ( 'NONE', #1, .T. ) ;
#268 = AXIS2_PLACEMENT_3D ( 'NONE', #218, #276, #79 ) ;
#269 = DIRECTION ( 'NONE',  ( -3.491481338843133355E-15, 1.224646799147353207E-16, -1.000000000000000000 ) ) ;
#270 = APPROVAL ( #266, 'UNSPECIFIED' ) ;
#271 = CARTESIAN_POINT ( 'NONE',  ( 3.491481338843133355E-14, -1.224646799147353256E-15, 10.00000000000000000 ) ) ;
#272 = DIRECTION ( 'NONE',  ( 4.275831445896958607E-31, 1.000000000000000000, 1.224646799147353207E-16 ) ) ;
#273 = EDGE_LOOP ( 'NONE', ( #204 ) ) ;
#274 = VERTEX_POINT ( 'NONE', #162 ) ;
#275 = EDGE_CURVE ( 'NONE', #247, #247, #18, .T. ) ;
#276 = DIRECTION ( 'NONE',  ( -3.491481338843133355E-15, 1.224646799147353207E-16, -1.000000000000000000 ) ) ;
#277 = APPLICATION_PROTOCOL_DEFINITION ( 'international standard', 'config_control_design', 1994, #297 ) ;
#278 = CC_DESIGN_PERSON_AND_ORGANIZATION_ASSIGNMENT ( #95, #166, ( #233 ) ) ;
#279 = EDGE_LOOP ( 'NONE', ( #44 ) ) ;
#280 = APPROVAL_ROLE ( '' ) ;
#281 = AXIS2_PLACEMENT_3D ( 'NONE', #292, #155, #85 ) ;
#282 = AXIS2_PLACEMENT_3D ( 'NONE', #295, #180, #287 ) ;
#283 = CARTESIAN_POINT ( 'NONE',  ( 3.790828780934598711E-14, -1.329643747781117844E-15, 10.85736514974658640 ) ) ;
#284 = AXIS2_PLACEMENT_3D ( 'NONE', #8, #159, #120 ) ;
#285 = CC_DESIGN_SECURITY_CLASSIFICATION ( #233, ( #68 ) ) ;
#286 = EDGE_CURVE ( 'NONE', #121, #121, #15, .T. ) ;
#287 = DIRECTION ( 'NONE',  ( 0.0000000000000000000, 1.000000000000000000, 0.0000000000000000000 ) ) ;
#288 = CARTESIAN_POINT ( 'NONE',  ( 0.0000000000000000000, 1.744999999999989004, 0.0000000000000000000 ) ) ;
#289 = FACE_OUTER_BOUND ( 'NONE', #142, .T. ) ;
#290 = CARTESIAN_POINT ( 'NONE',  ( 3.790828780934598711E-14, -1.329643747781117844E-15, 10.85736514974658640 ) ) ;
#291 = ADVANCED_FACE ( 'NONE', ( #267, #190 ), #244, .T. ) ;
#292 = CARTESIAN_POINT ( 'NONE',  ( 2.444036937190193601E-13, -8.572527594031472993E-15, 70.00000000000000000 ) ) ;
#293 = CARTESIAN_POINT ( 'NONE',  ( -3.730662936545072558E-31, 1.308540410372462525E-32, -1.068504332256058808E-16 ) ) ;
#294 = ORIENTED_EDGE ( 'NONE', *, *, #275, .T. ) ;
#295 = CARTESIAN_POINT ( 'NONE',  ( 2.433562493173664138E-13, -8.535788190057053710E-15, 69.70000000000001705 ) ) ;
#296 = PERSON_AND_ORGANIZATION_ROLE ( 'creator' ) ;
#297 = APPLICATION_CONTEXT ( 'configuration controlled 3d designs of mechanical parts and assemblies' ) ;
#298 = CARTESIAN_POINT ( 'NONE',  ( 2.444036937190193601E-13, -8.572527594031472993E-15, 70.00000000000000000 ) ) ;
#299 =( LENGTH_UNIT ( ) NAMED_UNIT ( * ) SI_UNIT ( .MILLI., .METRE. ) );
#300 = EDGE_CURVE ( 'NONE', #219, #219, #173, .T. ) ;
#301 = AXIS2_PLACEMENT_3D ( 'NONE', #235, #157, #110 ) ;
#302 = APPROVAL_ROLE ( '' ) ;
#303 = APPROVAL_STATUS ( 'not_yet_approved' ) ;
ENDSEC;
END-ISO-10303-21;
