ISO-10303-21;
HEADER;
FILE_DESCRIPTION (( 'STEP AP203' ),
    '1' );
FILE_NAME ('321624.step',
    '2021-12-02T09:36:16',
    ( '' ),
    ( '' ),
    'SwSTEP 2.0',
    'SolidWorks 2019',
    '' );
FILE_SCHEMA (( 'CONFIG_CONTROL_DESIGN' ));
ENDSEC;

DATA;
#1 = CC_DESIGN_APPROVAL ( #282, ( #72 ) ) ;
#2 = EDGE_LOOP ( 'NONE', ( #30 ) ) ;
#3 = APPLICATION_CONTEXT ( 'configuration controlled 3d designs of mechanical parts and assemblies' ) ;
#4 = EDGE_LOOP ( 'NONE', ( #239 ) ) ;
#5 = DIRECTION ( 'NONE',  ( 3.871215968617578756E-31, 1.000000000000000000, 1.089650424608552589E-16 ) ) ;
#6 = FACE_BOUND ( 'NONE', #136, .T. ) ;
#7 = CARTESIAN_POINT ( 'NONE',  ( 3.491481338843133355E-14, -1.224646799147353256E-15, 10.00000000000000000 ) ) ;
#8 = FACE_OUTER_BOUND ( 'NONE', #151, .T. ) ;
#9 = DIRECTION ( 'NONE',  ( -3.491481338843133355E-15, 1.224646799147353207E-16, -1.000000000000000000 ) ) ;
#10 = DIRECTION ( 'NONE',  ( 0.0000000000000000000, 1.000000000000000000, 0.0000000000000000000 ) ) ;
#11 = ADVANCED_FACE ( 'NONE', ( #296 ), #247, .F. ) ;
#12 = FACE_OUTER_BOUND ( 'NONE', #200, .T. ) ;
#13 = PERSON_AND_ORGANIZATION_ROLE ( 'design_supplier' ) ;
#14 = AXIS2_PLACEMENT_3D ( 'NONE', #188, #187, #118 ) ;
#15 =( NAMED_UNIT ( * ) SI_UNIT ( $, .STERADIAN. ) SOLID_ANGLE_UNIT ( ) );
#16 = CONICAL_SURFACE ( 'NONE', #34, 1.989999999999989999, 0.5235987755983003700 ) ;
#17 = ADVANCED_FACE ( 'NONE', ( #50, #6 ), #171, .T. ) ;
#18 = ORIENTED_EDGE ( 'NONE', *, *, #256, .F. ) ;
#19 = ORIENTED_EDGE ( 'NONE', *, *, #256, .T. ) ;
#20 = PRODUCT_RELATED_PRODUCT_CATEGORY ( 'detail', '', ( #66 ) ) ;
#21 = AXIS2_PLACEMENT_3D ( 'NONE', #213, #162, #97 ) ;
#22 = AXIS2_PLACEMENT_3D ( 'NONE', #81, #278, #175 ) ;
#23 = CARTESIAN_POINT ( 'NONE',  ( 3.491481338843133355E-14, 1.989999999999988667, 10.00000000000000000 ) ) ;
#24 = ORIENTED_EDGE ( 'NONE', *, *, #70, .F. ) ;
#25 = APPROVAL_ROLE ( '' ) ;
#26 = VERTEX_POINT ( 'NONE', #51 ) ;
#27 = EDGE_LOOP ( 'NONE', ( #271 ) ) ;
#28 = DIRECTION ( 'NONE',  ( -3.491481338843133355E-15, 1.224646799147353207E-16, -1.000000000000000000 ) ) ;
#29 = VERTEX_POINT ( 'NONE', #137 ) ;
#30 = ORIENTED_EDGE ( 'NONE', *, *, #49, .T. ) ;
#31 = DIRECTION ( 'NONE',  ( 4.275831445896958607E-31, 1.000000000000000000, 1.224646799147353454E-16 ) ) ;
#32 = DATE_TIME_ROLE ( 'creation_date' ) ;
#33 = ADVANCED_FACE ( 'NONE', ( #289 ), #217, .T. ) ;
#34 = AXIS2_PLACEMENT_3D ( 'NONE', #204, #37, #252 ) ;
#35 = COORDINATED_UNIVERSAL_TIME_OFFSET ( 1, 0, .AHEAD. ) ;
#36 = CARTESIAN_POINT ( 'NONE',  ( 2.444036937190193601E-13, -8.572527594031472993E-15, 70.00000000000000000 ) ) ;
#37 = DIRECTION ( 'NONE',  ( -3.491481338843133355E-15, 1.224646799147353207E-16, -1.000000000000000000 ) ) ;
#38 = PERSON_AND_ORGANIZATION ( #205, #299 ) ;
#39 = ADVANCED_FACE ( 'NONE', ( #68 ), #249, .F. ) ;
#40 = AXIS2_PLACEMENT_3D ( 'NONE', #142, #158, #266 ) ;
#41 = EDGE_LOOP ( 'NONE', ( #284 ) ) ;
#42 = AXIS2_PLACEMENT_3D ( 'NONE', #47, #114, #10 ) ;
#43 = ORIENTED_EDGE ( 'NONE', *, *, #232, .F. ) ;
#44 = DIRECTION ( 'NONE',  ( 4.275831445896958607E-31, 1.000000000000000000, 1.224646799147353207E-16 ) ) ;
#45 = DIRECTION ( 'NONE',  ( 0.0000000000000000000, 1.000000000000000000, 0.0000000000000000000 ) ) ;
#46 = DIRECTION ( 'NONE',  ( -3.491481338843133355E-15, 1.224646799147353207E-16, -1.000000000000000000 ) ) ;
#47 = CARTESIAN_POINT ( 'NONE',  ( 2.444036937190193601E-13, -8.572527594031472993E-15, 70.00000000000000000 ) ) ;
#48 = CARTESIAN_POINT ( 'NONE',  ( 8.552847072295026068E-47, 1.739999999999989111, 0.0000000000000000000 ) ) ;
#49 = EDGE_CURVE ( 'NONE', #29, #29, #242, .T. ) ;
#50 = FACE_OUTER_BOUND ( 'NONE', #138, .T. ) ;
#51 = CARTESIAN_POINT ( 'NONE',  ( 3.787805069398321837E-14, 1.499999999999991562, 10.84870489570874241 ) ) ;
#52 = DIRECTION ( 'NONE',  ( 4.275831445896958607E-31, 1.000000000000000000, 1.224646799147353207E-16 ) ) ;
#53 = CALENDAR_DATE ( 2021, 2, 12 ) ;
#54 = PERSON_AND_ORGANIZATION ( #205, #299 ) ;
#55 =( NAMED_UNIT ( * ) PLANE_ANGLE_UNIT ( ) SI_UNIT ( $, .RADIAN. ) );
#56 = CARTESIAN_POINT ( 'NONE',  ( 3.491481338843133355E-14, -1.224646799147353256E-15, 10.00000000000000000 ) ) ;
#57 = LOCAL_TIME ( 10, 36, 16.00000000000000000, #35 ) ;
#58 = APPROVAL_PERSON_ORGANIZATION ( #54, #245, #257 ) ;
#59 = PLANE ( 'NONE',  #22 ) ;
#60 = EDGE_LOOP ( 'NONE', ( #107 ) ) ;
#61 = DESIGN_CONTEXT ( 'detailed design', #3, 'design' ) ;
#62 = AXIS2_PLACEMENT_3D ( 'NONE', #126, #104, #300 ) ;
#63 = AXIS2_PLACEMENT_3D ( 'NONE', #36, #287, #132 ) ;
#64 = ORIENTED_EDGE ( 'NONE', *, *, #49, .F. ) ;
#65 = CARTESIAN_POINT ( 'NONE',  ( 2.444036937190193601E-13, 1.199999999999992628, 70.00000000000000000 ) ) ;
#66 = PRODUCT ( '321624', '321624', '', ( #199 ) ) ;
#67 = PRODUCT_DEFINITION_FORMATION_WITH_SPECIFIED_SOURCE ( 'ANY', '', #66, .NOT_KNOWN. ) ;
#68 = FACE_OUTER_BOUND ( 'NONE', #181, .T. ) ;
#69 = CYLINDRICAL_SURFACE ( 'NONE', #120, 1.499999999999996891 ) ;
#70 = EDGE_CURVE ( 'NONE', #294, #294, #183, .T. ) ;
#71 = DIRECTION ( 'NONE',  ( -3.491481338843133355E-15, 1.224646799147353207E-16, -1.000000000000000000 ) ) ;
#72 = PRODUCT_DEFINITION ( 'UNKNOWN', '', #67, #61 ) ;
#73 = CARTESIAN_POINT ( 'NONE',  ( 3.491481338843133355E-14, -1.224646799147353256E-15, 10.00000000000000000 ) ) ;
#74 = DIRECTION ( 'NONE',  ( 4.275831445896958607E-31, 1.000000000000000000, 1.224646799147353207E-16 ) ) ;
#75 = PERSON_AND_ORGANIZATION ( #205, #299 ) ;
#76 =( GEOMETRIC_REPRESENTATION_CONTEXT ( 3 ) GLOBAL_UNCERTAINTY_ASSIGNED_CONTEXT ( ( #109 ) ) GLOBAL_UNIT_ASSIGNED_CONTEXT ( ( #77, #55, #15 ) ) REPRESENTATION_CONTEXT ( 'NONE', 'WORKASPACE' ) );
#77 =( LENGTH_UNIT ( ) NAMED_UNIT ( * ) SI_UNIT ( .MILLI., .METRE. ) );
#78 = CIRCLE ( 'NONE', #243, 1.989999999999989999 ) ;
#79 = LOCAL_TIME ( 10, 36, 16.00000000000000000, #223 ) ;
#80 = EDGE_CURVE ( 'NONE', #292, #292, #89, .T. ) ;
#81 = CARTESIAN_POINT ( 'NONE',  ( 2.444036937190193601E-13, -8.572527594031472993E-15, 70.00000000000000000 ) ) ;
#82 = CC_DESIGN_DATE_AND_TIME_ASSIGNMENT ( #148, #32, ( #72 ) ) ;
#83 = ADVANCED_FACE ( 'NONE', ( #127 ), #59, .F. ) ;
#84 = EDGE_LOOP ( 'NONE', ( #18 ) ) ;
#85 = FACE_OUTER_BOUND ( 'NONE', #84, .T. ) ;
#86 = AXIS2_PLACEMENT_3D ( 'NONE', #196, #28, #5 ) ;
#87 = CONICAL_SURFACE ( 'NONE', #63, 1.200000000000001510, 0.7853981633974566057 ) ;
#88 = CC_DESIGN_PERSON_AND_ORGANIZATION_ASSIGNMENT ( #230, #13, ( #67 ) ) ;
#89 = CIRCLE ( 'NONE', #286, 1.989999999999989999 ) ;
#90 = EDGE_LOOP ( 'NONE', ( #64 ) ) ;
#91 = CALENDAR_DATE ( 2021, 2, 12 ) ;
#92 = FACE_BOUND ( 'NONE', #60, .T. ) ;
#93 = CARTESIAN_POINT ( 'NONE',  ( 0.0000000000000000000, 0.0000000000000000000, 0.0000000000000000000 ) ) ;
#94 = SECURITY_CLASSIFICATION ( '', '', #251 ) ;
#95 = DIRECTION ( 'NONE',  ( 3.491481338843133355E-15, -1.224646799147353207E-16, 1.000000000000000000 ) ) ;
#96 = CARTESIAN_POINT ( 'NONE',  ( 3.787805069398321837E-14, 1.499999999999991562, 10.84870489570874241 ) ) ;
#97 = DIRECTION ( 'NONE',  ( 4.275831445896958607E-31, 1.000000000000000000, 1.224646799147353207E-16 ) ) ;
#98 = VERTEX_POINT ( 'NONE', #96 ) ;
#99 = PERSON_AND_ORGANIZATION_ROLE ( 'design_owner' ) ;
#100 = DATE_AND_TIME ( #285, #279 ) ;
#101 = CC_DESIGN_PERSON_AND_ORGANIZATION_ASSIGNMENT ( #75, #99, ( #66 ) ) ;
#102 = CARTESIAN_POINT ( 'NONE',  ( 0.0000000000000000000, 0.0000000000000000000, 0.0000000000000000000 ) ) ;
#103 = CIRCLE ( 'NONE', #193, 1.500000000000001110 ) ;
#104 = DIRECTION ( 'NONE',  ( -3.491481338843133355E-15, 1.224646799147353207E-16, -1.000000000000000000 ) ) ;
#105 = PERSON_AND_ORGANIZATION ( #205, #299 ) ;
#106 = CC_DESIGN_PERSON_AND_ORGANIZATION_ASSIGNMENT ( #38, #173, ( #72 ) ) ;
#107 = ORIENTED_EDGE ( 'NONE', *, *, #167, .F. ) ;
#108 = CC_DESIGN_APPROVAL ( #156, ( #67 ) ) ;
#109 = UNCERTAINTY_MEASURE_WITH_UNIT (LENGTH_MEASURE( 1.000000000000000082E-05 ), #77, 'distance_accuracy_value', 'NONE');
#110 = ADVANCED_FACE ( 'NONE', ( #224, #260 ), #16, .T. ) ;
#111 = DIRECTION ( 'NONE',  ( -3.491481338843133355E-15, 1.224646799147353207E-16, -1.000000000000000000 ) ) ;
#112 = CLOSED_SHELL ( 'NONE', ( #134, #195, #280, #33, #83, #17, #159 ) ) ;
#113 = AXIS2_PLACEMENT_3D ( 'NONE', #102, #150, #301 ) ;
#114 = DIRECTION ( 'NONE',  ( -3.491481338843133355E-15, 1.224646799147353207E-16, -1.000000000000000000 ) ) ;
#115 = CARTESIAN_POINT ( 'NONE',  ( 2.444036937190193601E-13, 1.199999999999992628, 70.00000000000000000 ) ) ;
#116 = ORIENTED_EDGE ( 'NONE', *, *, #80, .T. ) ;
#117 = CARTESIAN_POINT ( 'NONE',  ( 0.0000000000000000000, 0.0000000000000000000, 0.0000000000000000000 ) ) ;
#118 = DIRECTION ( 'NONE',  ( 0.0000000000000000000, 1.000000000000000000, 0.0000000000000000000 ) ) ;
#119 = ORIENTED_EDGE ( 'NONE', *, *, #125, .T. ) ;
#120 = AXIS2_PLACEMENT_3D ( 'NONE', #93, #192, #272 ) ;
#121 = CARTESIAN_POINT ( 'NONE',  ( 2.433562493173664138E-13, -8.535788190057053710E-15, 69.70000000000001705 ) ) ;
#122 = VERTEX_POINT ( 'NONE', #115 ) ;
#123 = DIRECTION ( 'NONE',  ( 0.0000000000000000000, 1.000000000000000000, 0.0000000000000000000 ) ) ;
#124 = CYLINDRICAL_SURFACE ( 'NONE', #234, 1.989999999999989999 ) ;
#125 = EDGE_CURVE ( 'NONE', #122, #122, #201, .T. ) ;
#126 = CARTESIAN_POINT ( 'NONE',  ( 2.444036937190193601E-13, -8.572527594031472993E-15, 70.00000000000000000 ) ) ;
#127 = FACE_OUTER_BOUND ( 'NONE', #261, .T. ) ;
#128 = CALENDAR_DATE ( 2021, 2, 12 ) ;
#129 = AXIS2_PLACEMENT_3D ( 'NONE', #143, #145, #45 ) ;
#130 = APPROVAL_DATE_TIME ( #174, #156 ) ;
#131 = APPLICATION_PROTOCOL_DEFINITION ( 'international standard', 'config_control_design', 1994, #3 ) ;
#132 = DIRECTION ( 'NONE',  ( 0.0000000000000000000, 1.000000000000000000, 0.0000000000000000000 ) ) ;
#133 = SHAPE_DEFINITION_REPRESENTATION ( #190, #264 ) ;
#134 = ADVANCED_FACE ( 'NONE', ( #165, #8 ), #144, .T. ) ;
#135 = CC_DESIGN_PERSON_AND_ORGANIZATION_ASSIGNMENT ( #166, #255, ( #67 ) ) ;
#136 = EDGE_LOOP ( 'NONE', ( #291 ) ) ;
#137 = CARTESIAN_POINT ( 'NONE',  ( 8.728703347107833388E-16, 1.989999999999989999, 0.2500000000000000000 ) ) ;
#138 = EDGE_LOOP ( 'NONE', ( #24 ) ) ;
#139 = CARTESIAN_POINT ( 'NONE',  ( 2.433562493173664138E-13, 1.499999999999992673, 69.70000000000001705 ) ) ;
#140 = DIRECTION ( 'NONE',  ( 0.0000000000000000000, 1.000000000000000000, 0.0000000000000000000 ) ) ;
#141 = ORIENTED_EDGE ( 'NONE', *, *, #125, .F. ) ;
#142 = CARTESIAN_POINT ( 'NONE',  ( -7.439946715860661277E-31, 2.609582021831615707E-32, -2.130885430516381234E-16 ) ) ;
#143 = CARTESIAN_POINT ( 'NONE',  ( 3.787805069398321837E-14, -1.328583172542393194E-15, 10.84870489570874241 ) ) ;
#144 = CONICAL_SURFACE ( 'NONE', #288, 1.989999999999989999, 0.5235987755983003700 ) ;
#145 = DIRECTION ( 'NONE',  ( -3.491481338843133355E-15, 1.224646799147353207E-16, -1.000000000000000000 ) ) ;
#146 = EDGE_CURVE ( 'NONE', #163, #163, #157, .T. ) ;
#147 = EDGE_LOOP ( 'NONE', ( #43 ) ) ;
#148 = DATE_AND_TIME ( #53, #161 ) ;
#149 = MANIFOLD_SOLID_BREP ( 'Corps-Déplacer/Copier1[2]', #112 ) ;
#150 = DIRECTION ( 'NONE',  ( 0.0000000000000000000, 0.0000000000000000000, 1.000000000000000000 ) ) ;
#151 = EDGE_LOOP ( 'NONE', ( #180 ) ) ;
#152 = AXIS2_PLACEMENT_3D ( 'NONE', #121, #221, #297 ) ;
#153 = ADVANCED_FACE ( 'NONE', ( #258, #176 ), #87, .T. ) ;
#154 = COORDINATED_UNIVERSAL_TIME_OFFSET ( 1, 0, .AHEAD. ) ;
#155 = APPROVAL_DATE_TIME ( #182, #245 ) ;
#156 = APPROVAL ( #267, 'UNSPECIFIED' ) ;
#157 = CIRCLE ( 'NONE', #62, 1.200000000000001510 ) ;
#158 = DIRECTION ( 'NONE',  ( 3.491481338843133355E-15, -1.224646799147353207E-16, 1.000000000000000000 ) ) ;
#159 = ADVANCED_FACE ( 'NONE', ( #85, #160 ), #290, .T. ) ;
#160 = FACE_OUTER_BOUND ( 'NONE', #27, .T. ) ;
#161 = LOCAL_TIME ( 10, 36, 16.00000000000000000, #276 ) ;
#162 = DIRECTION ( 'NONE',  ( -3.491481338843133355E-15, 1.224646799147353207E-16, -1.000000000000000000 ) ) ;
#163 = VERTEX_POINT ( 'NONE', #65 ) ;
#164 = VERTEX_POINT ( 'NONE', #248 ) ;
#165 = FACE_BOUND ( 'NONE', #191, .T. ) ;
#166 = PERSON_AND_ORGANIZATION ( #205, #299 ) ;
#167 = EDGE_CURVE ( 'NONE', #218, #218, #269, .T. ) ;
#168 = DIRECTION ( 'NONE',  ( 0.0000000000000000000, 1.000000000000000000, 0.0000000000000000000 ) ) ;
#169 = FACE_OUTER_BOUND ( 'NONE', #4, .T. ) ;
#170 = EDGE_LOOP ( 'NONE', ( #211 ) ) ;
#171 = CONICAL_SURFACE ( 'NONE', #42, 1.200000000000001510, 0.7853981633974566057 ) ;
#172 = CONICAL_SURFACE ( 'NONE', #40, 1.739999999999989111, 0.7853981633974500554 ) ;
#173 = PERSON_AND_ORGANIZATION_ROLE ( 'creator' ) ;
#174 = DATE_AND_TIME ( #298, #57 ) ;
#175 = DIRECTION ( 'NONE',  ( 4.275831445896958607E-31, 1.000000000000000000, 1.224646799147353207E-16 ) ) ;
#176 = FACE_BOUND ( 'NONE', #210, .T. ) ;
#177 = APPLICATION_PROTOCOL_DEFINITION ( 'international standard', 'config_control_design', 1994, #277 ) ;
#178 = CLOSED_SHELL ( 'NONE', ( #11, #110, #212, #153, #39 ) ) ;
#179 = AXIS2_PLACEMENT_3D ( 'NONE', #214, #250, #74 ) ;
#180 = ORIENTED_EDGE ( 'NONE', *, *, #207, .F. ) ;
#181 = EDGE_LOOP ( 'NONE', ( #141 ) ) ;
#182 = DATE_AND_TIME ( #91, #79 ) ;
#183 = CIRCLE ( 'NONE', #152, 1.500000000000001110 ) ;
#184 = CC_DESIGN_APPROVAL ( #245, ( #94 ) ) ;
#185 = EDGE_LOOP ( 'NONE', ( #116 ) ) ;
#186 = EDGE_LOOP ( 'NONE', ( #273 ) ) ;
#187 = DIRECTION ( 'NONE',  ( -3.491481338843133355E-15, 1.224646799147353207E-16, -1.000000000000000000 ) ) ;
#188 = CARTESIAN_POINT ( 'NONE',  ( 3.787805069398321837E-14, -1.328583172542393194E-15, 10.84870489570874241 ) ) ;
#189 = EDGE_LOOP ( 'NONE', ( #240 ) ) ;
#190 = PRODUCT_DEFINITION_SHAPE ( 'NONE', 'NONE',  #72 ) ;
#191 = EDGE_LOOP ( 'NONE', ( #19 ) ) ;
#192 = DIRECTION ( 'NONE',  ( -3.491481338843133355E-15, 1.224646799147353207E-16, -1.000000000000000000 ) ) ;
#193 = AXIS2_PLACEMENT_3D ( 'NONE', #253, #71, #225 ) ;
#194 = DIRECTION ( 'NONE',  ( -3.491481338843133355E-15, 1.224646799147353207E-16, -1.000000000000000000 ) ) ;
#195 = ADVANCED_FACE ( 'NONE', ( #169, #274 ), #124, .T. ) ;
#196 = CARTESIAN_POINT ( 'NONE',  ( 8.728703347107825500E-16, -3.061616997868380553E-17, 0.2499999999999997780 ) ) ;
#197 = FACE_OUTER_BOUND ( 'NONE', #41, .T. ) ;
#198 = CARTESIAN_POINT ( 'NONE',  ( 2.444036937190193601E-13, -8.572527594031472993E-15, 70.00000000000000000 ) ) ;
#199 = MECHANICAL_CONTEXT ( 'NONE', #277, 'mechanical' ) ;
#200 = EDGE_LOOP ( 'NONE', ( #254 ) ) ;
#201 = CIRCLE ( 'NONE', #220, 1.200000000000001510 ) ;
#202 = DATE_AND_TIME ( #128, #209 ) ;
#203 = CC_DESIGN_DATE_AND_TIME_ASSIGNMENT ( #100, #208, ( #94 ) ) ;
#204 = CARTESIAN_POINT ( 'NONE',  ( 3.491481338843133355E-14, -1.224646799147353256E-15, 10.00000000000000000 ) ) ;
#205 = PERSON ( 'UNSPECIFIED', 'UNSPECIFIED', 'UNSPECIFIED', ('UNSPECIFIED'), ('UNSPECIFIED'), ('UNSPECIFIED') ) ;
#206 = AXIS2_PLACEMENT_3D ( 'NONE', #265, #95, #215 ) ;
#207 = EDGE_CURVE ( 'NONE', #164, #164, #78, .T. ) ;
#208 = DATE_TIME_ROLE ( 'classification_date' ) ;
#209 = LOCAL_TIME ( 10, 36, 16.00000000000000000, #283 ) ;
#210 = EDGE_LOOP ( 'NONE', ( #119 ) ) ;
#211 = ORIENTED_EDGE ( 'NONE', *, *, #167, .T. ) ;
#212 = ADVANCED_FACE ( 'NONE', ( #12, #197 ), #69, .T. ) ;
#213 = CARTESIAN_POINT ( 'NONE',  ( 2.444036937190193601E-13, 8.998558695971026591E-33, 70.00000000000000000 ) ) ;
#214 = CARTESIAN_POINT ( 'NONE',  ( -7.439946715860661277E-31, 2.609582021831615707E-32, -2.130885430516381234E-16 ) ) ;
#215 = DIRECTION ( 'NONE',  ( -4.275831445896958607E-31, -1.000000000000000000, -1.224646799147353207E-16 ) ) ;
#216 = DIRECTION ( 'NONE',  ( -3.491481338843133355E-15, 1.224646799147353207E-16, -1.000000000000000000 ) ) ;
#217 = PLANE ( 'NONE',  #233 ) ;
#218 = VERTEX_POINT ( 'NONE', #48 ) ;
#219 = EDGE_CURVE ( 'NONE', #98, #98, #302, .T. ) ;
#220 = AXIS2_PLACEMENT_3D ( 'NONE', #198, #238, #123 ) ;
#221 = DIRECTION ( 'NONE',  ( -3.491481338843133355E-15, 1.224646799147353207E-16, -1.000000000000000000 ) ) ;
#222 = VERTEX_POINT ( 'NONE', #139 ) ;
#223 = COORDINATED_UNIVERSAL_TIME_OFFSET ( 1, 0, .AHEAD. ) ;
#224 = FACE_BOUND ( 'NONE', #189, .T. ) ;
#225 = DIRECTION ( 'NONE',  ( 0.0000000000000000000, 1.000000000000000000, 0.0000000000000000000 ) ) ;
#226 = PERSON_AND_ORGANIZATION_ROLE ( 'classification_officer' ) ;
#227 = PERSON_AND_ORGANIZATION ( #205, #299 ) ;
#228 = APPROVAL_PERSON_ORGANIZATION ( #281, #282, #235 ) ;
#229 = APPROVAL_DATE_TIME ( #202, #282 ) ;
#230 = PERSON_AND_ORGANIZATION ( #205, #299 ) ;
#231 = APPROVAL_STATUS ( 'not_yet_approved' ) ;
#232 = EDGE_CURVE ( 'NONE', #222, #222, #103, .T. ) ;
#233 = AXIS2_PLACEMENT_3D ( 'NONE', #293, #9, #44 ) ;
#234 = AXIS2_PLACEMENT_3D ( 'NONE', #117, #194, #52 ) ;
#235 = APPROVAL_ROLE ( '' ) ;
#236 = CC_DESIGN_PERSON_AND_ORGANIZATION_ASSIGNMENT ( #227, #226, ( #94 ) ) ;
#237 = ORIENTED_EDGE ( 'NONE', *, *, #146, .F. ) ;
#238 = DIRECTION ( 'NONE',  ( -3.491481338843133355E-15, 1.224646799147353207E-16, -1.000000000000000000 ) ) ;
#239 = ORIENTED_EDGE ( 'NONE', *, *, #207, .T. ) ;
#240 = ORIENTED_EDGE ( 'NONE', *, *, #219, .T. ) ;
#241 = CARTESIAN_POINT ( 'NONE',  ( 2.433562493173664138E-13, 1.499999999999992673, 69.70000000000001705 ) ) ;
#242 = CIRCLE ( 'NONE', #86, 1.989999999999989999 ) ;
#243 = AXIS2_PLACEMENT_3D ( 'NONE', #7, #216, #270 ) ;
#244 = DIRECTION ( 'NONE',  ( -3.491481338843133355E-15, 1.224646799147353207E-16, -1.000000000000000000 ) ) ;
#245 = APPROVAL ( #303, 'UNSPECIFIED' ) ;
#246 = FACE_OUTER_BOUND ( 'NONE', #2, .T. ) ;
#247 = PLANE ( 'NONE',  #206 ) ;
#248 = CARTESIAN_POINT ( 'NONE',  ( 3.491481338843133355E-14, 1.989999999999988667, 10.00000000000000000 ) ) ;
#249 = PLANE ( 'NONE',  #21 ) ;
#250 = DIRECTION ( 'NONE',  ( -3.491481338843133355E-15, 1.224646799147353207E-16, -1.000000000000000000 ) ) ;
#251 = SECURITY_CLASSIFICATION_LEVEL ( 'unclassified' ) ;
#252 = DIRECTION ( 'NONE',  ( 0.0000000000000000000, 1.000000000000000000, 0.0000000000000000000 ) ) ;
#253 = CARTESIAN_POINT ( 'NONE',  ( 2.433562493173664138E-13, -8.535788190057053710E-15, 69.70000000000001705 ) ) ;
#254 = ORIENTED_EDGE ( 'NONE', *, *, #219, .F. ) ;
#255 = PERSON_AND_ORGANIZATION_ROLE ( 'creator' ) ;
#256 = EDGE_CURVE ( 'NONE', #26, #26, #295, .T. ) ;
#257 = APPROVAL_ROLE ( '' ) ;
#258 = FACE_OUTER_BOUND ( 'NONE', #147, .T. ) ;
#259 = APPROVAL_PERSON_ORGANIZATION ( #105, #156, #25 ) ;
#260 = FACE_OUTER_BOUND ( 'NONE', #186, .T. ) ;
#261 = EDGE_LOOP ( 'NONE', ( #237 ) ) ;
#262 = MANIFOLD_SOLID_BREP ( 'Corps-Déplacer/Copier1[1]', #178 ) ;
#263 = AXIS2_PLACEMENT_3D ( 'NONE', #268, #46, #31 ) ;
#264 = ADVANCED_BREP_SHAPE_REPRESENTATION ( '321624', ( #262, #149, #113 ), #76 ) ;
#265 = CARTESIAN_POINT ( 'NONE',  ( 3.491481338843133355E-14, 1.492260983748538960E-32, 10.00000000000000000 ) ) ;
#266 = DIRECTION ( 'NONE',  ( -4.275831445896958607E-31, -1.000000000000000000, -1.224646799147353207E-16 ) ) ;
#267 = APPROVAL_STATUS ( 'not_yet_approved' ) ;
#268 = CARTESIAN_POINT ( 'NONE',  ( 0.0000000000000000000, 0.0000000000000000000, 0.0000000000000000000 ) ) ;
#269 = CIRCLE ( 'NONE', #179, 1.739999999999989111 ) ;
#270 = DIRECTION ( 'NONE',  ( 0.0000000000000000000, 1.000000000000000000, 0.0000000000000000000 ) ) ;
#271 = ORIENTED_EDGE ( 'NONE', *, *, #70, .T. ) ;
#272 = DIRECTION ( 'NONE',  ( 4.275831445896958607E-31, 1.000000000000000000, 1.224646799147353454E-16 ) ) ;
#273 = ORIENTED_EDGE ( 'NONE', *, *, #80, .F. ) ;
#274 = FACE_OUTER_BOUND ( 'NONE', #90, .T. ) ;
#275 = CC_DESIGN_SECURITY_CLASSIFICATION ( #94, ( #67 ) ) ;
#276 = COORDINATED_UNIVERSAL_TIME_OFFSET ( 1, 0, .AHEAD. ) ;
#277 = APPLICATION_CONTEXT ( 'configuration controlled 3d designs of mechanical parts and assemblies' ) ;
#278 = DIRECTION ( 'NONE',  ( -3.491481338843133355E-15, 1.224646799147353207E-16, -1.000000000000000000 ) ) ;
#279 = LOCAL_TIME ( 10, 36, 16.00000000000000000, #154 ) ;
#280 = ADVANCED_FACE ( 'NONE', ( #246, #92 ), #172, .T. ) ;
#281 = PERSON_AND_ORGANIZATION ( #205, #299 ) ;
#282 = APPROVAL ( #231, 'UNSPECIFIED' ) ;
#283 = COORDINATED_UNIVERSAL_TIME_OFFSET ( 1, 0, .AHEAD. ) ;
#284 = ORIENTED_EDGE ( 'NONE', *, *, #232, .T. ) ;
#285 = CALENDAR_DATE ( 2021, 2, 12 ) ;
#286 = AXIS2_PLACEMENT_3D ( 'NONE', #73, #111, #168 ) ;
#287 = DIRECTION ( 'NONE',  ( -3.491481338843133355E-15, 1.224646799147353207E-16, -1.000000000000000000 ) ) ;
#288 = AXIS2_PLACEMENT_3D ( 'NONE', #56, #244, #140 ) ;
#289 = FACE_OUTER_BOUND ( 'NONE', #170, .T. ) ;
#290 = CYLINDRICAL_SURFACE ( 'NONE', #263, 1.499999999999996891 ) ;
#291 = ORIENTED_EDGE ( 'NONE', *, *, #146, .T. ) ;
#292 = VERTEX_POINT ( 'NONE', #23 ) ;
#293 = CARTESIAN_POINT ( 'NONE',  ( -3.719973357930330639E-31, 1.304791010915807853E-32, -1.065442715258190617E-16 ) ) ;
#294 = VERTEX_POINT ( 'NONE', #241 ) ;
#295 = CIRCLE ( 'NONE', #14, 1.499999999999992895 ) ;
#296 = FACE_OUTER_BOUND ( 'NONE', #185, .T. ) ;
#297 = DIRECTION ( 'NONE',  ( 0.0000000000000000000, 1.000000000000000000, 0.0000000000000000000 ) ) ;
#298 = CALENDAR_DATE ( 2021, 2, 12 ) ;
#299 = ORGANIZATION ( 'UNSPECIFIED', 'UNSPECIFIED', '' ) ;
#300 = DIRECTION ( 'NONE',  ( 0.0000000000000000000, 1.000000000000000000, 0.0000000000000000000 ) ) ;
#301 = DIRECTION ( 'NONE',  ( 1.000000000000000000, 0.0000000000000000000, 0.0000000000000000000 ) ) ;
#302 = CIRCLE ( 'NONE', #129, 1.499999999999992895 ) ;
#303 = APPROVAL_STATUS ( 'not_yet_approved' ) ;
ENDSEC;
END-ISO-10303-21;
