ISO-10303-21;
HEADER;
FILE_DESCRIPTION (( 'STEP AP203' ),
    '1' );
FILE_NAME ('321623.step',
    '2021-12-02T09:36:15',
    ( '' ),
    ( '' ),
    'SwSTEP 2.0',
    'SolidWorks 2019',
    '' );
FILE_SCHEMA (( 'CONFIG_CONTROL_DESIGN' ));
ENDSEC;

DATA;
#1 = AXIS2_PLACEMENT_3D ( 'NONE', #193, #270, #82 ) ;
#2 =( LENGTH_UNIT ( ) NAMED_UNIT ( * ) SI_UNIT ( .MILLI., .METRE. ) );
#3 = CARTESIAN_POINT ( 'NONE',  ( 2.444036937190193601E-13, -8.572527594031472993E-15, 70.00000000000000000 ) ) ;
#4 = DIRECTION ( 'NONE',  ( -3.491481338843133355E-15, 1.224646799147353207E-16, -1.000000000000000000 ) ) ;
#5 = LOCAL_TIME ( 10, 36, 15.00000000000000000, #210 ) ;
#6 = FACE_BOUND ( 'NONE', #79, .T. ) ;
#7 = EDGE_LOOP ( 'NONE', ( #37 ) ) ;
#8 = APPLICATION_PROTOCOL_DEFINITION ( 'international standard', 'config_control_design', 1994, #121 ) ;
#9 = EDGE_LOOP ( 'NONE', ( #119 ) ) ;
#10 = DATE_AND_TIME ( #15, #5 ) ;
#11 = DIRECTION ( 'NONE',  ( -3.491481338843133355E-15, 1.224646799147353207E-16, -1.000000000000000000 ) ) ;
#12 = DIRECTION ( 'NONE',  ( 0.0000000000000000000, 1.000000000000000000, 0.0000000000000000000 ) ) ;
#13 = PLANE ( 'NONE',  #220 ) ;
#14 = CARTESIAN_POINT ( 'NONE',  ( 3.491481338843133355E-14, -1.224646799147353256E-15, 10.00000000000000000 ) ) ;
#15 = CALENDAR_DATE ( 2021, 2, 12 ) ;
#16 = AXIS2_PLACEMENT_3D ( 'NONE', #132, #185, #218 ) ;
#17 = CYLINDRICAL_SURFACE ( 'NONE', #183, 1.984999999999990328 ) ;
#18 = ADVANCED_FACE ( 'NONE', ( #236 ), #13, .F. ) ;
#19 = CALENDAR_DATE ( 2021, 2, 12 ) ;
#20 = DIRECTION ( 'NONE',  ( 4.275831445896958607E-31, 1.000000000000000000, 1.224646799147352961E-16 ) ) ;
#21 = CARTESIAN_POINT ( 'NONE',  ( 2.444036937190193601E-13, -8.572527594031472993E-15, 70.00000000000000000 ) ) ;
#22 = CARTESIAN_POINT ( 'NONE',  ( 8.728703347107825500E-16, -3.061616997868380553E-17, 0.2499999999999997780 ) ) ;
#23 = CC_DESIGN_PERSON_AND_ORGANIZATION_ASSIGNMENT ( #208, #294, ( #224 ) ) ;
#24 = APPROVAL ( #266, 'UNSPECIFIED' ) ;
#25 = EDGE_CURVE ( 'NONE', #84, #84, #160, .T. ) ;
#26 = DIRECTION ( 'NONE',  ( 0.0000000000000000000, 1.000000000000000000, 0.0000000000000000000 ) ) ;
#27 = CONICAL_SURFACE ( 'NONE', #97, 1.734999999999989440, 0.7853981633974500554 ) ;
#28 = EDGE_LOOP ( 'NONE', ( #129 ) ) ;
#29 = APPROVAL_DATE_TIME ( #232, #277 ) ;
#30 = EDGE_CURVE ( 'NONE', #147, #147, #226, .T. ) ;
#31 = AXIS2_PLACEMENT_3D ( 'NONE', #253, #50, #26 ) ;
#32 = PERSON_AND_ORGANIZATION ( #75, #274 ) ;
#33 = APPLICATION_CONTEXT ( 'configuration controlled 3d designs of mechanical parts and assemblies' ) ;
#34 = DATE_TIME_ROLE ( 'creation_date' ) ;
#35 = CONICAL_SURFACE ( 'NONE', #201, 1.200000000000001510, 0.7853981633974566057 ) ;
#36 = LOCAL_TIME ( 10, 36, 15.00000000000000000, #148 ) ;
#37 = ORIENTED_EDGE ( 'NONE', *, *, #30, .T. ) ;
#38 = EDGE_LOOP ( 'NONE', ( #90 ) ) ;
#39 = EDGE_CURVE ( 'NONE', #105, #105, #273, .T. ) ;
#40 = DIRECTION ( 'NONE',  ( -3.491481338843133355E-15, 1.224646799147353207E-16, -1.000000000000000000 ) ) ;
#41 = EDGE_LOOP ( 'NONE', ( #115 ) ) ;
#42 = CARTESIAN_POINT ( 'NONE',  ( 3.491481338843133355E-14, 1.984999999999988995, 10.00000000000000000 ) ) ;
#43 = ADVANCED_FACE ( 'NONE', ( #289 ), #151, .F. ) ;
#44 = APPROVAL_PERSON_ORGANIZATION ( #32, #94, #194 ) ;
#45 = CARTESIAN_POINT ( 'NONE',  ( 2.444036937190193601E-13, 8.998558695971026591E-33, 70.00000000000000000 ) ) ;
#46 = CARTESIAN_POINT ( 'NONE',  ( 8.728703347107833388E-16, 1.984999999999990328, 0.2500000000000000000 ) ) ;
#47 = MANIFOLD_SOLID_BREP ( 'Corps-Déplacer/Copier1[1]', #197 ) ;
#48 = DIRECTION ( 'NONE',  ( 4.275831445896958607E-31, 1.000000000000000000, 1.224646799147353207E-16 ) ) ;
#49 = CARTESIAN_POINT ( 'NONE',  ( 0.0000000000000000000, 1.734999999999989440, 0.0000000000000000000 ) ) ;
#50 = DIRECTION ( 'NONE',  ( -3.491481338843133355E-15, 1.224646799147353207E-16, -1.000000000000000000 ) ) ;
#51 = FACE_BOUND ( 'NONE', #244, .T. ) ;
#52 = CYLINDRICAL_SURFACE ( 'NONE', #16, 1.499999999999996891 ) ;
#53 = LOCAL_TIME ( 10, 36, 15.00000000000000000, #80 ) ;
#54 = FACE_OUTER_BOUND ( 'NONE', #117, .T. ) ;
#55 = DESIGN_CONTEXT ( 'detailed design', #33, 'design' ) ;
#56 = CARTESIAN_POINT ( 'NONE',  ( 0.0000000000000000000, 0.0000000000000000000, 0.0000000000000000000 ) ) ;
#57 = COORDINATED_UNIVERSAL_TIME_OFFSET ( 1, 0, .AHEAD. ) ;
#58 = ADVANCED_FACE ( 'NONE', ( #179, #93 ), #17, .T. ) ;
#59 = ORIENTED_EDGE ( 'NONE', *, *, #99, .F. ) ;
#60 = MANIFOLD_SOLID_BREP ( 'Corps-Déplacer/Copier1[2]', #91 ) ;
#61 = CARTESIAN_POINT ( 'NONE',  ( 0.0000000000000000000, 0.0000000000000000000, 0.0000000000000000000 ) ) ;
#62 = CC_DESIGN_APPROVAL ( #24, ( #224 ) ) ;
#63 = SHAPE_DEFINITION_REPRESENTATION ( #77, #76 ) ;
#64 = ADVANCED_FACE ( 'NONE', ( #245 ), #71, .T. ) ;
#65 = CARTESIAN_POINT ( 'NONE',  ( 2.444036937190193601E-13, -8.572527594031472993E-15, 70.00000000000000000 ) ) ;
#66 = ORIENTED_EDGE ( 'NONE', *, *, #225, .T. ) ;
#67 = VERTEX_POINT ( 'NONE', #49 ) ;
#68 = EDGE_LOOP ( 'NONE', ( #158 ) ) ;
#69 = DIRECTION ( 'NONE',  ( 0.0000000000000000000, 1.000000000000000000, 0.0000000000000000000 ) ) ;
#70 = PERSON_AND_ORGANIZATION ( #75, #274 ) ;
#71 = PLANE ( 'NONE',  #150 ) ;
#72 = AXIS2_PLACEMENT_3D ( 'NONE', #258, #137, #113 ) ;
#73 = CARTESIAN_POINT ( 'NONE',  ( 3.784781357862044333E-14, 1.499999999999991562, 10.84004464167089843 ) ) ;
#74 = FACE_OUTER_BOUND ( 'NONE', #112, .T. ) ;
#75 = PERSON ( 'UNSPECIFIED', 'UNSPECIFIED', 'UNSPECIFIED', ('UNSPECIFIED'), ('UNSPECIFIED'), ('UNSPECIFIED') ) ;
#76 = ADVANCED_BREP_SHAPE_REPRESENTATION ( '321623', ( #47, #60, #72 ), #252 ) ;
#77 = PRODUCT_DEFINITION_SHAPE ( 'NONE', 'NONE',  #134 ) ;
#78 = AXIS2_PLACEMENT_3D ( 'NONE', #61, #142, #286 ) ;
#79 = EDGE_LOOP ( 'NONE', ( #228 ) ) ;
#80 = COORDINATED_UNIVERSAL_TIME_OFFSET ( 1, 0, .AHEAD. ) ;
#81 = CALENDAR_DATE ( 2021, 2, 12 ) ;
#82 = DIRECTION ( 'NONE',  ( 0.0000000000000000000, 1.000000000000000000, 0.0000000000000000000 ) ) ;
#83 = PERSON_AND_ORGANIZATION ( #75, #274 ) ;
#84 = VERTEX_POINT ( 'NONE', #171 ) ;
#85 = EDGE_CURVE ( 'NONE', #128, #128, #259, .T. ) ;
#86 = AXIS2_PLACEMENT_3D ( 'NONE', #98, #195, #299 ) ;
#87 = FACE_OUTER_BOUND ( 'NONE', #288, .T. ) ;
#88 = ORIENTED_EDGE ( 'NONE', *, *, #85, .T. ) ;
#89 = FACE_OUTER_BOUND ( 'NONE', #237, .T. ) ;
#90 = ORIENTED_EDGE ( 'NONE', *, *, #200, .T. ) ;
#91 = CLOSED_SHELL ( 'NONE', ( #175, #58, #276, #64, #18, #145, #173 ) ) ;
#92 = AXIS2_PLACEMENT_3D ( 'NONE', #14, #170, #69 ) ;
#93 = FACE_OUTER_BOUND ( 'NONE', #41, .T. ) ;
#94 = APPROVAL ( #287, 'UNSPECIFIED' ) ;
#95 = VERTEX_POINT ( 'NONE', #254 ) ;
#96 = PERSON_AND_ORGANIZATION_ROLE ( 'design_owner' ) ;
#97 = AXIS2_PLACEMENT_3D ( 'NONE', #283, #143, #265 ) ;
#98 = CARTESIAN_POINT ( 'NONE',  ( 2.433562493173664138E-13, -8.535788190057053710E-15, 69.70000000000001705 ) ) ;
#99 = EDGE_CURVE ( 'NONE', #95, #95, #191, .T. ) ;
#100 = CARTESIAN_POINT ( 'NONE',  ( 2.444036937190193601E-13, -8.572527594031472993E-15, 70.00000000000000000 ) ) ;
#101 = AXIS2_PLACEMENT_3D ( 'NONE', #125, #235, #219 ) ;
#102 = CONICAL_SURFACE ( 'NONE', #31, 1.984999999999990328, 0.5235987755983000369 ) ;
#103 = ORIENTED_EDGE ( 'NONE', *, *, #30, .F. ) ;
#104 = DIRECTION ( 'NONE',  ( -3.491481338843133355E-15, 1.224646799147353207E-16, -1.000000000000000000 ) ) ;
#105 = VERTEX_POINT ( 'NONE', #73 ) ;
#106 = AXIS2_PLACEMENT_3D ( 'NONE', #214, #152, #130 ) ;
#107 = APPROVAL_DATE_TIME ( #164, #94 ) ;
#108 = CIRCLE ( 'NONE', #292, 1.734999999999989440 ) ;
#109 = UNCERTAINTY_MEASURE_WITH_UNIT (LENGTH_MEASURE( 1.000000000000000082E-05 ), #2, 'distance_accuracy_value', 'NONE');
#110 = AXIS2_PLACEMENT_3D ( 'NONE', #100, #215, #212 ) ;
#111 = AXIS2_PLACEMENT_3D ( 'NONE', #118, #11, #144 ) ;
#112 = EDGE_LOOP ( 'NONE', ( #168 ) ) ;
#113 = DIRECTION ( 'NONE',  ( 1.000000000000000000, 0.0000000000000000000, 0.0000000000000000000 ) ) ;
#114 = CC_DESIGN_DATE_AND_TIME_ASSIGNMENT ( #10, #34, ( #134 ) ) ;
#115 = ORIENTED_EDGE ( 'NONE', *, *, #211, .F. ) ;
#116 = CONICAL_SURFACE ( 'NONE', #205, 1.200000000000001510, 0.7853981633974566057 ) ;
#117 = EDGE_LOOP ( 'NONE', ( #203 ) ) ;
#118 = CARTESIAN_POINT ( 'NONE',  ( 3.491481338843133355E-14, -1.224646799147353256E-15, 10.00000000000000000 ) ) ;
#119 = ORIENTED_EDGE ( 'NONE', *, *, #99, .T. ) ;
#120 = PRODUCT ( '321623', '321623', '', ( #140 ) ) ;
#121 = APPLICATION_CONTEXT ( 'configuration controlled 3d designs of mechanical parts and assemblies' ) ;
#122 = CARTESIAN_POINT ( 'NONE',  ( 3.491481338843133355E-14, -1.224646799147353256E-15, 10.00000000000000000 ) ) ;
#123 = EDGE_LOOP ( 'NONE', ( #267 ) ) ;
#124 = AXIS2_PLACEMENT_3D ( 'NONE', #45, #248, #48 ) ;
#125 = CARTESIAN_POINT ( 'NONE',  ( 2.433562493173664138E-13, -8.535788190057053710E-15, 69.70000000000001705 ) ) ;
#126 = APPROVAL_DATE_TIME ( #167, #24 ) ;
#127 = CARTESIAN_POINT ( 'NONE',  ( -3.709283779315588719E-31, 1.301041611459153729E-32, -1.062381098260322426E-16 ) ) ;
#128 = VERTEX_POINT ( 'NONE', #156 ) ;
#129 = ORIENTED_EDGE ( 'NONE', *, *, #39, .F. ) ;
#130 = DIRECTION ( 'NONE',  ( -4.275831445896958607E-31, -1.000000000000000000, -1.224646799147353207E-16 ) ) ;
#131 = EDGE_CURVE ( 'NONE', #250, #250, #188, .T. ) ;
#132 = CARTESIAN_POINT ( 'NONE',  ( 0.0000000000000000000, 0.0000000000000000000, 0.0000000000000000000 ) ) ;
#133 = FACE_OUTER_BOUND ( 'NONE', #213, .T. ) ;
#134 = PRODUCT_DEFINITION ( 'UNKNOWN', '', #162, #55 ) ;
#135 = PERSON_AND_ORGANIZATION ( #75, #274 ) ;
#136 = LOCAL_TIME ( 10, 36, 15.00000000000000000, #57 ) ;
#137 = DIRECTION ( 'NONE',  ( 0.0000000000000000000, 0.0000000000000000000, 1.000000000000000000 ) ) ;
#138 = ORIENTED_EDGE ( 'NONE', *, *, #131, .F. ) ;
#139 = EDGE_LOOP ( 'NONE', ( #138 ) ) ;
#140 = MECHANICAL_CONTEXT ( 'NONE', #121, 'mechanical' ) ;
#141 = CIRCLE ( 'NONE', #239, 1.984999999999990328 ) ;
#142 = DIRECTION ( 'NONE',  ( -3.491481338843133355E-15, 1.224646799147353207E-16, -1.000000000000000000 ) ) ;
#143 = DIRECTION ( 'NONE',  ( 3.491481338843133355E-15, -1.224646799147353207E-16, 1.000000000000000000 ) ) ;
#144 = DIRECTION ( 'NONE',  ( 0.0000000000000000000, 1.000000000000000000, 0.0000000000000000000 ) ) ;
#145 = ADVANCED_FACE ( 'NONE', ( #222, #51 ), #35, .T. ) ;
#146 = CARTESIAN_POINT ( 'NONE',  ( 3.784781357862044333E-14, -1.327522597303668347E-15, 10.84004464167089843 ) ) ;
#147 = VERTEX_POINT ( 'NONE', #242 ) ;
#148 = COORDINATED_UNIVERSAL_TIME_OFFSET ( 1, 0, .AHEAD. ) ;
#149 = CARTESIAN_POINT ( 'NONE',  ( -7.418567558631177439E-31, 2.602083222918307459E-32, -2.124762196520644851E-16 ) ) ;
#150 = AXIS2_PLACEMENT_3D ( 'NONE', #127, #169, #247 ) ;
#151 = PLANE ( 'NONE',  #106 ) ;
#152 = DIRECTION ( 'NONE',  ( 3.491481338843133355E-15, -1.224646799147353207E-16, 1.000000000000000000 ) ) ;
#153 = COORDINATED_UNIVERSAL_TIME_OFFSET ( 1, 0, .AHEAD. ) ;
#154 = CC_DESIGN_APPROVAL ( #277, ( #134 ) ) ;
#155 = CALENDAR_DATE ( 2021, 2, 12 ) ;
#156 = CARTESIAN_POINT ( 'NONE',  ( 3.491481338843133355E-14, 1.984999999999988995, 10.00000000000000000 ) ) ;
#157 = APPROVAL_ROLE ( '' ) ;
#158 = ORIENTED_EDGE ( 'NONE', *, *, #225, .F. ) ;
#159 = DIRECTION ( 'NONE',  ( -3.491481338843133355E-15, 1.224646799147353207E-16, -1.000000000000000000 ) ) ;
#160 = CIRCLE ( 'NONE', #110, 1.200000000000001510 ) ;
#161 = ADVANCED_FACE ( 'NONE', ( #133, #202 ), #116, .T. ) ;
#162 = PRODUCT_DEFINITION_FORMATION_WITH_SPECIFIED_SOURCE ( 'ANY', '', #120, .NOT_KNOWN. ) ;
#163 = CC_DESIGN_PERSON_AND_ORGANIZATION_ASSIGNMENT ( #83, #293, ( #134 ) ) ;
#164 = DATE_AND_TIME ( #81, #53 ) ;
#165 = ORIENTED_EDGE ( 'NONE', *, *, #25, .F. ) ;
#166 = PERSON_AND_ORGANIZATION ( #75, #274 ) ;
#167 = DATE_AND_TIME ( #19, #36 ) ;
#168 = ORIENTED_EDGE ( 'NONE', *, *, #200, .F. ) ;
#169 = DIRECTION ( 'NONE',  ( -3.491481338843133355E-15, 1.224646799147353207E-16, -1.000000000000000000 ) ) ;
#170 = DIRECTION ( 'NONE',  ( -3.491481338843133355E-15, 1.224646799147353207E-16, -1.000000000000000000 ) ) ;
#171 = CARTESIAN_POINT ( 'NONE',  ( 2.444036937190193601E-13, 1.199999999999992628, 70.00000000000000000 ) ) ;
#172 = APPROVAL_ROLE ( '' ) ;
#173 = ADVANCED_FACE ( 'NONE', ( #238, #87 ), #263, .T. ) ;
#174 = PLANE ( 'NONE',  #124 ) ;
#175 = ADVANCED_FACE ( 'NONE', ( #181, #74 ), #102, .T. ) ;
#176 = APPROVAL_PERSON_ORGANIZATION ( #187, #277, #157 ) ;
#177 = FACE_OUTER_BOUND ( 'NONE', #123, .T. ) ;
#178 = CC_DESIGN_PERSON_AND_ORGANIZATION_ASSIGNMENT ( #261, #291, ( #162 ) ) ;
#179 = FACE_OUTER_BOUND ( 'NONE', #38, .T. ) ;
#180 = ADVANCED_FACE ( 'NONE', ( #206, #256 ), #52, .T. ) ;
#181 = FACE_BOUND ( 'NONE', #275, .T. ) ;
#182 = DATE_AND_TIME ( #155, #221 ) ;
#183 = AXIS2_PLACEMENT_3D ( 'NONE', #56, #240, #20 ) ;
#184 = DIRECTION ( 'NONE',  ( 0.0000000000000000000, 1.000000000000000000, 0.0000000000000000000 ) ) ;
#185 = DIRECTION ( 'NONE',  ( -3.491481338843133355E-15, 1.224646799147353207E-16, -1.000000000000000000 ) ) ;
#186 = EDGE_LOOP ( 'NONE', ( #88 ) ) ;
#187 = PERSON_AND_ORGANIZATION ( #75, #274 ) ;
#188 = CIRCLE ( 'NONE', #209, 1.499999999999992895 ) ;
#189 = EDGE_LOOP ( 'NONE', ( #66 ) ) ;
#190 = ORIENTED_EDGE ( 'NONE', *, *, #290, .T. ) ;
#191 = CIRCLE ( 'NONE', #1, 1.200000000000001510 ) ;
#192 =( NAMED_UNIT ( * ) SI_UNIT ( $, .STERADIAN. ) SOLID_ANGLE_UNIT ( ) );
#193 = CARTESIAN_POINT ( 'NONE',  ( 2.444036937190193601E-13, -8.572527594031472993E-15, 70.00000000000000000 ) ) ;
#194 = APPROVAL_ROLE ( '' ) ;
#195 = DIRECTION ( 'NONE',  ( -3.491481338843133355E-15, 1.224646799147353207E-16, -1.000000000000000000 ) ) ;
#196 = EDGE_LOOP ( 'NONE', ( #165 ) ) ;
#197 = CLOSED_SHELL ( 'NONE', ( #43, #227, #180, #161, #260 ) ) ;
#198 = CONICAL_SURFACE ( 'NONE', #92, 1.984999999999990328, 0.5235987755983000369 ) ;
#199 = CARTESIAN_POINT ( 'NONE',  ( 3.784781357862044333E-14, -1.327522597303668347E-15, 10.84004464167089843 ) ) ;
#200 = EDGE_CURVE ( 'NONE', #301, #301, #246, .T. ) ;
#201 = AXIS2_PLACEMENT_3D ( 'NONE', #21, #4, #184 ) ;
#202 = FACE_BOUND ( 'NONE', #9, .T. ) ;
#203 = ORIENTED_EDGE ( 'NONE', *, *, #85, .F. ) ;
#204 = DIRECTION ( 'NONE',  ( -3.491481338843133355E-15, 1.224646799147353207E-16, -1.000000000000000000 ) ) ;
#205 = AXIS2_PLACEMENT_3D ( 'NONE', #3, #249, #12 ) ;
#206 = FACE_OUTER_BOUND ( 'NONE', #139, .T. ) ;
#207 = APPLICATION_PROTOCOL_DEFINITION ( 'international standard', 'config_control_design', 1994, #33 ) ;
#208 = PERSON_AND_ORGANIZATION ( #75, #274 ) ;
#209 = AXIS2_PLACEMENT_3D ( 'NONE', #146, #40, #241 ) ;
#210 = COORDINATED_UNIVERSAL_TIME_OFFSET ( 1, 0, .AHEAD. ) ;
#211 = EDGE_CURVE ( 'NONE', #302, #302, #141, .T. ) ;
#212 = DIRECTION ( 'NONE',  ( 0.0000000000000000000, 1.000000000000000000, 0.0000000000000000000 ) ) ;
#213 = EDGE_LOOP ( 'NONE', ( #103 ) ) ;
#214 = CARTESIAN_POINT ( 'NONE',  ( 3.491481338843133355E-14, 1.488511584291884562E-32, 10.00000000000000000 ) ) ;
#215 = DIRECTION ( 'NONE',  ( -3.491481338843133355E-15, 1.224646799147353207E-16, -1.000000000000000000 ) ) ;
#216 = CC_DESIGN_APPROVAL ( #94, ( #162 ) ) ;
#217 = CC_DESIGN_SECURITY_CLASSIFICATION ( #224, ( #162 ) ) ;
#218 = DIRECTION ( 'NONE',  ( 4.275831445896958607E-31, 1.000000000000000000, 1.224646799147353454E-16 ) ) ;
#219 = DIRECTION ( 'NONE',  ( 0.0000000000000000000, 1.000000000000000000, 0.0000000000000000000 ) ) ;
#220 = AXIS2_PLACEMENT_3D ( 'NONE', #65, #159, #233 ) ;
#221 = LOCAL_TIME ( 10, 36, 15.00000000000000000, #153 ) ;
#222 = FACE_OUTER_BOUND ( 'NONE', #295, .T. ) ;
#223 = VERTEX_POINT ( 'NONE', #243 ) ;
#224 = SECURITY_CLASSIFICATION ( '', '', #230 ) ;
#225 = EDGE_CURVE ( 'NONE', #67, #67, #108, .T. ) ;
#226 = CIRCLE ( 'NONE', #101, 1.500000000000001110 ) ;
#227 = ADVANCED_FACE ( 'NONE', ( #6, #54 ), #198, .T. ) ;
#228 = ORIENTED_EDGE ( 'NONE', *, *, #131, .T. ) ;
#229 = CC_DESIGN_PERSON_AND_ORGANIZATION_ASSIGNMENT ( #70, #264, ( #162 ) ) ;
#230 = SECURITY_CLASSIFICATION_LEVEL ( 'unclassified' ) ;
#231 = ORIENTED_EDGE ( 'NONE', *, *, #25, .T. ) ;
#232 = DATE_AND_TIME ( #262, #136 ) ;
#233 = DIRECTION ( 'NONE',  ( 4.275831445896958607E-31, 1.000000000000000000, 1.224646799147353207E-16 ) ) ;
#234 = ORIENTED_EDGE ( 'NONE', *, *, #39, .T. ) ;
#235 = DIRECTION ( 'NONE',  ( -3.491481338843133355E-15, 1.224646799147353207E-16, -1.000000000000000000 ) ) ;
#236 = FACE_OUTER_BOUND ( 'NONE', #196, .T. ) ;
#237 = EDGE_LOOP ( 'NONE', ( #59 ) ) ;
#238 = FACE_OUTER_BOUND ( 'NONE', #28, .T. ) ;
#239 = AXIS2_PLACEMENT_3D ( 'NONE', #22, #251, #300 ) ;
#240 = DIRECTION ( 'NONE',  ( -3.491481338843133355E-15, 1.224646799147353207E-16, -1.000000000000000000 ) ) ;
#241 = DIRECTION ( 'NONE',  ( 0.0000000000000000000, 1.000000000000000000, 0.0000000000000000000 ) ) ;
#242 = CARTESIAN_POINT ( 'NONE',  ( 2.433562493173664138E-13, 1.499999999999992673, 69.70000000000001705 ) ) ;
#243 = CARTESIAN_POINT ( 'NONE',  ( 2.433562493173664138E-13, 1.499999999999992673, 69.70000000000001705 ) ) ;
#244 = EDGE_LOOP ( 'NONE', ( #231 ) ) ;
#245 = FACE_OUTER_BOUND ( 'NONE', #189, .T. ) ;
#246 = CIRCLE ( 'NONE', #111, 1.984999999999990328 ) ;
#247 = DIRECTION ( 'NONE',  ( 4.275831445896958607E-31, 1.000000000000000000, 1.224646799147353207E-16 ) ) ;
#248 = DIRECTION ( 'NONE',  ( -3.491481338843133355E-15, 1.224646799147353207E-16, -1.000000000000000000 ) ) ;
#249 = DIRECTION ( 'NONE',  ( -3.491481338843133355E-15, 1.224646799147353207E-16, -1.000000000000000000 ) ) ;
#250 = VERTEX_POINT ( 'NONE', #271 ) ;
#251 = DIRECTION ( 'NONE',  ( -3.491481338843133355E-15, 1.224646799147353207E-16, -1.000000000000000000 ) ) ;
#252 =( GEOMETRIC_REPRESENTATION_CONTEXT ( 3 ) GLOBAL_UNCERTAINTY_ASSIGNED_CONTEXT ( ( #109 ) ) GLOBAL_UNIT_ASSIGNED_CONTEXT ( ( #2, #298, #192 ) ) REPRESENTATION_CONTEXT ( 'NONE', 'WORKASPACE' ) );
#253 = CARTESIAN_POINT ( 'NONE',  ( 3.491481338843133355E-14, -1.224646799147353256E-15, 10.00000000000000000 ) ) ;
#254 = CARTESIAN_POINT ( 'NONE',  ( 2.444036937190193601E-13, 1.199999999999992628, 70.00000000000000000 ) ) ;
#255 = DIRECTION ( 'NONE',  ( 4.275831445896958607E-31, 1.000000000000000000, 1.224646799147353207E-16 ) ) ;
#256 = FACE_OUTER_BOUND ( 'NONE', #7, .T. ) ;
#257 = ORIENTED_EDGE ( 'NONE', *, *, #290, .F. ) ;
#258 = CARTESIAN_POINT ( 'NONE',  ( 0.0000000000000000000, 0.0000000000000000000, 0.0000000000000000000 ) ) ;
#259 = CIRCLE ( 'NONE', #279, 1.984999999999990328 ) ;
#260 = ADVANCED_FACE ( 'NONE', ( #89 ), #174, .F. ) ;
#261 = PERSON_AND_ORGANIZATION ( #75, #274 ) ;
#262 = CALENDAR_DATE ( 2021, 2, 12 ) ;
#263 = CYLINDRICAL_SURFACE ( 'NONE', #78, 1.499999999999996891 ) ;
#264 = PERSON_AND_ORGANIZATION_ROLE ( 'creator' ) ;
#265 = DIRECTION ( 'NONE',  ( -4.275831445896958607E-31, -1.000000000000000000, -1.224646799147353207E-16 ) ) ;
#266 = APPROVAL_STATUS ( 'not_yet_approved' ) ;
#267 = ORIENTED_EDGE ( 'NONE', *, *, #211, .T. ) ;
#268 = CC_DESIGN_DATE_AND_TIME_ASSIGNMENT ( #182, #280, ( #224 ) ) ;
#269 = CIRCLE ( 'NONE', #86, 1.500000000000001110 ) ;
#270 = DIRECTION ( 'NONE',  ( -3.491481338843133355E-15, 1.224646799147353207E-16, -1.000000000000000000 ) ) ;
#271 = CARTESIAN_POINT ( 'NONE',  ( 3.784781357862044333E-14, 1.499999999999991562, 10.84004464167089843 ) ) ;
#272 = DIRECTION ( 'NONE',  ( 0.0000000000000000000, 1.000000000000000000, 0.0000000000000000000 ) ) ;
#273 = CIRCLE ( 'NONE', #284, 1.499999999999992895 ) ;
#274 = ORGANIZATION ( 'UNSPECIFIED', 'UNSPECIFIED', '' ) ;
#275 = EDGE_LOOP ( 'NONE', ( #234 ) ) ;
#276 = ADVANCED_FACE ( 'NONE', ( #177, #278 ), #27, .T. ) ;
#277 = APPROVAL ( #285, 'UNSPECIFIED' ) ;
#278 = FACE_BOUND ( 'NONE', #68, .T. ) ;
#279 = AXIS2_PLACEMENT_3D ( 'NONE', #122, #104, #296 ) ;
#280 = DATE_TIME_ROLE ( 'classification_date' ) ;
#281 = APPROVAL_PERSON_ORGANIZATION ( #166, #24, #172 ) ;
#282 = PRODUCT_RELATED_PRODUCT_CATEGORY ( 'detail', '', ( #120 ) ) ;
#283 = CARTESIAN_POINT ( 'NONE',  ( -7.418567558631177439E-31, 2.602083222918307459E-32, -2.124762196520644851E-16 ) ) ;
#284 = AXIS2_PLACEMENT_3D ( 'NONE', #199, #303, #272 ) ;
#285 = APPROVAL_STATUS ( 'not_yet_approved' ) ;
#286 = DIRECTION ( 'NONE',  ( 4.275831445896958607E-31, 1.000000000000000000, 1.224646799147353454E-16 ) ) ;
#287 = APPROVAL_STATUS ( 'not_yet_approved' ) ;
#288 = EDGE_LOOP ( 'NONE', ( #190 ) ) ;
#289 = FACE_OUTER_BOUND ( 'NONE', #186, .T. ) ;
#290 = EDGE_CURVE ( 'NONE', #223, #223, #269, .T. ) ;
#291 = PERSON_AND_ORGANIZATION_ROLE ( 'design_supplier' ) ;
#292 = AXIS2_PLACEMENT_3D ( 'NONE', #149, #204, #255 ) ;
#293 = PERSON_AND_ORGANIZATION_ROLE ( 'creator' ) ;
#294 = PERSON_AND_ORGANIZATION_ROLE ( 'classification_officer' ) ;
#295 = EDGE_LOOP ( 'NONE', ( #257 ) ) ;
#296 = DIRECTION ( 'NONE',  ( 0.0000000000000000000, 1.000000000000000000, 0.0000000000000000000 ) ) ;
#297 = CC_DESIGN_PERSON_AND_ORGANIZATION_ASSIGNMENT ( #135, #96, ( #120 ) ) ;
#298 =( NAMED_UNIT ( * ) PLANE_ANGLE_UNIT ( ) SI_UNIT ( $, .RADIAN. ) );
#299 = DIRECTION ( 'NONE',  ( 0.0000000000000000000, 1.000000000000000000, 0.0000000000000000000 ) ) ;
#300 = DIRECTION ( 'NONE',  ( 3.880967142342055911E-31, 1.000000000000000000, 1.092395136005551357E-16 ) ) ;
#301 = VERTEX_POINT ( 'NONE', #42 ) ;
#302 = VERTEX_POINT ( 'NONE', #46 ) ;
#303 = DIRECTION ( 'NONE',  ( -3.491481338843133355E-15, 1.224646799147353207E-16, -1.000000000000000000 ) ) ;
ENDSEC;
END-ISO-10303-21;
