ISO-10303-21;
HEADER;
FILE_DESCRIPTION (( 'STEP AP203' ),
    '1' );
FILE_NAME ('321622.step',
    '2021-12-02T09:36:14',
    ( '' ),
    ( '' ),
    'SwSTEP 2.0',
    'SolidWorks 2019',
    '' );
FILE_SCHEMA (( 'CONFIG_CONTROL_DESIGN' ));
ENDSEC;

DATA;
#1 = AXIS2_PLACEMENT_3D ( 'NONE', #300, #3, #302 ) ;
#2 = AXIS2_PLACEMENT_3D ( 'NONE', #192, #214, #23 ) ;
#3 = DIRECTION ( 'NONE',  ( -3.491481338843133355E-15, 1.224646799147353207E-16, -1.000000000000000000 ) ) ;
#4 = CARTESIAN_POINT ( 'NONE',  ( -7.397188401401691849E-31, 2.594584424004997569E-32, -2.118638962524907729E-16 ) ) ;
#5 = ADVANCED_FACE ( 'NONE', ( #142 ), #299, .F. ) ;
#6 = DIRECTION ( 'NONE',  ( -3.491481338843133355E-15, 1.224646799147353207E-16, -1.000000000000000000 ) ) ;
#7 = CIRCLE ( 'NONE', #55, 1.729999999999989102 ) ;
#8 = DIRECTION ( 'NONE',  ( -3.491481338843133355E-15, 1.224646799147353207E-16, -1.000000000000000000 ) ) ;
#9 = DATE_AND_TIME ( #82, #170 ) ;
#10 = EDGE_LOOP ( 'NONE', ( #268 ) ) ;
#11 = FACE_OUTER_BOUND ( 'NONE', #160, .T. ) ;
#12 = PERSON_AND_ORGANIZATION ( #229, #179 ) ;
#13 = FACE_OUTER_BOUND ( 'NONE', #37, .T. ) ;
#14 = DIRECTION ( 'NONE',  ( -3.491481338843133355E-15, 1.224646799147353207E-16, -1.000000000000000000 ) ) ;
#15 = CARTESIAN_POINT ( 'NONE',  ( -7.397188401401691849E-31, 2.594584424004997569E-32, -2.118638962524907729E-16 ) ) ;
#16 = ORIENTED_EDGE ( 'NONE', *, *, #126, .T. ) ;
#17 = AXIS2_PLACEMENT_3D ( 'NONE', #287, #76, #51 ) ;
#18 = ORIENTED_EDGE ( 'NONE', *, *, #153, .T. ) ;
#19 = DATE_AND_TIME ( #273, #73 ) ;
#20 = PERSON_AND_ORGANIZATION ( #229, #179 ) ;
#21 = CC_DESIGN_PERSON_AND_ORGANIZATION_ASSIGNMENT ( #197, #148, ( #112 ) ) ;
#22 = EDGE_LOOP ( 'NONE', ( #16 ) ) ;
#23 = DIRECTION ( 'NONE',  ( 0.0000000000000000000, 1.000000000000000000, 0.0000000000000000000 ) ) ;
#24 = DIRECTION ( 'NONE',  ( 4.275831445896958607E-31, 1.000000000000000000, 1.224646799147353207E-16 ) ) ;
#25 = AXIS2_PLACEMENT_3D ( 'NONE', #226, #210, #303 ) ;
#26 = SECURITY_CLASSIFICATION_LEVEL ( 'unclassified' ) ;
#27 = DIRECTION ( 'NONE',  ( -3.491481338843133355E-15, 1.224646799147353207E-16, -1.000000000000000000 ) ) ;
#28 = LOCAL_TIME ( 10, 36, 14.00000000000000000, #181 ) ;
#29 = PERSON_AND_ORGANIZATION ( #229, #179 ) ;
#30 = DIRECTION ( 'NONE',  ( 1.000000000000000000, 0.0000000000000000000, 0.0000000000000000000 ) ) ;
#31 = CONICAL_SURFACE ( 'NONE', #144, 1.200000000000001510, 0.7853981633974566057 ) ;
#32 = APPROVAL_PERSON_ORGANIZATION ( #53, #251, #118 ) ;
#33 = ORIENTED_EDGE ( 'NONE', *, *, #241, .F. ) ;
#34 = AXIS2_PLACEMENT_3D ( 'NONE', #113, #201, #228 ) ;
#35 = CALENDAR_DATE ( 2021, 2, 12 ) ;
#36 = DIRECTION ( 'NONE',  ( -4.275831445896958607E-31, -1.000000000000000000, -1.224646799147353207E-16 ) ) ;
#37 = EDGE_LOOP ( 'NONE', ( #38 ) ) ;
#38 = ORIENTED_EDGE ( 'NONE', *, *, #209, .T. ) ;
#39 = DIRECTION ( 'NONE',  ( -3.491481338843133355E-15, 1.224646799147353207E-16, -1.000000000000000000 ) ) ;
#40 = CARTESIAN_POINT ( 'NONE',  ( 0.0000000000000000000, 0.0000000000000000000, 0.0000000000000000000 ) ) ;
#41 = CIRCLE ( 'NONE', #206, 1.499999999999992895 ) ;
#42 = CARTESIAN_POINT ( 'NONE',  ( 3.491481338843133355E-14, 1.979999999999988658, 10.00000000000000000 ) ) ;
#43 = ORIENTED_EDGE ( 'NONE', *, *, #177, .F. ) ;
#44 = CARTESIAN_POINT ( 'NONE',  ( 3.781757646325766198E-14, -1.326462022064943500E-15, 10.83138438763305444 ) ) ;
#45 = APPROVAL_DATE_TIME ( #102, #127 ) ;
#46 = VERTEX_POINT ( 'NONE', #283 ) ;
#47 = DIRECTION ( 'NONE',  ( -3.491481338843133355E-15, 1.224646799147353207E-16, -1.000000000000000000 ) ) ;
#48 = FACE_OUTER_BOUND ( 'NONE', #166, .T. ) ;
#49 = AXIS2_PLACEMENT_3D ( 'NONE', #274, #161, #284 ) ;
#50 = AXIS2_PLACEMENT_3D ( 'NONE', #250, #39, #139 ) ;
#51 = DIRECTION ( 'NONE',  ( 3.890767564418677787E-31, 1.000000000000000000, 1.095153709581323098E-16 ) ) ;
#52 = COORDINATED_UNIVERSAL_TIME_OFFSET ( 1, 0, .AHEAD. ) ;
#53 = PERSON_AND_ORGANIZATION ( #229, #179 ) ;
#54 = FACE_BOUND ( 'NONE', #155, .T. ) ;
#55 = AXIS2_PLACEMENT_3D ( 'NONE', #4, #6, #196 ) ;
#56 = CARTESIAN_POINT ( 'NONE',  ( 2.433562493173664138E-13, -8.535788190057053710E-15, 69.70000000000001705 ) ) ;
#57 = CALENDAR_DATE ( 2021, 2, 12 ) ;
#58 = DIRECTION ( 'NONE',  ( 0.0000000000000000000, 0.0000000000000000000, 1.000000000000000000 ) ) ;
#59 = CARTESIAN_POINT ( 'NONE',  ( 3.491481338843133355E-14, -1.224646799147353256E-15, 10.00000000000000000 ) ) ;
#60 = AXIS2_PLACEMENT_3D ( 'NONE', #286, #58, #30 ) ;
#61 = APPROVAL_STATUS ( 'not_yet_approved' ) ;
#62 = DIRECTION ( 'NONE',  ( 0.0000000000000000000, 1.000000000000000000, 0.0000000000000000000 ) ) ;
#63 = EDGE_LOOP ( 'NONE', ( #114 ) ) ;
#64 = EDGE_LOOP ( 'NONE', ( #138 ) ) ;
#65 = CC_DESIGN_PERSON_AND_ORGANIZATION_ASSIGNMENT ( #29, #215, ( #270 ) ) ;
#66 = EDGE_LOOP ( 'NONE', ( #288 ) ) ;
#67 = FACE_OUTER_BOUND ( 'NONE', #71, .T. ) ;
#68 = ADVANCED_FACE ( 'NONE', ( #292, #87 ), #182, .T. ) ;
#69 = VERTEX_POINT ( 'NONE', #96 ) ;
#70 = APPROVAL_DATE_TIME ( #203, #175 ) ;
#71 = EDGE_LOOP ( 'NONE', ( #43 ) ) ;
#72 = CYLINDRICAL_SURFACE ( 'NONE', #275, 1.499999999999996891 ) ;
#73 = LOCAL_TIME ( 10, 36, 14.00000000000000000, #187 ) ;
#74 = CARTESIAN_POINT ( 'NONE',  ( 8.728703347107833388E-16, 1.979999999999989990, 0.2500000000000000000 ) ) ;
#75 = CC_DESIGN_PERSON_AND_ORGANIZATION_ASSIGNMENT ( #20, #239, ( #112 ) ) ;
#76 = DIRECTION ( 'NONE',  ( -3.491481338843133355E-15, 1.224646799147353207E-16, -1.000000000000000000 ) ) ;
#77 = CIRCLE ( 'NONE', #219, 1.499999999999992895 ) ;
#78 = LOCAL_TIME ( 10, 36, 14.00000000000000000, #252 ) ;
#79 = EDGE_CURVE ( 'NONE', #157, #157, #257, .T. ) ;
#80 = ADVANCED_BREP_SHAPE_REPRESENTATION ( '321622', ( #191, #86, #60 ), #231 ) ;
#81 = CARTESIAN_POINT ( 'NONE',  ( 3.781757646325766198E-14, -1.326462022064943500E-15, 10.83138438763305444 ) ) ;
#82 = CALENDAR_DATE ( 2021, 2, 12 ) ;
#83 = APPROVAL_ROLE ( '' ) ;
#84 = CIRCLE ( 'NONE', #25, 1.979999999999989990 ) ;
#85 = APPROVAL_STATUS ( 'not_yet_approved' ) ;
#86 = MANIFOLD_SOLID_BREP ( 'Corps-Déplacer/Copier1[2]', #173 ) ;
#87 = FACE_OUTER_BOUND ( 'NONE', #63, .T. ) ;
#88 = ORIENTED_EDGE ( 'NONE', *, *, #209, .F. ) ;
#89 = CC_DESIGN_PERSON_AND_ORGANIZATION_ASSIGNMENT ( #291, #289, ( #223 ) ) ;
#90 = CLOSED_SHELL ( 'NONE', ( #246, #240, #237, #174, #150 ) ) ;
#91 = MECHANICAL_CONTEXT ( 'NONE', #208, 'mechanical' ) ;
#92 = CARTESIAN_POINT ( 'NONE',  ( 2.444036937190193601E-13, 1.199999999999992628, 70.00000000000000000 ) ) ;
#93 = CONICAL_SURFACE ( 'NONE', #1, 1.979999999999989990, 0.5235987755983003700 ) ;
#94 = EDGE_CURVE ( 'NONE', #248, #248, #245, .T. ) ;
#95 = CARTESIAN_POINT ( 'NONE',  ( 2.444036937190193601E-13, -8.572527594031472993E-15, 70.00000000000000000 ) ) ;
#96 = CARTESIAN_POINT ( 'NONE',  ( 0.0000000000000000000, 1.729999999999989102, 0.0000000000000000000 ) ) ;
#97 = EDGE_LOOP ( 'NONE', ( #186 ) ) ;
#98 = AXIS2_PLACEMENT_3D ( 'NONE', #218, #145, #133 ) ;
#99 = CC_DESIGN_PERSON_AND_ORGANIZATION_ASSIGNMENT ( #120, #183, ( #227 ) ) ;
#100 = DATE_AND_TIME ( #57, #78 ) ;
#101 = ADVANCED_FACE ( 'NONE', ( #194, #54 ), #115, .T. ) ;
#102 = DATE_AND_TIME ( #195, #281 ) ;
#103 = FACE_BOUND ( 'NONE', #97, .T. ) ;
#104 = CARTESIAN_POINT ( 'NONE',  ( 2.433562493173664138E-13, 1.499999999999992673, 69.70000000000001705 ) ) ;
#105 = CONICAL_SURFACE ( 'NONE', #297, 1.729999999999989102, 0.7853981633974500554 ) ;
#106 = EDGE_LOOP ( 'NONE', ( #88 ) ) ;
#107 =( NAMED_UNIT ( * ) SI_UNIT ( $, .STERADIAN. ) SOLID_ANGLE_UNIT ( ) );
#108 = DATE_TIME_ROLE ( 'classification_date' ) ;
#109 = VERTEX_POINT ( 'NONE', #74 ) ;
#110 = FACE_BOUND ( 'NONE', #264, .T. ) ;
#111 = APPROVAL_DATE_TIME ( #100, #251 ) ;
#112 = PRODUCT_DEFINITION_FORMATION_WITH_SPECIFIED_SOURCE ( 'ANY', '', #223, .NOT_KNOWN. ) ;
#113 = CARTESIAN_POINT ( 'NONE',  ( 2.444036937190193601E-13, -8.572527594031472993E-15, 70.00000000000000000 ) ) ;
#114 = ORIENTED_EDGE ( 'NONE', *, *, #244, .T. ) ;
#115 = CONICAL_SURFACE ( 'NONE', #238, 1.200000000000001510, 0.7853981633974566057 ) ;
#116 = VERTEX_POINT ( 'NONE', #141 ) ;
#117 = EDGE_LOOP ( 'NONE', ( #18 ) ) ;
#118 = APPROVAL_ROLE ( '' ) ;
#119 = DESIGN_CONTEXT ( 'detailed design', #236, 'design' ) ;
#120 = PERSON_AND_ORGANIZATION ( #229, #179 ) ;
#121 = AXIS2_PLACEMENT_3D ( 'NONE', #59, #14, #262 ) ;
#122 = AXIS2_PLACEMENT_3D ( 'NONE', #225, #256, #24 ) ;
#123 = UNCERTAINTY_MEASURE_WITH_UNIT (LENGTH_MEASURE( 1.000000000000000082E-05 ), #154, 'distance_accuracy_value', 'NONE');
#124 = CC_DESIGN_DATE_AND_TIME_ASSIGNMENT ( #19, #184, ( #227 ) ) ;
#125 = APPROVAL_STATUS ( 'not_yet_approved' ) ;
#126 = EDGE_CURVE ( 'NONE', #109, #109, #258, .T. ) ;
#127 = APPROVAL ( #61, 'UNSPECIFIED' ) ;
#128 = CIRCLE ( 'NONE', #50, 1.500000000000001110 ) ;
#129 = CARTESIAN_POINT ( 'NONE',  ( 3.781757646325766198E-14, 1.499999999999991562, 10.83138438763305444 ) ) ;
#130 = DIRECTION ( 'NONE',  ( -3.491481338843133355E-15, 1.224646799147353207E-16, -1.000000000000000000 ) ) ;
#131 = APPROVAL_PERSON_ORGANIZATION ( #163, #127, #140 ) ;
#132 = EDGE_CURVE ( 'NONE', #116, #116, #134, .T. ) ;
#133 = DIRECTION ( 'NONE',  ( 0.0000000000000000000, 1.000000000000000000, 0.0000000000000000000 ) ) ;
#134 = CIRCLE ( 'NONE', #98, 1.200000000000001510 ) ;
#135 = CC_DESIGN_SECURITY_CLASSIFICATION ( #270, ( #112 ) ) ;
#136 = DIRECTION ( 'NONE',  ( -3.491481338843133355E-15, 1.224646799147353207E-16, -1.000000000000000000 ) ) ;
#137 = ADVANCED_FACE ( 'NONE', ( #13 ), #159, .T. ) ;
#138 = ORIENTED_EDGE ( 'NONE', *, *, #241, .T. ) ;
#139 = DIRECTION ( 'NONE',  ( 0.0000000000000000000, 1.000000000000000000, 0.0000000000000000000 ) ) ;
#140 = APPROVAL_ROLE ( '' ) ;
#141 = CARTESIAN_POINT ( 'NONE',  ( 2.444036937190193601E-13, 1.199999999999992628, 70.00000000000000000 ) ) ;
#142 = FACE_OUTER_BOUND ( 'NONE', #266, .T. ) ;
#143 = SHAPE_DEFINITION_REPRESENTATION ( #211, #80 ) ;
#144 = AXIS2_PLACEMENT_3D ( 'NONE', #180, #136, #62 ) ;
#145 = DIRECTION ( 'NONE',  ( -3.491481338843133355E-15, 1.224646799147353207E-16, -1.000000000000000000 ) ) ;
#146 = FACE_OUTER_BOUND ( 'NONE', #293, .T. ) ;
#147 = AXIS2_PLACEMENT_3D ( 'NONE', #217, #8, #261 ) ;
#148 = PERSON_AND_ORGANIZATION_ROLE ( 'design_supplier' ) ;
#149 =( NAMED_UNIT ( * ) PLANE_ANGLE_UNIT ( ) SI_UNIT ( $, .RADIAN. ) );
#150 = ADVANCED_FACE ( 'NONE', ( #296 ), #164, .F. ) ;
#151 = CARTESIAN_POINT ( 'NONE',  ( 3.491481338843133355E-14, 1.484762184835229617E-32, 10.00000000000000000 ) ) ;
#152 = DIRECTION ( 'NONE',  ( 0.0000000000000000000, 1.000000000000000000, 0.0000000000000000000 ) ) ;
#153 = EDGE_CURVE ( 'NONE', #172, #172, #190, .T. ) ;
#154 =( LENGTH_UNIT ( ) NAMED_UNIT ( * ) SI_UNIT ( .MILLI., .METRE. ) );
#155 = EDGE_LOOP ( 'NONE', ( #176 ) ) ;
#156 = DIRECTION ( 'NONE',  ( -3.491481338843133355E-15, 1.224646799147353207E-16, -1.000000000000000000 ) ) ;
#157 = VERTEX_POINT ( 'NONE', #92 ) ;
#158 = ADVANCED_FACE ( 'NONE', ( #222, #290 ), #105, .T. ) ;
#159 = PLANE ( 'NONE',  #122 ) ;
#160 = EDGE_LOOP ( 'NONE', ( #165 ) ) ;
#161 = DIRECTION ( 'NONE',  ( -3.491481338843133355E-15, 1.224646799147353207E-16, -1.000000000000000000 ) ) ;
#162 = CARTESIAN_POINT ( 'NONE',  ( 0.0000000000000000000, 0.0000000000000000000, 0.0000000000000000000 ) ) ;
#163 = PERSON_AND_ORGANIZATION ( #229, #179 ) ;
#164 = PLANE ( 'NONE',  #147 ) ;
#165 = ORIENTED_EDGE ( 'NONE', *, *, #94, .T. ) ;
#166 = EDGE_LOOP ( 'NONE', ( #224 ) ) ;
#167 = FACE_BOUND ( 'NONE', #64, .T. ) ;
#168 = APPROVAL_PERSON_ORGANIZATION ( #12, #175, #83 ) ;
#169 = FACE_OUTER_BOUND ( 'NONE', #66, .T. ) ;
#170 = LOCAL_TIME ( 10, 36, 14.00000000000000000, #52 ) ;
#171 = PLANE ( 'NONE',  #269 ) ;
#172 = VERTEX_POINT ( 'NONE', #104 ) ;
#173 = CLOSED_SHELL ( 'NONE', ( #193, #271, #158, #137, #5, #101, #68 ) ) ;
#174 = ADVANCED_FACE ( 'NONE', ( #221, #110 ), #31, .T. ) ;
#175 = APPROVAL ( #85, 'UNSPECIFIED' ) ;
#176 = ORIENTED_EDGE ( 'NONE', *, *, #79, .T. ) ;
#177 = EDGE_CURVE ( 'NONE', #260, #260, #84, .T. ) ;
#178 = DIRECTION ( 'NONE',  ( 0.0000000000000000000, 1.000000000000000000, 0.0000000000000000000 ) ) ;
#179 = ORGANIZATION ( 'UNSPECIFIED', 'UNSPECIFIED', '' ) ;
#180 = CARTESIAN_POINT ( 'NONE',  ( 2.444036937190193601E-13, -8.572527594031472993E-15, 70.00000000000000000 ) ) ;
#181 = COORDINATED_UNIVERSAL_TIME_OFFSET ( 1, 0, .AHEAD. ) ;
#182 = CYLINDRICAL_SURFACE ( 'NONE', #49, 1.499999999999996891 ) ;
#183 = PERSON_AND_ORGANIZATION_ROLE ( 'creator' ) ;
#184 = DATE_TIME_ROLE ( 'creation_date' ) ;
#185 = CARTESIAN_POINT ( 'NONE',  ( 3.491481338843133355E-14, 1.979999999999988658, 10.00000000000000000 ) ) ;
#186 = ORIENTED_EDGE ( 'NONE', *, *, #254, .T. ) ;
#187 = COORDINATED_UNIVERSAL_TIME_OFFSET ( 1, 0, .AHEAD. ) ;
#188 = VERTEX_POINT ( 'NONE', #253 ) ;
#189 = EDGE_LOOP ( 'NONE', ( #278 ) ) ;
#190 = CIRCLE ( 'NONE', #280, 1.500000000000001110 ) ;
#191 = MANIFOLD_SOLID_BREP ( 'Corps-Déplacer/Copier1[1]', #90 ) ;
#192 = CARTESIAN_POINT ( 'NONE',  ( 3.491481338843133355E-14, -1.224646799147353256E-15, 10.00000000000000000 ) ) ;
#193 = ADVANCED_FACE ( 'NONE', ( #103, #169 ), #235, .T. ) ;
#194 = FACE_OUTER_BOUND ( 'NONE', #232, .T. ) ;
#195 = CALENDAR_DATE ( 2021, 2, 12 ) ;
#196 = DIRECTION ( 'NONE',  ( 4.275831445896958607E-31, 1.000000000000000000, 1.224646799147353207E-16 ) ) ;
#197 = PERSON_AND_ORGANIZATION ( #229, #179 ) ;
#198 = CARTESIAN_POINT ( 'NONE',  ( 2.444036937190193601E-13, -8.572527594031472993E-15, 70.00000000000000000 ) ) ;
#199 = ORIENTED_EDGE ( 'NONE', *, *, #244, .F. ) ;
#200 = CC_DESIGN_APPROVAL ( #175, ( #227 ) ) ;
#201 = DIRECTION ( 'NONE',  ( -3.491481338843133355E-15, 1.224646799147353207E-16, -1.000000000000000000 ) ) ;
#202 = DIRECTION ( 'NONE',  ( 3.491481338843133355E-15, -1.224646799147353207E-16, 1.000000000000000000 ) ) ;
#203 = DATE_AND_TIME ( #35, #28 ) ;
#204 = ORIENTED_EDGE ( 'NONE', *, *, #132, .T. ) ;
#205 = CYLINDRICAL_SURFACE ( 'NONE', #213, 1.979999999999989990 ) ;
#206 = AXIS2_PLACEMENT_3D ( 'NONE', #44, #234, #255 ) ;
#207 = EDGE_LOOP ( 'NONE', ( #249 ) ) ;
#208 = APPLICATION_CONTEXT ( 'configuration controlled 3d designs of mechanical parts and assemblies' ) ;
#209 = EDGE_CURVE ( 'NONE', #69, #69, #7, .T. ) ;
#210 = DIRECTION ( 'NONE',  ( -3.491481338843133355E-15, 1.224646799147353207E-16, -1.000000000000000000 ) ) ;
#211 = PRODUCT_DEFINITION_SHAPE ( 'NONE', 'NONE',  #227 ) ;
#212 = AXIS2_PLACEMENT_3D ( 'NONE', #95, #156, #267 ) ;
#213 = AXIS2_PLACEMENT_3D ( 'NONE', #162, #272, #295 ) ;
#214 = DIRECTION ( 'NONE',  ( -3.491481338843133355E-15, 1.224646799147353207E-16, -1.000000000000000000 ) ) ;
#215 = PERSON_AND_ORGANIZATION_ROLE ( 'classification_officer' ) ;
#216 = PRODUCT_RELATED_PRODUCT_CATEGORY ( 'detail', '', ( #223 ) ) ;
#217 = CARTESIAN_POINT ( 'NONE',  ( 2.444036937190193601E-13, 8.998558695971026591E-33, 70.00000000000000000 ) ) ;
#218 = CARTESIAN_POINT ( 'NONE',  ( 2.444036937190193601E-13, -8.572527594031472993E-15, 70.00000000000000000 ) ) ;
#219 = AXIS2_PLACEMENT_3D ( 'NONE', #81, #130, #152 ) ;
#220 = APPLICATION_PROTOCOL_DEFINITION ( 'international standard', 'config_control_design', 1994, #236 ) ;
#221 = FACE_OUTER_BOUND ( 'NONE', #207, .T. ) ;
#222 = FACE_OUTER_BOUND ( 'NONE', #22, .T. ) ;
#223 = PRODUCT ( '321622', '321622', '', ( #91 ) ) ;
#224 = ORIENTED_EDGE ( 'NONE', *, *, #126, .F. ) ;
#225 = CARTESIAN_POINT ( 'NONE',  ( -3.698594200700845924E-31, 1.297292212002498784E-32, -1.059319481262453864E-16 ) ) ;
#226 = CARTESIAN_POINT ( 'NONE',  ( 3.491481338843133355E-14, -1.224646799147353256E-15, 10.00000000000000000 ) ) ;
#227 = PRODUCT_DEFINITION ( 'UNKNOWN', '', #112, #119 ) ;
#228 = DIRECTION ( 'NONE',  ( 4.275831445896958607E-31, 1.000000000000000000, 1.224646799147353207E-16 ) ) ;
#229 = PERSON ( 'UNSPECIFIED', 'UNSPECIFIED', 'UNSPECIFIED', ('UNSPECIFIED'), ('UNSPECIFIED'), ('UNSPECIFIED') ) ;
#230 = ORIENTED_EDGE ( 'NONE', *, *, #79, .F. ) ;
#231 =( GEOMETRIC_REPRESENTATION_CONTEXT ( 3 ) GLOBAL_UNCERTAINTY_ASSIGNED_CONTEXT ( ( #123 ) ) GLOBAL_UNIT_ASSIGNED_CONTEXT ( ( #154, #149, #107 ) ) REPRESENTATION_CONTEXT ( 'NONE', 'WORKASPACE' ) );
#232 = EDGE_LOOP ( 'NONE', ( #199 ) ) ;
#233 = CC_DESIGN_DATE_AND_TIME_ASSIGNMENT ( #9, #108, ( #270 ) ) ;
#234 = DIRECTION ( 'NONE',  ( -3.491481338843133355E-15, 1.224646799147353207E-16, -1.000000000000000000 ) ) ;
#235 = CONICAL_SURFACE ( 'NONE', #2, 1.979999999999989990, 0.5235987755983003700 ) ;
#236 = APPLICATION_CONTEXT ( 'configuration controlled 3d designs of mechanical parts and assemblies' ) ;
#237 = ADVANCED_FACE ( 'NONE', ( #146, #263 ), #72, .T. ) ;
#238 = AXIS2_PLACEMENT_3D ( 'NONE', #198, #27, #259 ) ;
#239 = PERSON_AND_ORGANIZATION_ROLE ( 'creator' ) ;
#240 = ADVANCED_FACE ( 'NONE', ( #167, #67 ), #93, .T. ) ;
#241 = EDGE_CURVE ( 'NONE', #188, #188, #41, .T. ) ;
#242 = EDGE_LOOP ( 'NONE', ( #301 ) ) ;
#243 = DIRECTION ( 'NONE',  ( 3.491481338843133355E-15, -1.224646799147353207E-16, 1.000000000000000000 ) ) ;
#244 = EDGE_CURVE ( 'NONE', #46, #46, #128, .T. ) ;
#245 = CIRCLE ( 'NONE', #121, 1.979999999999989990 ) ;
#246 = ADVANCED_FACE ( 'NONE', ( #294 ), #171, .F. ) ;
#247 = CC_DESIGN_APPROVAL ( #251, ( #270 ) ) ;
#248 = VERTEX_POINT ( 'NONE', #185 ) ;
#249 = ORIENTED_EDGE ( 'NONE', *, *, #153, .F. ) ;
#250 = CARTESIAN_POINT ( 'NONE',  ( 2.433562493173664138E-13, -8.535788190057053710E-15, 69.70000000000001705 ) ) ;
#251 = APPROVAL ( #125, 'UNSPECIFIED' ) ;
#252 = COORDINATED_UNIVERSAL_TIME_OFFSET ( 1, 0, .AHEAD. ) ;
#253 = CARTESIAN_POINT ( 'NONE',  ( 3.781757646325766198E-14, 1.499999999999991562, 10.83138438763305444 ) ) ;
#254 = EDGE_CURVE ( 'NONE', #285, #285, #77, .T. ) ;
#255 = DIRECTION ( 'NONE',  ( 0.0000000000000000000, 1.000000000000000000, 0.0000000000000000000 ) ) ;
#256 = DIRECTION ( 'NONE',  ( -3.491481338843133355E-15, 1.224646799147353207E-16, -1.000000000000000000 ) ) ;
#257 = CIRCLE ( 'NONE', #212, 1.200000000000001510 ) ;
#258 = CIRCLE ( 'NONE', #17, 1.979999999999989990 ) ;
#259 = DIRECTION ( 'NONE',  ( 0.0000000000000000000, 1.000000000000000000, 0.0000000000000000000 ) ) ;
#260 = VERTEX_POINT ( 'NONE', #42 ) ;
#261 = DIRECTION ( 'NONE',  ( 4.275831445896958607E-31, 1.000000000000000000, 1.224646799147353207E-16 ) ) ;
#262 = DIRECTION ( 'NONE',  ( 0.0000000000000000000, 1.000000000000000000, 0.0000000000000000000 ) ) ;
#263 = FACE_OUTER_BOUND ( 'NONE', #117, .T. ) ;
#264 = EDGE_LOOP ( 'NONE', ( #204 ) ) ;
#265 = APPLICATION_PROTOCOL_DEFINITION ( 'international standard', 'config_control_design', 1994, #208 ) ;
#266 = EDGE_LOOP ( 'NONE', ( #230 ) ) ;
#267 = DIRECTION ( 'NONE',  ( 0.0000000000000000000, 1.000000000000000000, 0.0000000000000000000 ) ) ;
#268 = ORIENTED_EDGE ( 'NONE', *, *, #254, .F. ) ;
#269 = AXIS2_PLACEMENT_3D ( 'NONE', #151, #202, #277 ) ;
#270 = SECURITY_CLASSIFICATION ( '', '', #26 ) ;
#271 = ADVANCED_FACE ( 'NONE', ( #11, #48 ), #205, .T. ) ;
#272 = DIRECTION ( 'NONE',  ( -3.491481338843133355E-15, 1.224646799147353207E-16, -1.000000000000000000 ) ) ;
#273 = CALENDAR_DATE ( 2021, 2, 12 ) ;
#274 = CARTESIAN_POINT ( 'NONE',  ( 0.0000000000000000000, 0.0000000000000000000, 0.0000000000000000000 ) ) ;
#275 = AXIS2_PLACEMENT_3D ( 'NONE', #40, #47, #276 ) ;
#276 = DIRECTION ( 'NONE',  ( 4.275831445896958607E-31, 1.000000000000000000, 1.224646799147353454E-16 ) ) ;
#277 = DIRECTION ( 'NONE',  ( -4.275831445896958607E-31, -1.000000000000000000, -1.224646799147353207E-16 ) ) ;
#278 = ORIENTED_EDGE ( 'NONE', *, *, #132, .F. ) ;
#279 = DIRECTION ( 'NONE',  ( -3.491481338843133355E-15, 1.224646799147353207E-16, -1.000000000000000000 ) ) ;
#280 = AXIS2_PLACEMENT_3D ( 'NONE', #56, #279, #178 ) ;
#281 = LOCAL_TIME ( 10, 36, 14.00000000000000000, #282 ) ;
#282 = COORDINATED_UNIVERSAL_TIME_OFFSET ( 1, 0, .AHEAD. ) ;
#283 = CARTESIAN_POINT ( 'NONE',  ( 2.433562493173664138E-13, 1.499999999999992673, 69.70000000000001705 ) ) ;
#284 = DIRECTION ( 'NONE',  ( 4.275831445896958607E-31, 1.000000000000000000, 1.224646799147353454E-16 ) ) ;
#285 = VERTEX_POINT ( 'NONE', #129 ) ;
#286 = CARTESIAN_POINT ( 'NONE',  ( 0.0000000000000000000, 0.0000000000000000000, 0.0000000000000000000 ) ) ;
#287 = CARTESIAN_POINT ( 'NONE',  ( 8.728703347107825500E-16, -3.061616997868380553E-17, 0.2499999999999997780 ) ) ;
#288 = ORIENTED_EDGE ( 'NONE', *, *, #94, .F. ) ;
#289 = PERSON_AND_ORGANIZATION_ROLE ( 'design_owner' ) ;
#290 = FACE_BOUND ( 'NONE', #106, .T. ) ;
#291 = PERSON_AND_ORGANIZATION ( #229, #179 ) ;
#292 = FACE_OUTER_BOUND ( 'NONE', #10, .T. ) ;
#293 = EDGE_LOOP ( 'NONE', ( #33 ) ) ;
#294 = FACE_OUTER_BOUND ( 'NONE', #242, .T. ) ;
#295 = DIRECTION ( 'NONE',  ( 4.275831445896959482E-31, 1.000000000000000000, 1.224646799147353207E-16 ) ) ;
#296 = FACE_OUTER_BOUND ( 'NONE', #189, .T. ) ;
#297 = AXIS2_PLACEMENT_3D ( 'NONE', #15, #243, #36 ) ;
#298 = CC_DESIGN_APPROVAL ( #127, ( #112 ) ) ;
#299 = PLANE ( 'NONE',  #34 ) ;
#300 = CARTESIAN_POINT ( 'NONE',  ( 3.491481338843133355E-14, -1.224646799147353256E-15, 10.00000000000000000 ) ) ;
#301 = ORIENTED_EDGE ( 'NONE', *, *, #177, .T. ) ;
#302 = DIRECTION ( 'NONE',  ( 0.0000000000000000000, 1.000000000000000000, 0.0000000000000000000 ) ) ;
#303 = DIRECTION ( 'NONE',  ( 0.0000000000000000000, 1.000000000000000000, 0.0000000000000000000 ) ) ;
ENDSEC;
END-ISO-10303-21;
