ISO-10303-21;
HEADER;
FILE_DESCRIPTION (( 'STEP AP203' ),
    '1' );
FILE_NAME ('321621.step',
    '2021-12-02T09:36:14',
    ( '' ),
    ( '' ),
    'SwSTEP 2.0',
    'SolidWorks 2019',
    '' );
FILE_SCHEMA (( 'CONFIG_CONTROL_DESIGN' ));
ENDSEC;

DATA;
#1 = FACE_BOUND ( 'NONE', #287, .T. ) ;
#2 = CONICAL_SURFACE ( 'NONE', #299, 1.724999999999989431, 0.7853981633974500554 ) ;
#3 = FACE_OUTER_BOUND ( 'NONE', #4, .T. ) ;
#4 = EDGE_LOOP ( 'NONE', ( #25 ) ) ;
#5 = CARTESIAN_POINT ( 'NONE',  ( 3.491481338843133355E-14, -1.224646799147353256E-15, 10.00000000000000000 ) ) ;
#6 = AXIS2_PLACEMENT_3D ( 'NONE', #45, #20, #224 ) ;
#7 = PRODUCT_DEFINITION_FORMATION_WITH_SPECIFIED_SOURCE ( 'ANY', '', #176, .NOT_KNOWN. ) ;
#8 = ORIENTED_EDGE ( 'NONE', *, *, #56, .F. ) ;
#9 = CC_DESIGN_DATE_AND_TIME_ASSIGNMENT ( #117, #93, ( #134 ) ) ;
#10 = CARTESIAN_POINT ( 'NONE',  ( -7.375809244172208010E-31, 2.587085625091688773E-32, -2.112515728529171346E-16 ) ) ;
#11 = CARTESIAN_POINT ( 'NONE',  ( 0.0000000000000000000, 1.724999999999989431, 0.0000000000000000000 ) ) ;
#12 = AXIS2_PLACEMENT_3D ( 'NONE', #79, #47, #140 ) ;
#13 = CALENDAR_DATE ( 2021, 2, 12 ) ;
#14 = DIRECTION ( 'NONE',  ( 0.0000000000000000000, 1.000000000000000000, 0.0000000000000000000 ) ) ;
#15 = SHAPE_DEFINITION_REPRESENTATION ( #148, #275 ) ;
#16 = DIRECTION ( 'NONE',  ( -3.491481338843133355E-15, 1.224646799147353207E-16, -1.000000000000000000 ) ) ;
#17 =( NAMED_UNIT ( * ) PLANE_ANGLE_UNIT ( ) SI_UNIT ( $, .RADIAN. ) );
#18 = ADVANCED_FACE ( 'NONE', ( #1, #181 ), #284, .T. ) ;
#19 = DIRECTION ( 'NONE',  ( 4.275831445896958607E-31, 1.000000000000000000, 1.224646799147353454E-16 ) ) ;
#20 = DIRECTION ( 'NONE',  ( -3.491481338843133355E-15, 1.224646799147353207E-16, -1.000000000000000000 ) ) ;
#21 = AXIS2_PLACEMENT_3D ( 'NONE', #10, #120, #92 ) ;
#22 = DIRECTION ( 'NONE',  ( 1.000000000000000000, 0.0000000000000000000, 0.0000000000000000000 ) ) ;
#23 = AXIS2_PLACEMENT_3D ( 'NONE', #51, #296, #178 ) ;
#24 = ORIENTED_EDGE ( 'NONE', *, *, #56, .T. ) ;
#25 = ORIENTED_EDGE ( 'NONE', *, *, #283, .T. ) ;
#26 = AXIS2_PLACEMENT_3D ( 'NONE', #103, #194, #80 ) ;
#27 = PERSON_AND_ORGANIZATION ( #157, #82 ) ;
#28 = EDGE_LOOP ( 'NONE', ( #89 ) ) ;
#29 = EDGE_LOOP ( 'NONE', ( #177 ) ) ;
#30 = DATE_AND_TIME ( #160, #121 ) ;
#31 = CC_DESIGN_PERSON_AND_ORGANIZATION_ASSIGNMENT ( #144, #100, ( #7 ) ) ;
#32 = APPLICATION_PROTOCOL_DEFINITION ( 'international standard', 'config_control_design', 1994, #110 ) ;
#33 = CARTESIAN_POINT ( 'NONE',  ( 2.433562493173664138E-13, 1.499999999999992673, 69.70000000000001705 ) ) ;
#34 = DIRECTION ( 'NONE',  ( 3.491481338843133355E-15, -1.224646799147353207E-16, 1.000000000000000000 ) ) ;
#35 = CARTESIAN_POINT ( 'NONE',  ( 8.728703347107833388E-16, 1.974999999999990319, 0.2500000000000000000 ) ) ;
#36 = PLANE ( 'NONE',  #146 ) ;
#37 = APPROVAL_PERSON_ORGANIZATION ( #128, #245, #252 ) ;
#38 = CARTESIAN_POINT ( 'NONE',  ( 3.491481338843133355E-14, 1.974999999999988987, 10.00000000000000000 ) ) ;
#39 = APPROVAL_ROLE ( '' ) ;
#40 = EDGE_LOOP ( 'NONE', ( #145 ) ) ;
#41 = COORDINATED_UNIVERSAL_TIME_OFFSET ( 1, 0, .AHEAD. ) ;
#42 = ORIENTED_EDGE ( 'NONE', *, *, #216, .T. ) ;
#43 = FACE_OUTER_BOUND ( 'NONE', #143, .T. ) ;
#44 = CARTESIAN_POINT ( 'NONE',  ( 3.778733934789489324E-14, 1.499999999999991562, 10.82272413359521046 ) ) ;
#45 = CARTESIAN_POINT ( 'NONE',  ( 2.444036937190193601E-13, -8.572527594031472993E-15, 70.00000000000000000 ) ) ;
#46 = CIRCLE ( 'NONE', #6, 1.200000000000001510 ) ;
#47 = DIRECTION ( 'NONE',  ( -3.491481338843133355E-15, 1.224646799147353207E-16, -1.000000000000000000 ) ) ;
#48 = DIRECTION ( 'NONE',  ( 0.0000000000000000000, 1.000000000000000000, 0.0000000000000000000 ) ) ;
#49 = CLOSED_SHELL ( 'NONE', ( #185, #297, #137, #265, #87 ) ) ;
#50 = CARTESIAN_POINT ( 'NONE',  ( 3.778733934789489324E-14, -1.325401446826218653E-15, 10.82272413359521046 ) ) ;
#51 = CARTESIAN_POINT ( 'NONE',  ( 2.444036937190193601E-13, -8.572527594031472993E-15, 70.00000000000000000 ) ) ;
#52 = APPLICATION_PROTOCOL_DEFINITION ( 'international standard', 'config_control_design', 1994, #96 ) ;
#53 = DIRECTION ( 'NONE',  ( 0.0000000000000000000, 1.000000000000000000, 0.0000000000000000000 ) ) ;
#54 = CARTESIAN_POINT ( 'NONE',  ( -7.375809244172208010E-31, 2.587085625091688773E-32, -2.112515728529171346E-16 ) ) ;
#55 = CYLINDRICAL_SURFACE ( 'NONE', #26, 1.974999999999990319 ) ;
#56 = EDGE_CURVE ( 'NONE', #68, #68, #166, .T. ) ;
#57 = DESIGN_CONTEXT ( 'detailed design', #110, 'design' ) ;
#58 = CARTESIAN_POINT ( 'NONE',  ( 3.491481338843133355E-14, -1.224646799147353256E-15, 10.00000000000000000 ) ) ;
#59 = AXIS2_PLACEMENT_3D ( 'NONE', #116, #150, #184 ) ;
#60 = EDGE_LOOP ( 'NONE', ( #106 ) ) ;
#61 = EDGE_CURVE ( 'NONE', #264, #264, #274, .T. ) ;
#62 = MANIFOLD_SOLID_BREP ( 'Corps-Déplacer/Copier1[1]', #49 ) ;
#63 = APPROVAL_STATUS ( 'not_yet_approved' ) ;
#64 = CONICAL_SURFACE ( 'NONE', #23, 1.200000000000001510, 0.7853981633974566057 ) ;
#65 = DATE_AND_TIME ( #107, #300 ) ;
#66 = CARTESIAN_POINT ( 'NONE',  ( 2.433562493173664138E-13, 1.499999999999992673, 69.70000000000001705 ) ) ;
#67 = CARTESIAN_POINT ( 'NONE',  ( 2.444036937190193601E-13, 8.998558695971026591E-33, 70.00000000000000000 ) ) ;
#68 = VERTEX_POINT ( 'NONE', #38 ) ;
#69 = DATE_AND_TIME ( #229, #233 ) ;
#70 =( GEOMETRIC_REPRESENTATION_CONTEXT ( 3 ) GLOBAL_UNCERTAINTY_ASSIGNED_CONTEXT ( ( #173 ) ) GLOBAL_UNIT_ASSIGNED_CONTEXT ( ( #98, #17, #187 ) ) REPRESENTATION_CONTEXT ( 'NONE', 'WORKASPACE' ) );
#71 = CARTESIAN_POINT ( 'NONE',  ( 0.0000000000000000000, 0.0000000000000000000, 0.0000000000000000000 ) ) ;
#72 = APPROVAL_STATUS ( 'not_yet_approved' ) ;
#73 = DIRECTION ( 'NONE',  ( 0.0000000000000000000, 1.000000000000000000, 0.0000000000000000000 ) ) ;
#74 = EDGE_CURVE ( 'NONE', #153, #153, #213, .T. ) ;
#75 = PERSON_AND_ORGANIZATION_ROLE ( 'classification_officer' ) ;
#76 = DIRECTION ( 'NONE',  ( 4.275831445896958607E-31, 1.000000000000000000, 1.224646799147353454E-16 ) ) ;
#77 = CC_DESIGN_PERSON_AND_ORGANIZATION_ASSIGNMENT ( #189, #192, ( #134 ) ) ;
#78 = PERSON_AND_ORGANIZATION ( #157, #82 ) ;
#79 = CARTESIAN_POINT ( 'NONE',  ( 2.444036937190193601E-13, -8.572527594031472993E-15, 70.00000000000000000 ) ) ;
#80 = DIRECTION ( 'NONE',  ( 4.275831445896958607E-31, 1.000000000000000000, 1.224646799147353207E-16 ) ) ;
#81 = DIRECTION ( 'NONE',  ( -4.275831445896958607E-31, -1.000000000000000000, -1.224646799147353207E-16 ) ) ;
#82 = ORGANIZATION ( 'UNSPECIFIED', 'UNSPECIFIED', '' ) ;
#83 = CARTESIAN_POINT ( 'NONE',  ( 3.491481338843133355E-14, 1.481012785378575219E-32, 10.00000000000000000 ) ) ;
#84 = APPROVAL ( #214, 'UNSPECIFIED' ) ;
#85 = CARTESIAN_POINT ( 'NONE',  ( 3.491481338843133355E-14, -1.224646799147353256E-15, 10.00000000000000000 ) ) ;
#86 = AXIS2_PLACEMENT_3D ( 'NONE', #67, #293, #295 ) ;
#87 = ADVANCED_FACE ( 'NONE', ( #206 ), #244, .F. ) ;
#88 = DIRECTION ( 'NONE',  ( -3.491481338843133355E-15, 1.224646799147353207E-16, -1.000000000000000000 ) ) ;
#89 = ORIENTED_EDGE ( 'NONE', *, *, #61, .T. ) ;
#90 = FACE_OUTER_BOUND ( 'NONE', #40, .T. ) ;
#91 = AXIS2_PLACEMENT_3D ( 'NONE', #58, #88, #261 ) ;
#92 = DIRECTION ( 'NONE',  ( 4.275831445896958607E-31, 1.000000000000000000, 1.224646799147353207E-16 ) ) ;
#93 = DATE_TIME_ROLE ( 'creation_date' ) ;
#94 = CALENDAR_DATE ( 2021, 2, 12 ) ;
#95 = CC_DESIGN_SECURITY_CLASSIFICATION ( #221, ( #7 ) ) ;
#96 = APPLICATION_CONTEXT ( 'configuration controlled 3d designs of mechanical parts and assemblies' ) ;
#97 = FACE_OUTER_BOUND ( 'NONE', #209, .T. ) ;
#98 =( LENGTH_UNIT ( ) NAMED_UNIT ( * ) SI_UNIT ( .MILLI., .METRE. ) );
#99 = PRODUCT_RELATED_PRODUCT_CATEGORY ( 'detail', '', ( #176 ) ) ;
#100 = PERSON_AND_ORGANIZATION_ROLE ( 'creator' ) ;
#101 = CARTESIAN_POINT ( 'NONE',  ( 2.444036937190193601E-13, -8.572527594031472993E-15, 70.00000000000000000 ) ) ;
#102 = CC_DESIGN_APPROVAL ( #84, ( #134 ) ) ;
#103 = CARTESIAN_POINT ( 'NONE',  ( 0.0000000000000000000, 0.0000000000000000000, 0.0000000000000000000 ) ) ;
#104 = ADVANCED_FACE ( 'NONE', ( #43, #97 ), #227, .T. ) ;
#105 = CONICAL_SURFACE ( 'NONE', #175, 1.200000000000001510, 0.7853981633974566057 ) ;
#106 = ORIENTED_EDGE ( 'NONE', *, *, #129, .T. ) ;
#107 = CALENDAR_DATE ( 2021, 2, 12 ) ;
#108 = EDGE_LOOP ( 'NONE', ( #24 ) ) ;
#109 = CIRCLE ( 'NONE', #21, 1.724999999999989431 ) ;
#110 = APPLICATION_CONTEXT ( 'configuration controlled 3d designs of mechanical parts and assemblies' ) ;
#111 = DIRECTION ( 'NONE',  ( -3.491481338843133355E-15, 1.224646799147353207E-16, -1.000000000000000000 ) ) ;
#112 = DIRECTION ( 'NONE',  ( 0.0000000000000000000, 1.000000000000000000, 0.0000000000000000000 ) ) ;
#113 = CARTESIAN_POINT ( 'NONE',  ( 3.491481338843133355E-14, 1.974999999999988987, 10.00000000000000000 ) ) ;
#114 = AXIS2_PLACEMENT_3D ( 'NONE', #5, #198, #257 ) ;
#115 = LOCAL_TIME ( 10, 36, 14.00000000000000000, #138 ) ;
#116 = CARTESIAN_POINT ( 'NONE',  ( -3.687904622086104005E-31, 1.293542812545844387E-32, -1.056257864264585673E-16 ) ) ;
#117 = DATE_AND_TIME ( #13, #271 ) ;
#118 = DIRECTION ( 'NONE',  ( 0.0000000000000000000, 1.000000000000000000, 0.0000000000000000000 ) ) ;
#119 = VERTEX_POINT ( 'NONE', #204 ) ;
#120 = DIRECTION ( 'NONE',  ( -3.491481338843133355E-15, 1.224646799147353207E-16, -1.000000000000000000 ) ) ;
#121 = LOCAL_TIME ( 10, 36, 14.00000000000000000, #201 ) ;
#122 = APPROVAL_DATE_TIME ( #65, #245 ) ;
#123 = EDGE_LOOP ( 'NONE', ( #172 ) ) ;
#124 = FACE_BOUND ( 'NONE', #242, .T. ) ;
#125 = COORDINATED_UNIVERSAL_TIME_OFFSET ( 1, 0, .AHEAD. ) ;
#126 = CIRCLE ( 'NONE', #12, 1.200000000000001510 ) ;
#127 = EDGE_LOOP ( 'NONE', ( #258 ) ) ;
#128 = PERSON_AND_ORGANIZATION ( #157, #82 ) ;
#129 = EDGE_CURVE ( 'NONE', #159, #159, #46, .T. ) ;
#130 = ORIENTED_EDGE ( 'NONE', *, *, #151, .F. ) ;
#131 = CIRCLE ( 'NONE', #169, 1.974999999999990319 ) ;
#132 = CC_DESIGN_APPROVAL ( #212, ( #221 ) ) ;
#133 = CARTESIAN_POINT ( 'NONE',  ( 2.444036937190193601E-13, 1.199999999999992628, 70.00000000000000000 ) ) ;
#134 = PRODUCT_DEFINITION ( 'UNKNOWN', '', #7, #57 ) ;
#135 = FACE_OUTER_BOUND ( 'NONE', #123, .T. ) ;
#136 = DIRECTION ( 'NONE',  ( 0.0000000000000000000, 1.000000000000000000, 0.0000000000000000000 ) ) ;
#137 = ADVANCED_FACE ( 'NONE', ( #164, #239 ), #246, .T. ) ;
#138 = COORDINATED_UNIVERSAL_TIME_OFFSET ( 1, 0, .AHEAD. ) ;
#139 = CC_DESIGN_APPROVAL ( #245, ( #7 ) ) ;
#140 = DIRECTION ( 'NONE',  ( 0.0000000000000000000, 1.000000000000000000, 0.0000000000000000000 ) ) ;
#141 = DIRECTION ( 'NONE',  ( 0.0000000000000000000, 0.0000000000000000000, 1.000000000000000000 ) ) ;
#142 = FACE_OUTER_BOUND ( 'NONE', #262, .T. ) ;
#143 = EDGE_LOOP ( 'NONE', ( #149 ) ) ;
#144 = PERSON_AND_ORGANIZATION ( #157, #82 ) ;
#145 = ORIENTED_EDGE ( 'NONE', *, *, #283, .F. ) ;
#146 = AXIS2_PLACEMENT_3D ( 'NONE', #83, #34, #81 ) ;
#147 = ORIENTED_EDGE ( 'NONE', *, *, #129, .F. ) ;
#148 = PRODUCT_DEFINITION_SHAPE ( 'NONE', 'NONE',  #134 ) ;
#149 = ORIENTED_EDGE ( 'NONE', *, *, #291, .F. ) ;
#150 = DIRECTION ( 'NONE',  ( -3.491481338843133355E-15, 1.224646799147353207E-16, -1.000000000000000000 ) ) ;
#151 = EDGE_CURVE ( 'NONE', #218, #218, #109, .T. ) ;
#152 = PERSON_AND_ORGANIZATION_ROLE ( 'design_owner' ) ;
#153 = VERTEX_POINT ( 'NONE', #33 ) ;
#154 = FACE_OUTER_BOUND ( 'NONE', #29, .T. ) ;
#155 = VERTEX_POINT ( 'NONE', #290 ) ;
#156 = DIRECTION ( 'NONE',  ( -3.491481338843133355E-15, 1.224646799147353207E-16, -1.000000000000000000 ) ) ;
#157 = PERSON ( 'UNSPECIFIED', 'UNSPECIFIED', 'UNSPECIFIED', ('UNSPECIFIED'), ('UNSPECIFIED'), ('UNSPECIFIED') ) ;
#158 = DIRECTION ( 'NONE',  ( -3.491481338843133355E-15, 1.224646799147353207E-16, -1.000000000000000000 ) ) ;
#159 = VERTEX_POINT ( 'NONE', #133 ) ;
#160 = CALENDAR_DATE ( 2021, 2, 12 ) ;
#161 = SECURITY_CLASSIFICATION_LEVEL ( 'unclassified' ) ;
#162 = CARTESIAN_POINT ( 'NONE',  ( 2.433562493173664138E-13, -8.535788190057053710E-15, 69.70000000000001705 ) ) ;
#163 = FACE_OUTER_BOUND ( 'NONE', #254, .T. ) ;
#164 = FACE_OUTER_BOUND ( 'NONE', #280, .T. ) ;
#165 = DATE_TIME_ROLE ( 'classification_date' ) ;
#166 = CIRCLE ( 'NONE', #91, 1.974999999999990319 ) ;
#167 = CARTESIAN_POINT ( 'NONE',  ( 3.778733934789489324E-14, -1.325401446826218653E-15, 10.82272413359521046 ) ) ;
#168 = CC_DESIGN_PERSON_AND_ORGANIZATION_ASSIGNMENT ( #200, #152, ( #176 ) ) ;
#169 = AXIS2_PLACEMENT_3D ( 'NONE', #285, #286, #210 ) ;
#170 = FACE_BOUND ( 'NONE', #60, .T. ) ;
#171 = CC_DESIGN_DATE_AND_TIME_ASSIGNMENT ( #69, #165, ( #221 ) ) ;
#172 = ORIENTED_EDGE ( 'NONE', *, *, #193, .T. ) ;
#173 = UNCERTAINTY_MEASURE_WITH_UNIT (LENGTH_MEASURE( 1.000000000000000082E-05 ), #98, 'distance_accuracy_value', 'NONE');
#174 = ORIENTED_EDGE ( 'NONE', *, *, #278, .F. ) ;
#175 = AXIS2_PLACEMENT_3D ( 'NONE', #277, #156, #14 ) ;
#176 = PRODUCT ( '321621', '321621', '', ( #281 ) ) ;
#177 = ORIENTED_EDGE ( 'NONE', *, *, #61, .F. ) ;
#178 = DIRECTION ( 'NONE',  ( 0.0000000000000000000, 1.000000000000000000, 0.0000000000000000000 ) ) ;
#179 = ORIENTED_EDGE ( 'NONE', *, *, #291, .T. ) ;
#180 = APPROVAL_ROLE ( '' ) ;
#181 = FACE_OUTER_BOUND ( 'NONE', #282, .T. ) ;
#182 = FACE_OUTER_BOUND ( 'NONE', #199, .T. ) ;
#183 = AXIS2_PLACEMENT_3D ( 'NONE', #237, #111, #73 ) ;
#184 = DIRECTION ( 'NONE',  ( 4.275831445896958607E-31, 1.000000000000000000, 1.224646799147353207E-16 ) ) ;
#185 = ADVANCED_FACE ( 'NONE', ( #222 ), #36, .F. ) ;
#186 = APPROVAL_PERSON_ORGANIZATION ( #208, #212, #39 ) ;
#187 =( NAMED_UNIT ( * ) SI_UNIT ( $, .STERADIAN. ) SOLID_ANGLE_UNIT ( ) );
#188 = ADVANCED_FACE ( 'NONE', ( #3, #230 ), #2, .T. ) ;
#189 = PERSON_AND_ORGANIZATION ( #157, #82 ) ;
#190 = CONICAL_SURFACE ( 'NONE', #263, 1.974999999999990319, 0.5235987755983000369 ) ;
#191 = DIRECTION ( 'NONE',  ( 4.275831445896958607E-31, 1.000000000000000000, 1.224646799147353207E-16 ) ) ;
#192 = PERSON_AND_ORGANIZATION_ROLE ( 'creator' ) ;
#193 = EDGE_CURVE ( 'NONE', #266, #266, #196, .T. ) ;
#194 = DIRECTION ( 'NONE',  ( -3.491481338843133355E-15, 1.224646799147353207E-16, -1.000000000000000000 ) ) ;
#195 = ORIENTED_EDGE ( 'NONE', *, *, #74, .T. ) ;
#196 = CIRCLE ( 'NONE', #211, 1.974999999999990319 ) ;
#197 = AXIS2_PLACEMENT_3D ( 'NONE', #101, #272, #191 ) ;
#198 = DIRECTION ( 'NONE',  ( -3.491481338843133355E-15, 1.224646799147353207E-16, -1.000000000000000000 ) ) ;
#199 = EDGE_LOOP ( 'NONE', ( #235 ) ) ;
#200 = PERSON_AND_ORGANIZATION ( #157, #82 ) ;
#201 = COORDINATED_UNIVERSAL_TIME_OFFSET ( 1, 0, .AHEAD. ) ;
#202 = CARTESIAN_POINT ( 'NONE',  ( 0.0000000000000000000, 0.0000000000000000000, 0.0000000000000000000 ) ) ;
#203 = AXIS2_PLACEMENT_3D ( 'NONE', #167, #250, #118 ) ;
#204 = CARTESIAN_POINT ( 'NONE',  ( 2.444036937190193601E-13, 1.199999999999992628, 70.00000000000000000 ) ) ;
#205 = DATE_AND_TIME ( #94, #115 ) ;
#206 = FACE_OUTER_BOUND ( 'NONE', #215, .T. ) ;
#207 = FACE_BOUND ( 'NONE', #226, .T. ) ;
#208 = PERSON_AND_ORGANIZATION ( #157, #82 ) ;
#209 = EDGE_LOOP ( 'NONE', ( #195 ) ) ;
#210 = DIRECTION ( 'NONE',  ( 3.900617608885560003E-31, 1.000000000000000000, 1.097926250618237696E-16 ) ) ;
#211 = AXIS2_PLACEMENT_3D ( 'NONE', #276, #251, #48 ) ;
#212 = APPROVAL ( #72, 'UNSPECIFIED' ) ;
#213 = CIRCLE ( 'NONE', #270, 1.500000000000001110 ) ;
#214 = APPROVAL_STATUS ( 'not_yet_approved' ) ;
#215 = EDGE_LOOP ( 'NONE', ( #231 ) ) ;
#216 = EDGE_CURVE ( 'NONE', #119, #119, #126, .T. ) ;
#217 = CC_DESIGN_PERSON_AND_ORGANIZATION_ASSIGNMENT ( #78, #292, ( #7 ) ) ;
#218 = VERTEX_POINT ( 'NONE', #11 ) ;
#219 = DIRECTION ( 'NONE',  ( -3.491481338843133355E-15, 1.224646799147353207E-16, -1.000000000000000000 ) ) ;
#220 = CARTESIAN_POINT ( 'NONE',  ( 0.0000000000000000000, 0.0000000000000000000, 0.0000000000000000000 ) ) ;
#221 = SECURITY_CLASSIFICATION ( '', '', #161 ) ;
#222 = FACE_OUTER_BOUND ( 'NONE', #108, .T. ) ;
#223 = VERTEX_POINT ( 'NONE', #44 ) ;
#224 = DIRECTION ( 'NONE',  ( 0.0000000000000000000, 1.000000000000000000, 0.0000000000000000000 ) ) ;
#225 = APPROVAL_DATE_TIME ( #205, #212 ) ;
#226 = EDGE_LOOP ( 'NONE', ( #42 ) ) ;
#227 = CYLINDRICAL_SURFACE ( 'NONE', #289, 1.499999999999996891 ) ;
#228 = CIRCLE ( 'NONE', #203, 1.499999999999992895 ) ;
#229 = CALENDAR_DATE ( 2021, 2, 12 ) ;
#230 = FACE_BOUND ( 'NONE', #279, .T. ) ;
#231 = ORIENTED_EDGE ( 'NONE', *, *, #216, .F. ) ;
#232 = CLOSED_SHELL ( 'NONE', ( #18, #269, #188, #302, #288, #249, #104 ) ) ;
#233 = LOCAL_TIME ( 10, 36, 14.00000000000000000, #41 ) ;
#234 = ORIENTED_EDGE ( 'NONE', *, *, #193, .F. ) ;
#235 = ORIENTED_EDGE ( 'NONE', *, *, #151, .T. ) ;
#236 = APPROVAL_PERSON_ORGANIZATION ( #27, #84, #180 ) ;
#237 = CARTESIAN_POINT ( 'NONE',  ( 2.433562493173664138E-13, -8.535788190057053710E-15, 69.70000000000001705 ) ) ;
#238 = VERTEX_POINT ( 'NONE', #35 ) ;
#239 = FACE_OUTER_BOUND ( 'NONE', #28, .T. ) ;
#240 = APPROVAL_DATE_TIME ( #30, #84 ) ;
#241 = CIRCLE ( 'NONE', #253, 1.499999999999992895 ) ;
#242 = EDGE_LOOP ( 'NONE', ( #268 ) ) ;
#243 = PERSON_AND_ORGANIZATION ( #157, #82 ) ;
#244 = PLANE ( 'NONE',  #86 ) ;
#245 = APPROVAL ( #63, 'UNSPECIFIED' ) ;
#246 = CYLINDRICAL_SURFACE ( 'NONE', #247, 1.499999999999996891 ) ;
#247 = AXIS2_PLACEMENT_3D ( 'NONE', #220, #219, #19 ) ;
#248 = MANIFOLD_SOLID_BREP ( 'Corps-Déplacer/Copier1[2]', #232 ) ;
#249 = ADVANCED_FACE ( 'NONE', ( #303, #170 ), #64, .T. ) ;
#250 = DIRECTION ( 'NONE',  ( -3.491481338843133355E-15, 1.224646799147353207E-16, -1.000000000000000000 ) ) ;
#251 = DIRECTION ( 'NONE',  ( -3.491481338843133355E-15, 1.224646799147353207E-16, -1.000000000000000000 ) ) ;
#252 = APPROVAL_ROLE ( '' ) ;
#253 = AXIS2_PLACEMENT_3D ( 'NONE', #50, #255, #53 ) ;
#254 = EDGE_LOOP ( 'NONE', ( #147 ) ) ;
#255 = DIRECTION ( 'NONE',  ( -3.491481338843133355E-15, 1.224646799147353207E-16, -1.000000000000000000 ) ) ;
#256 = DIRECTION ( 'NONE',  ( -4.275831445896958607E-31, -1.000000000000000000, -1.224646799147353207E-16 ) ) ;
#257 = DIRECTION ( 'NONE',  ( 0.0000000000000000000, 1.000000000000000000, 0.0000000000000000000 ) ) ;
#258 = ORIENTED_EDGE ( 'NONE', *, *, #74, .F. ) ;
#259 = CC_DESIGN_PERSON_AND_ORGANIZATION_ASSIGNMENT ( #243, #75, ( #221 ) ) ;
#260 = DIRECTION ( 'NONE',  ( -3.491481338843133355E-15, 1.224646799147353207E-16, -1.000000000000000000 ) ) ;
#261 = DIRECTION ( 'NONE',  ( 0.0000000000000000000, 1.000000000000000000, 0.0000000000000000000 ) ) ;
#262 = EDGE_LOOP ( 'NONE', ( #8 ) ) ;
#263 = AXIS2_PLACEMENT_3D ( 'NONE', #85, #260, #112 ) ;
#264 = VERTEX_POINT ( 'NONE', #66 ) ;
#265 = ADVANCED_FACE ( 'NONE', ( #154, #207 ), #105, .T. ) ;
#266 = VERTEX_POINT ( 'NONE', #113 ) ;
#267 = PLANE ( 'NONE',  #59 ) ;
#268 = ORIENTED_EDGE ( 'NONE', *, *, #278, .T. ) ;
#269 = ADVANCED_FACE ( 'NONE', ( #135, #90 ), #55, .T. ) ;
#270 = AXIS2_PLACEMENT_3D ( 'NONE', #162, #16, #136 ) ;
#271 = LOCAL_TIME ( 10, 36, 14.00000000000000000, #273 ) ;
#272 = DIRECTION ( 'NONE',  ( -3.491481338843133355E-15, 1.224646799147353207E-16, -1.000000000000000000 ) ) ;
#273 = COORDINATED_UNIVERSAL_TIME_OFFSET ( 1, 0, .AHEAD. ) ;
#274 = CIRCLE ( 'NONE', #183, 1.500000000000001110 ) ;
#275 = ADVANCED_BREP_SHAPE_REPRESENTATION ( '321621', ( #62, #248, #294 ), #70 ) ;
#276 = CARTESIAN_POINT ( 'NONE',  ( 3.491481338843133355E-14, -1.224646799147353256E-15, 10.00000000000000000 ) ) ;
#277 = CARTESIAN_POINT ( 'NONE',  ( 2.444036937190193601E-13, -8.572527594031472993E-15, 70.00000000000000000 ) ) ;
#278 = EDGE_CURVE ( 'NONE', #155, #155, #241, .T. ) ;
#279 = EDGE_LOOP ( 'NONE', ( #130 ) ) ;
#280 = EDGE_LOOP ( 'NONE', ( #174 ) ) ;
#281 = MECHANICAL_CONTEXT ( 'NONE', #96, 'mechanical' ) ;
#282 = EDGE_LOOP ( 'NONE', ( #234 ) ) ;
#283 = EDGE_CURVE ( 'NONE', #238, #238, #131, .T. ) ;
#284 = CONICAL_SURFACE ( 'NONE', #114, 1.974999999999990319, 0.5235987755983000369 ) ;
#285 = CARTESIAN_POINT ( 'NONE',  ( 8.728703347107825500E-16, -3.061616997868380553E-17, 0.2499999999999997780 ) ) ;
#286 = DIRECTION ( 'NONE',  ( -3.491481338843133355E-15, 1.224646799147353207E-16, -1.000000000000000000 ) ) ;
#287 = EDGE_LOOP ( 'NONE', ( #179 ) ) ;
#288 = ADVANCED_FACE ( 'NONE', ( #163 ), #298, .F. ) ;
#289 = AXIS2_PLACEMENT_3D ( 'NONE', #202, #158, #76 ) ;
#290 = CARTESIAN_POINT ( 'NONE',  ( 3.778733934789489324E-14, 1.499999999999991562, 10.82272413359521046 ) ) ;
#291 = EDGE_CURVE ( 'NONE', #223, #223, #228, .T. ) ;
#292 = PERSON_AND_ORGANIZATION_ROLE ( 'design_supplier' ) ;
#293 = DIRECTION ( 'NONE',  ( -3.491481338843133355E-15, 1.224646799147353207E-16, -1.000000000000000000 ) ) ;
#294 = AXIS2_PLACEMENT_3D ( 'NONE', #71, #141, #22 ) ;
#295 = DIRECTION ( 'NONE',  ( 4.275831445896958607E-31, 1.000000000000000000, 1.224646799147353207E-16 ) ) ;
#296 = DIRECTION ( 'NONE',  ( -3.491481338843133355E-15, 1.224646799147353207E-16, -1.000000000000000000 ) ) ;
#297 = ADVANCED_FACE ( 'NONE', ( #124, #142 ), #190, .T. ) ;
#298 = PLANE ( 'NONE',  #197 ) ;
#299 = AXIS2_PLACEMENT_3D ( 'NONE', #54, #301, #256 ) ;
#300 = LOCAL_TIME ( 10, 36, 14.00000000000000000, #125 ) ;
#301 = DIRECTION ( 'NONE',  ( 3.491481338843133355E-15, -1.224646799147353207E-16, 1.000000000000000000 ) ) ;
#302 = ADVANCED_FACE ( 'NONE', ( #182 ), #267, .T. ) ;
#303 = FACE_OUTER_BOUND ( 'NONE', #127, .T. ) ;
ENDSEC;
END-ISO-10303-21;
