ISO-10303-21;
HEADER;
FILE_DESCRIPTION (( 'STEP AP203' ),
    '1' );
FILE_NAME ('321620.step',
    '2021-12-02T09:36:13',
    ( '' ),
    ( '' ),
    'SwSTEP 2.0',
    'SolidWorks 2019',
    '' );
FILE_SCHEMA (( 'CONFIG_CONTROL_DESIGN' ));
ENDSEC;

DATA;
#1 = CONICAL_SURFACE ( 'NONE', #78, 1.200000000000001510, 0.7853981633974566057 ) ;
#2 = CIRCLE ( 'NONE', #232, 1.499999999999992895 ) ;
#3 = CARTESIAN_POINT ( 'NONE',  ( 3.491481338843133355E-14, -1.224646799147353256E-15, 10.00000000000000000 ) ) ;
#4 = PRODUCT_DEFINITION ( 'UNKNOWN', '', #117, #67 ) ;
#5 = DIRECTION ( 'NONE',  ( 4.275831445896958607E-31, 1.000000000000000000, 1.224646799147353454E-16 ) ) ;
#6 = DATE_AND_TIME ( #149, #215 ) ;
#7 = COORDINATED_UNIVERSAL_TIME_OFFSET ( 1, 0, .AHEAD. ) ;
#8 = AXIS2_PLACEMENT_3D ( 'NONE', #185, #45, #247 ) ;
#9 = CALENDAR_DATE ( 2021, 2, 12 ) ;
#10 = EDGE_CURVE ( 'NONE', #100, #100, #222, .T. ) ;
#11 = CARTESIAN_POINT ( 'NONE',  ( 3.775710223253211820E-14, -1.324340871587493411E-15, 10.81406387955736470 ) ) ;
#12 = EDGE_LOOP ( 'NONE', ( #60 ) ) ;
#13 = DIRECTION ( 'NONE',  ( 4.275831445896958607E-31, 1.000000000000000000, 1.224646799147353207E-16 ) ) ;
#14 = FACE_BOUND ( 'NONE', #12, .T. ) ;
#15 = CARTESIAN_POINT ( 'NONE',  ( 3.775710223253211820E-14, 1.499999999999991562, 10.81406387955736470 ) ) ;
#16 = ADVANCED_FACE ( 'NONE', ( #153, #102 ), #85, .T. ) ;
#17 = EDGE_LOOP ( 'NONE', ( #52 ) ) ;
#18 = VERTEX_POINT ( 'NONE', #15 ) ;
#19 = APPLICATION_CONTEXT ( 'configuration controlled 3d designs of mechanical parts and assemblies' ) ;
#20 = AXIS2_PLACEMENT_3D ( 'NONE', #48, #207, #265 ) ;
#21 = CC_DESIGN_PERSON_AND_ORGANIZATION_ASSIGNMENT ( #51, #112, ( #239 ) ) ;
#22 = ORIENTED_EDGE ( 'NONE', *, *, #109, .T. ) ;
#23 = CIRCLE ( 'NONE', #130, 1.969999999999989981 ) ;
#24 = MECHANICAL_CONTEXT ( 'NONE', #113, 'mechanical' ) ;
#25 = DATE_TIME_ROLE ( 'creation_date' ) ;
#26 = EDGE_LOOP ( 'NONE', ( #50 ) ) ;
#27 = CIRCLE ( 'NONE', #255, 1.200000000000001510 ) ;
#28 = CARTESIAN_POINT ( 'NONE',  ( 0.0000000000000000000, 0.0000000000000000000, 0.0000000000000000000 ) ) ;
#29 = APPROVAL_STATUS ( 'not_yet_approved' ) ;
#30 = DIRECTION ( 'NONE',  ( 0.0000000000000000000, 1.000000000000000000, 0.0000000000000000000 ) ) ;
#31 = ORIENTED_EDGE ( 'NONE', *, *, #254, .T. ) ;
#32 = CARTESIAN_POINT ( 'NONE',  ( 2.433562493173664138E-13, 1.499999999999992673, 69.70000000000001705 ) ) ;
#33 = PRODUCT_DEFINITION_SHAPE ( 'NONE', 'NONE',  #4 ) ;
#34 = CC_DESIGN_DATE_AND_TIME_ASSIGNMENT ( #97, #25, ( #4 ) ) ;
#35 = CONICAL_SURFACE ( 'NONE', #72, 1.969999999999989981, 0.5235987755983002589 ) ;
#36 = LOCAL_TIME ( 10, 36, 13.00000000000000000, #219 ) ;
#37 = VERTEX_POINT ( 'NONE', #116 ) ;
#38 = VERTEX_POINT ( 'NONE', #223 ) ;
#39 = ADVANCED_FACE ( 'NONE', ( #110 ), #184, .F. ) ;
#40 = CARTESIAN_POINT ( 'NONE',  ( 2.433562493173664138E-13, 1.499999999999992673, 69.70000000000001705 ) ) ;
#41 = CIRCLE ( 'NONE', #92, 1.500000000000001110 ) ;
#42 = DIRECTION ( 'NONE',  ( -3.491481338843133355E-15, 1.224646799147353207E-16, -1.000000000000000000 ) ) ;
#43 = DIRECTION ( 'NONE',  ( -3.491481338843133355E-15, 1.224646799147353207E-16, -1.000000000000000000 ) ) ;
#44 = APPROVAL_PERSON_ORGANIZATION ( #190, #157, #231 ) ;
#45 = DIRECTION ( 'NONE',  ( -3.491481338843133355E-15, 1.224646799147353207E-16, -1.000000000000000000 ) ) ;
#46 = DIRECTION ( 'NONE',  ( 0.0000000000000000000, 1.000000000000000000, 0.0000000000000000000 ) ) ;
#47 = FACE_OUTER_BOUND ( 'NONE', #216, .T. ) ;
#48 = CARTESIAN_POINT ( 'NONE',  ( 2.444036937190193601E-13, -8.572527594031472993E-15, 70.00000000000000000 ) ) ;
#49 = ADVANCED_FACE ( 'NONE', ( #186, #243 ), #35, .T. ) ;
#50 = ORIENTED_EDGE ( 'NONE', *, *, #10, .F. ) ;
#51 = PERSON_AND_ORGANIZATION ( #114, #211 ) ;
#52 = ORIENTED_EDGE ( 'NONE', *, *, #109, .F. ) ;
#53 = CARTESIAN_POINT ( 'NONE',  ( 3.491481338843133355E-14, -1.224646799147353256E-15, 10.00000000000000000 ) ) ;
#54 = PERSON_AND_ORGANIZATION ( #114, #211 ) ;
#55 = CIRCLE ( 'NONE', #108, 1.499999999999992895 ) ;
#56 = PERSON_AND_ORGANIZATION ( #114, #211 ) ;
#57 = DIRECTION ( 'NONE',  ( -3.491481338843133355E-15, 1.224646799147353207E-16, -1.000000000000000000 ) ) ;
#58 = CALENDAR_DATE ( 2021, 2, 12 ) ;
#59 = VERTEX_POINT ( 'NONE', #285 ) ;
#60 = ORIENTED_EDGE ( 'NONE', *, *, #210, .T. ) ;
#61 = ORIENTED_EDGE ( 'NONE', *, *, #10, .T. ) ;
#62 =( LENGTH_UNIT ( ) NAMED_UNIT ( * ) SI_UNIT ( .MILLI., .METRE. ) );
#63 = DIRECTION ( 'NONE',  ( -3.491481338843133355E-15, 1.224646799147353207E-16, -1.000000000000000000 ) ) ;
#64 = CC_DESIGN_APPROVAL ( #119, ( #208 ) ) ;
#65 = CARTESIAN_POINT ( 'NONE',  ( 2.433562493173664138E-13, -8.535788190057053710E-15, 69.70000000000001705 ) ) ;
#66 = FACE_OUTER_BOUND ( 'NONE', #96, .T. ) ;
#67 = DESIGN_CONTEXT ( 'detailed design', #19, 'design' ) ;
#68 = VERTEX_POINT ( 'NONE', #40 ) ;
#69 = FACE_OUTER_BOUND ( 'NONE', #198, .T. ) ;
#70 = CC_DESIGN_APPROVAL ( #263, ( #4 ) ) ;
#71 = DIRECTION ( 'NONE',  ( 0.0000000000000000000, 1.000000000000000000, 0.0000000000000000000 ) ) ;
#72 = AXIS2_PLACEMENT_3D ( 'NONE', #93, #226, #272 ) ;
#73 = ORIENTED_EDGE ( 'NONE', *, *, #138, .T. ) ;
#74 = EDGE_LOOP ( 'NONE', ( #73 ) ) ;
#75 = ADVANCED_FACE ( 'NONE', ( #206, #218 ), #287, .T. ) ;
#76 = SECURITY_CLASSIFICATION_LEVEL ( 'unclassified' ) ;
#77 = DIRECTION ( 'NONE',  ( -3.491481338843133355E-15, 1.224646799147353207E-16, -1.000000000000000000 ) ) ;
#78 = AXIS2_PLACEMENT_3D ( 'NONE', #99, #169, #252 ) ;
#79 = EDGE_LOOP ( 'NONE', ( #189 ) ) ;
#80 = VERTEX_POINT ( 'NONE', #84 ) ;
#81 = EDGE_LOOP ( 'NONE', ( #31 ) ) ;
#82 = AXIS2_PLACEMENT_3D ( 'NONE', #65, #228, #46 ) ;
#83 = EDGE_LOOP ( 'NONE', ( #253 ) ) ;
#84 = CARTESIAN_POINT ( 'NONE',  ( 2.444036937190193601E-13, 1.199999999999992628, 70.00000000000000000 ) ) ;
#85 = CYLINDRICAL_SURFACE ( 'NONE', #129, 1.499999999999996891 ) ;
#86 = CARTESIAN_POINT ( 'NONE',  ( 2.444036937190193601E-13, 1.199999999999992628, 70.00000000000000000 ) ) ;
#87 = DIRECTION ( 'NONE',  ( 0.0000000000000000000, 1.000000000000000000, 0.0000000000000000000 ) ) ;
#88 = CC_DESIGN_PERSON_AND_ORGANIZATION_ASSIGNMENT ( #166, #173, ( #4 ) ) ;
#89 = ORIENTED_EDGE ( 'NONE', *, *, #296, .T. ) ;
#90 = PLANE ( 'NONE',  #8 ) ;
#91 = EDGE_LOOP ( 'NONE', ( #202 ) ) ;
#92 = AXIS2_PLACEMENT_3D ( 'NONE', #271, #77, #127 ) ;
#93 = CARTESIAN_POINT ( 'NONE',  ( 3.491481338843133355E-14, -1.224646799147353256E-15, 10.00000000000000000 ) ) ;
#94 = SHAPE_DEFINITION_REPRESENTATION ( #33, #134 ) ;
#95 = DATE_AND_TIME ( #58, #36 ) ;
#96 = EDGE_LOOP ( 'NONE', ( #156 ) ) ;
#97 = DATE_AND_TIME ( #9, #241 ) ;
#98 = CC_DESIGN_PERSON_AND_ORGANIZATION_ASSIGNMENT ( #195, #120, ( #208 ) ) ;
#99 = CARTESIAN_POINT ( 'NONE',  ( 2.444036937190193601E-13, -8.572527594031472993E-15, 70.00000000000000000 ) ) ;
#100 = VERTEX_POINT ( 'NONE', #123 ) ;
#101 =( GEOMETRIC_REPRESENTATION_CONTEXT ( 3 ) GLOBAL_UNCERTAINTY_ASSIGNED_CONTEXT ( ( #163 ) ) GLOBAL_UNIT_ASSIGNED_CONTEXT ( ( #62, #183, #266 ) ) REPRESENTATION_CONTEXT ( 'NONE', 'WORKASPACE' ) );
#102 = FACE_OUTER_BOUND ( 'NONE', #131, .T. ) ;
#103 = DIRECTION ( 'NONE',  ( 4.275831445896958607E-31, 1.000000000000000000, 1.224646799147353207E-16 ) ) ;
#104 = DIRECTION ( 'NONE',  ( 1.000000000000000000, 0.0000000000000000000, 0.0000000000000000000 ) ) ;
#105 = DIRECTION ( 'NONE',  ( -3.491481338843133355E-15, 1.224646799147353207E-16, -1.000000000000000000 ) ) ;
#106 = PLANE ( 'NONE',  #121 ) ;
#107 = APPROVAL_ROLE ( '' ) ;
#108 = AXIS2_PLACEMENT_3D ( 'NONE', #11, #144, #256 ) ;
#109 = EDGE_CURVE ( 'NONE', #59, #59, #277, .T. ) ;
#110 = FACE_OUTER_BOUND ( 'NONE', #91, .T. ) ;
#111 = FACE_BOUND ( 'NONE', #289, .T. ) ;
#112 = PERSON_AND_ORGANIZATION_ROLE ( 'design_owner' ) ;
#113 = APPLICATION_CONTEXT ( 'configuration controlled 3d designs of mechanical parts and assemblies' ) ;
#114 = PERSON ( 'UNSPECIFIED', 'UNSPECIFIED', 'UNSPECIFIED', ('UNSPECIFIED'), ('UNSPECIFIED'), ('UNSPECIFIED') ) ;
#115 = ORIENTED_EDGE ( 'NONE', *, *, #254, .F. ) ;
#116 = CARTESIAN_POINT ( 'NONE',  ( 3.491481338843133355E-14, 1.969999999999988649, 10.00000000000000000 ) ) ;
#117 = PRODUCT_DEFINITION_FORMATION_WITH_SPECIFIED_SOURCE ( 'ANY', '', #239, .NOT_KNOWN. ) ;
#118 = APPROVAL_DATE_TIME ( #275, #263 ) ;
#119 = APPROVAL ( #126, 'UNSPECIFIED' ) ;
#120 = PERSON_AND_ORGANIZATION_ROLE ( 'classification_officer' ) ;
#121 = AXIS2_PLACEMENT_3D ( 'NONE', #258, #200, #103 ) ;
#122 = CALENDAR_DATE ( 2021, 2, 12 ) ;
#123 = CARTESIAN_POINT ( 'NONE',  ( 0.0000000000000000000, 1.719999999999989093, 0.0000000000000000000 ) ) ;
#124 = ADVANCED_FACE ( 'NONE', ( #233 ), #125, .F. ) ;
#125 = PLANE ( 'NONE',  #191 ) ;
#126 = APPROVAL_STATUS ( 'not_yet_approved' ) ;
#127 = DIRECTION ( 'NONE',  ( 0.0000000000000000000, 1.000000000000000000, 0.0000000000000000000 ) ) ;
#128 = APPROVAL_ROLE ( '' ) ;
#129 = AXIS2_PLACEMENT_3D ( 'NONE', #238, #209, #5 ) ;
#130 = AXIS2_PLACEMENT_3D ( 'NONE', #3, #42, #135 ) ;
#131 = EDGE_LOOP ( 'NONE', ( #264 ) ) ;
#132 = ADVANCED_FACE ( 'NONE', ( #69, #47 ), #248, .T. ) ;
#133 = CONICAL_SURFACE ( 'NONE', #278, 1.969999999999989981, 0.5235987755983002589 ) ;
#134 = ADVANCED_BREP_SHAPE_REPRESENTATION ( '321620', ( #145, #240, #273 ), #101 ) ;
#135 = DIRECTION ( 'NONE',  ( 0.0000000000000000000, 1.000000000000000000, 0.0000000000000000000 ) ) ;
#136 = CIRCLE ( 'NONE', #82, 1.500000000000001110 ) ;
#137 = FACE_OUTER_BOUND ( 'NONE', #286, .T. ) ;
#138 = EDGE_CURVE ( 'NONE', #236, #236, #136, .T. ) ;
#139 = APPROVAL_STATUS ( 'not_yet_approved' ) ;
#140 = EDGE_CURVE ( 'NONE', #37, #37, #23, .T. ) ;
#141 = EDGE_LOOP ( 'NONE', ( #154 ) ) ;
#142 = CARTESIAN_POINT ( 'NONE',  ( 0.0000000000000000000, 0.0000000000000000000, 0.0000000000000000000 ) ) ;
#143 = COORDINATED_UNIVERSAL_TIME_OFFSET ( 1, 0, .AHEAD. ) ;
#144 = DIRECTION ( 'NONE',  ( -3.491481338843133355E-15, 1.224646799147353207E-16, -1.000000000000000000 ) ) ;
#145 = MANIFOLD_SOLID_BREP ( 'Corps-Déplacer/Copier1[1]', #180 ) ;
#146 = EDGE_LOOP ( 'NONE', ( #203 ) ) ;
#147 = FACE_OUTER_BOUND ( 'NONE', #230, .T. ) ;
#148 = DIRECTION ( 'NONE',  ( 3.491481338843133355E-15, -1.224646799147353207E-16, 1.000000000000000000 ) ) ;
#149 = CALENDAR_DATE ( 2021, 2, 12 ) ;
#150 = DIRECTION ( 'NONE',  ( 3.910517653578163605E-31, 1.000000000000000000, 1.100712865467522749E-16 ) ) ;
#151 = FACE_OUTER_BOUND ( 'NONE', #250, .T. ) ;
#152 = DIRECTION ( 'NONE',  ( -3.491481338843133355E-15, 1.224646799147353207E-16, -1.000000000000000000 ) ) ;
#153 = FACE_OUTER_BOUND ( 'NONE', #79, .T. ) ;
#154 = ORIENTED_EDGE ( 'NONE', *, *, #235, .T. ) ;
#155 = CARTESIAN_POINT ( 'NONE',  ( 2.444036937190193601E-13, -8.572527594031472993E-15, 70.00000000000000000 ) ) ;
#156 = ORIENTED_EDGE ( 'NONE', *, *, #296, .F. ) ;
#157 = APPROVAL ( #29, 'UNSPECIFIED' ) ;
#158 = LOCAL_TIME ( 10, 36, 13.00000000000000000, #282 ) ;
#159 = DIRECTION ( 'NONE',  ( 3.491481338843133355E-15, -1.224646799147353207E-16, 1.000000000000000000 ) ) ;
#160 = FACE_OUTER_BOUND ( 'NONE', #17, .T. ) ;
#161 = PRODUCT_RELATED_PRODUCT_CATEGORY ( 'detail', '', ( #239 ) ) ;
#162 = DIRECTION ( 'NONE',  ( 4.275831445896958607E-31, 1.000000000000000000, 1.224646799147353207E-16 ) ) ;
#163 = UNCERTAINTY_MEASURE_WITH_UNIT (LENGTH_MEASURE( 1.000000000000000082E-05 ), #62, 'distance_accuracy_value', 'NONE');
#164 = ADVANCED_FACE ( 'NONE', ( #302, #297 ), #225, .T. ) ;
#165 = APPROVAL_PERSON_ORGANIZATION ( #56, #263, #107 ) ;
#166 = PERSON_AND_ORGANIZATION ( #114, #211 ) ;
#167 = CARTESIAN_POINT ( 'NONE',  ( -7.354430086942722420E-31, 2.579586826178378883E-32, -2.106392494533434224E-16 ) ) ;
#168 = CALENDAR_DATE ( 2021, 2, 12 ) ;
#169 = DIRECTION ( 'NONE',  ( -3.491481338843133355E-15, 1.224646799147353207E-16, -1.000000000000000000 ) ) ;
#170 = EDGE_CURVE ( 'NONE', #68, #68, #41, .T. ) ;
#171 = CLOSED_SHELL ( 'NONE', ( #224, #132, #164, #268, #229, #227, #75 ) ) ;
#172 = CIRCLE ( 'NONE', #192, 1.969999999999989981 ) ;
#173 = PERSON_AND_ORGANIZATION_ROLE ( 'creator' ) ;
#174 = DIRECTION ( 'NONE',  ( 0.0000000000000000000, 1.000000000000000000, 0.0000000000000000000 ) ) ;
#175 = DIRECTION ( 'NONE',  ( 4.275831445896958607E-31, 1.000000000000000000, 1.224646799147353454E-16 ) ) ;
#176 = CC_DESIGN_PERSON_AND_ORGANIZATION_ASSIGNMENT ( #288, #237, ( #117 ) ) ;
#177 = AXIS2_PLACEMENT_3D ( 'NONE', #181, #159, #301 ) ;
#178 = LOCAL_TIME ( 10, 36, 13.00000000000000000, #143 ) ;
#179 = EDGE_LOOP ( 'NONE', ( #115 ) ) ;
#180 = CLOSED_SHELL ( 'NONE', ( #39, #49, #16, #188, #124 ) ) ;
#181 = CARTESIAN_POINT ( 'NONE',  ( 3.491481338843133355E-14, 1.477263385921920274E-32, 10.00000000000000000 ) ) ;
#182 = FACE_BOUND ( 'NONE', #81, .T. ) ;
#183 =( NAMED_UNIT ( * ) PLANE_ANGLE_UNIT ( ) SI_UNIT ( $, .RADIAN. ) );
#184 = PLANE ( 'NONE',  #177 ) ;
#185 = CARTESIAN_POINT ( 'NONE',  ( 2.444036937190193601E-13, -8.572527594031472993E-15, 70.00000000000000000 ) ) ;
#186 = FACE_BOUND ( 'NONE', #141, .T. ) ;
#187 = AXIS2_PLACEMENT_3D ( 'NONE', #167, #148, #204 ) ;
#188 = ADVANCED_FACE ( 'NONE', ( #151, #14 ), #249, .T. ) ;
#189 = ORIENTED_EDGE ( 'NONE', *, *, #235, .F. ) ;
#190 = PERSON_AND_ORGANIZATION ( #114, #211 ) ;
#191 = AXIS2_PLACEMENT_3D ( 'NONE', #283, #43, #162 ) ;
#192 = AXIS2_PLACEMENT_3D ( 'NONE', #259, #57, #150 ) ;
#193 = DATE_TIME_ROLE ( 'classification_date' ) ;
#194 = DIRECTION ( 'NONE',  ( -3.491481338843133355E-15, 1.224646799147353207E-16, -1.000000000000000000 ) ) ;
#195 = PERSON_AND_ORGANIZATION ( #114, #211 ) ;
#196 = APPLICATION_PROTOCOL_DEFINITION ( 'international standard', 'config_control_design', 1994, #113 ) ;
#197 = DIRECTION ( 'NONE',  ( 0.0000000000000000000, 0.0000000000000000000, 1.000000000000000000 ) ) ;
#198 = EDGE_LOOP ( 'NONE', ( #22 ) ) ;
#199 = PERSON_AND_ORGANIZATION_ROLE ( 'creator' ) ;
#200 = DIRECTION ( 'NONE',  ( -3.491481338843133355E-15, 1.224646799147353207E-16, -1.000000000000000000 ) ) ;
#201 = APPROVAL_PERSON_ORGANIZATION ( #54, #119, #128 ) ;
#202 = ORIENTED_EDGE ( 'NONE', *, *, #140, .T. ) ;
#203 = ORIENTED_EDGE ( 'NONE', *, *, #210, .F. ) ;
#204 = DIRECTION ( 'NONE',  ( -4.275831445896958607E-31, -1.000000000000000000, -1.224646799147353207E-16 ) ) ;
#205 = VERTEX_POINT ( 'NONE', #86 ) ;
#206 = FACE_OUTER_BOUND ( 'NONE', #179, .T. ) ;
#207 = DIRECTION ( 'NONE',  ( -3.491481338843133355E-15, 1.224646799147353207E-16, -1.000000000000000000 ) ) ;
#208 = SECURITY_CLASSIFICATION ( '', '', #76 ) ;
#209 = DIRECTION ( 'NONE',  ( -3.491481338843133355E-15, 1.224646799147353207E-16, -1.000000000000000000 ) ) ;
#210 = EDGE_CURVE ( 'NONE', #205, #205, #27, .T. ) ;
#211 = ORGANIZATION ( 'UNSPECIFIED', 'UNSPECIFIED', '' ) ;
#212 = DATE_AND_TIME ( #168, #158 ) ;
#213 = APPROVAL_DATE_TIME ( #95, #157 ) ;
#214 = AXIS2_PLACEMENT_3D ( 'NONE', #270, #303, #245 ) ;
#215 = LOCAL_TIME ( 10, 36, 13.00000000000000000, #220 ) ;
#216 = EDGE_LOOP ( 'NONE', ( #260 ) ) ;
#217 = CARTESIAN_POINT ( 'NONE',  ( 2.444036937190193601E-13, -8.572527594031472993E-15, 70.00000000000000000 ) ) ;
#218 = FACE_OUTER_BOUND ( 'NONE', #74, .T. ) ;
#219 = COORDINATED_UNIVERSAL_TIME_OFFSET ( 1, 0, .AHEAD. ) ;
#220 = COORDINATED_UNIVERSAL_TIME_OFFSET ( 1, 0, .AHEAD. ) ;
#221 = ORIENTED_EDGE ( 'NONE', *, *, #291, .T. ) ;
#222 = CIRCLE ( 'NONE', #292, 1.719999999999989093 ) ;
#223 = CARTESIAN_POINT ( 'NONE',  ( 3.775710223253211820E-14, 1.499999999999991562, 10.81406387955736470 ) ) ;
#224 = ADVANCED_FACE ( 'NONE', ( #182, #160 ), #133, .T. ) ;
#225 = CONICAL_SURFACE ( 'NONE', #187, 1.719999999999989093, 0.7853981633974500554 ) ;
#226 = DIRECTION ( 'NONE',  ( -3.491481338843133355E-15, 1.224646799147353207E-16, -1.000000000000000000 ) ) ;
#227 = ADVANCED_FACE ( 'NONE', ( #137, #111 ), #1, .T. ) ;
#228 = DIRECTION ( 'NONE',  ( -3.491481338843133355E-15, 1.224646799147353207E-16, -1.000000000000000000 ) ) ;
#229 = ADVANCED_FACE ( 'NONE', ( #66 ), #90, .F. ) ;
#230 = EDGE_LOOP ( 'NONE', ( #61 ) ) ;
#231 = APPROVAL_ROLE ( '' ) ;
#232 = AXIS2_PLACEMENT_3D ( 'NONE', #276, #280, #174 ) ;
#233 = FACE_OUTER_BOUND ( 'NONE', #146, .T. ) ;
#234 = PERSON_AND_ORGANIZATION ( #114, #211 ) ;
#235 = EDGE_CURVE ( 'NONE', #38, #38, #2, .T. ) ;
#236 = VERTEX_POINT ( 'NONE', #32 ) ;
#237 = PERSON_AND_ORGANIZATION_ROLE ( 'design_supplier' ) ;
#238 = CARTESIAN_POINT ( 'NONE',  ( 0.0000000000000000000, 0.0000000000000000000, 0.0000000000000000000 ) ) ;
#239 = PRODUCT ( '321620', '321620', '', ( #24 ) ) ;
#240 = MANIFOLD_SOLID_BREP ( 'Corps-Déplacer/Copier1[2]', #171 ) ;
#241 = LOCAL_TIME ( 10, 36, 13.00000000000000000, #7 ) ;
#242 = EDGE_LOOP ( 'NONE', ( #221 ) ) ;
#243 = FACE_OUTER_BOUND ( 'NONE', #83, .T. ) ;
#244 = CARTESIAN_POINT ( 'NONE',  ( 3.491481338843133355E-14, -1.224646799147353256E-15, 10.00000000000000000 ) ) ;
#245 = DIRECTION ( 'NONE',  ( 4.275831445896958607E-31, 1.000000000000000000, 1.224646799147353207E-16 ) ) ;
#246 = APPLICATION_PROTOCOL_DEFINITION ( 'international standard', 'config_control_design', 1994, #19 ) ;
#247 = DIRECTION ( 'NONE',  ( 4.275831445896958607E-31, 1.000000000000000000, 1.224646799147353207E-16 ) ) ;
#248 = CYLINDRICAL_SURFACE ( 'NONE', #214, 1.969999999999989981 ) ;
#249 = CONICAL_SURFACE ( 'NONE', #20, 1.200000000000001510, 0.7853981633974566057 ) ;
#250 = EDGE_LOOP ( 'NONE', ( #295 ) ) ;
#251 = CC_DESIGN_DATE_AND_TIME_ASSIGNMENT ( #212, #193, ( #208 ) ) ;
#252 = DIRECTION ( 'NONE',  ( 0.0000000000000000000, 1.000000000000000000, 0.0000000000000000000 ) ) ;
#253 = ORIENTED_EDGE ( 'NONE', *, *, #140, .F. ) ;
#254 = EDGE_CURVE ( 'NONE', #18, #18, #55, .T. ) ;
#255 = AXIS2_PLACEMENT_3D ( 'NONE', #155, #298, #87 ) ;
#256 = DIRECTION ( 'NONE',  ( 0.0000000000000000000, 1.000000000000000000, 0.0000000000000000000 ) ) ;
#257 = APPROVAL_DATE_TIME ( #6, #119 ) ;
#258 = CARTESIAN_POINT ( 'NONE',  ( -3.677215043471361210E-31, 1.289793413089189441E-32, -1.053196247266717112E-16 ) ) ;
#259 = CARTESIAN_POINT ( 'NONE',  ( 8.728703347107825500E-16, -3.061616997868380553E-17, 0.2499999999999997780 ) ) ;
#260 = ORIENTED_EDGE ( 'NONE', *, *, #291, .F. ) ;
#261 = AXIS2_PLACEMENT_3D ( 'NONE', #53, #194, #281 ) ;
#262 = CARTESIAN_POINT ( 'NONE',  ( -7.354430086942722420E-31, 2.579586826178378883E-32, -2.106392494533434224E-16 ) ) ;
#263 = APPROVAL ( #139, 'UNSPECIFIED' ) ;
#264 = ORIENTED_EDGE ( 'NONE', *, *, #170, .T. ) ;
#265 = DIRECTION ( 'NONE',  ( 0.0000000000000000000, 1.000000000000000000, 0.0000000000000000000 ) ) ;
#266 =( NAMED_UNIT ( * ) SI_UNIT ( $, .STERADIAN. ) SOLID_ANGLE_UNIT ( ) );
#267 = ORIENTED_EDGE ( 'NONE', *, *, #138, .F. ) ;
#268 = ADVANCED_FACE ( 'NONE', ( #147 ), #106, .T. ) ;
#269 = CC_DESIGN_SECURITY_CLASSIFICATION ( #208, ( #117 ) ) ;
#270 = CARTESIAN_POINT ( 'NONE',  ( 0.0000000000000000000, 0.0000000000000000000, 0.0000000000000000000 ) ) ;
#271 = CARTESIAN_POINT ( 'NONE',  ( 2.433562493173664138E-13, -8.535788190057053710E-15, 69.70000000000001705 ) ) ;
#272 = DIRECTION ( 'NONE',  ( 0.0000000000000000000, 1.000000000000000000, 0.0000000000000000000 ) ) ;
#273 = AXIS2_PLACEMENT_3D ( 'NONE', #28, #197, #104 ) ;
#274 = CC_DESIGN_PERSON_AND_ORGANIZATION_ASSIGNMENT ( #234, #199, ( #117 ) ) ;
#275 = DATE_AND_TIME ( #122, #178 ) ;
#276 = CARTESIAN_POINT ( 'NONE',  ( 3.775710223253211820E-14, -1.324340871587493411E-15, 10.81406387955736470 ) ) ;
#277 = CIRCLE ( 'NONE', #261, 1.969999999999989981 ) ;
#278 = AXIS2_PLACEMENT_3D ( 'NONE', #244, #105, #71 ) ;
#279 = DIRECTION ( 'NONE',  ( -3.491481338843133355E-15, 1.224646799147353207E-16, -1.000000000000000000 ) ) ;
#280 = DIRECTION ( 'NONE',  ( -3.491481338843133355E-15, 1.224646799147353207E-16, -1.000000000000000000 ) ) ;
#281 = DIRECTION ( 'NONE',  ( 0.0000000000000000000, 1.000000000000000000, 0.0000000000000000000 ) ) ;
#282 = COORDINATED_UNIVERSAL_TIME_OFFSET ( 1, 0, .AHEAD. ) ;
#283 = CARTESIAN_POINT ( 'NONE',  ( 2.444036937190193601E-13, 8.998558695971026591E-33, 70.00000000000000000 ) ) ;
#284 = CC_DESIGN_APPROVAL ( #157, ( #117 ) ) ;
#285 = CARTESIAN_POINT ( 'NONE',  ( 3.491481338843133355E-14, 1.969999999999988649, 10.00000000000000000 ) ) ;
#286 = EDGE_LOOP ( 'NONE', ( #267 ) ) ;
#287 = CYLINDRICAL_SURFACE ( 'NONE', #299, 1.499999999999996891 ) ;
#288 = PERSON_AND_ORGANIZATION ( #114, #211 ) ;
#289 = EDGE_LOOP ( 'NONE', ( #89 ) ) ;
#290 = VERTEX_POINT ( 'NONE', #294 ) ;
#291 = EDGE_CURVE ( 'NONE', #290, #290, #172, .T. ) ;
#292 = AXIS2_PLACEMENT_3D ( 'NONE', #262, #63, #13 ) ;
#293 = AXIS2_PLACEMENT_3D ( 'NONE', #217, #152, #30 ) ;
#294 = CARTESIAN_POINT ( 'NONE',  ( 8.728703347107833388E-16, 1.969999999999989981, 0.2500000000000000000 ) ) ;
#295 = ORIENTED_EDGE ( 'NONE', *, *, #170, .F. ) ;
#296 = EDGE_CURVE ( 'NONE', #80, #80, #300, .T. ) ;
#297 = FACE_BOUND ( 'NONE', #26, .T. ) ;
#298 = DIRECTION ( 'NONE',  ( -3.491481338843133355E-15, 1.224646799147353207E-16, -1.000000000000000000 ) ) ;
#299 = AXIS2_PLACEMENT_3D ( 'NONE', #142, #279, #175 ) ;
#300 = CIRCLE ( 'NONE', #293, 1.200000000000001510 ) ;
#301 = DIRECTION ( 'NONE',  ( -4.275831445896958607E-31, -1.000000000000000000, -1.224646799147353207E-16 ) ) ;
#302 = FACE_OUTER_BOUND ( 'NONE', #242, .T. ) ;
#303 = DIRECTION ( 'NONE',  ( -3.491481338843133355E-15, 1.224646799147353207E-16, -1.000000000000000000 ) ) ;
ENDSEC;
END-ISO-10303-21;
