ISO-10303-21;
HEADER;
FILE_DESCRIPTION (( 'STEP AP203' ),
    '1' );
FILE_NAME ('321619.step',
    '2021-12-02T09:36:12',
    ( '' ),
    ( '' ),
    'SwSTEP 2.0',
    'SolidWorks 2019',
    '' );
FILE_SCHEMA (( 'CONFIG_CONTROL_DESIGN' ));
ENDSEC;

DATA;
#1 = CC_DESIGN_DATE_AND_TIME_ASSIGNMENT ( #41, #132, ( #120 ) ) ;
#2 = AXIS2_PLACEMENT_3D ( 'NONE', #6, #204, #95 ) ;
#3 = SECURITY_CLASSIFICATION ( '', '', #201 ) ;
#4 = DATE_AND_TIME ( #42, #175 ) ;
#5 = EDGE_CURVE ( 'NONE', #176, #176, #241, .T. ) ;
#6 = CARTESIAN_POINT ( 'NONE',  ( 2.444036937190193601E-13, -8.572527594031472993E-15, 70.00000000000000000 ) ) ;
#7 = ORIENTED_EDGE ( 'NONE', *, *, #137, .F. ) ;
#8 = DIRECTION ( 'NONE',  ( -3.491481338843133355E-15, 1.224646799147353207E-16, -1.000000000000000000 ) ) ;
#9 = DIRECTION ( 'NONE',  ( 0.0000000000000000000, 1.000000000000000000, 0.0000000000000000000 ) ) ;
#10 = FACE_OUTER_BOUND ( 'NONE', #70, .T. ) ;
#11 = ADVANCED_FACE ( 'NONE', ( #213 ), #263, .T. ) ;
#12 = FACE_OUTER_BOUND ( 'NONE', #54, .T. ) ;
#13 = AXIS2_PLACEMENT_3D ( 'NONE', #271, #116, #126 ) ;
#14 = CYLINDRICAL_SURFACE ( 'NONE', #223, 1.499999999999996891 ) ;
#15 = DIRECTION ( 'NONE',  ( 4.275831445896959482E-31, 1.000000000000000000, 1.224646799147353207E-16 ) ) ;
#16 = DATE_AND_TIME ( #275, #130 ) ;
#17 = EDGE_LOOP ( 'NONE', ( #191 ) ) ;
#18 = EDGE_CURVE ( 'NONE', #200, #200, #32, .T. ) ;
#19 = PLANE ( 'NONE',  #218 ) ;
#20 = DIRECTION ( 'NONE',  ( -3.491481338843133355E-15, 1.224646799147353207E-16, -1.000000000000000000 ) ) ;
#21 = FACE_OUTER_BOUND ( 'NONE', #160, .T. ) ;
#22 = CIRCLE ( 'NONE', #100, 1.200000000000001510 ) ;
#23 = CONICAL_SURFACE ( 'NONE', #148, 1.964999999999990088, 0.5235987755983009251 ) ;
#24 = CIRCLE ( 'NONE', #62, 1.500000000000001110 ) ;
#25 = ORIENTED_EDGE ( 'NONE', *, *, #219, .T. ) ;
#26 = CARTESIAN_POINT ( 'NONE',  ( 0.0000000000000000000, 1.714999999999989422, 0.0000000000000000000 ) ) ;
#27 = DIRECTION ( 'NONE',  ( 3.920468080177599138E-31, 1.000000000000000000, 1.103513661562859957E-16 ) ) ;
#28 = ORIENTED_EDGE ( 'NONE', *, *, #86, .T. ) ;
#29 = AXIS2_PLACEMENT_3D ( 'NONE', #212, #258, #76 ) ;
#30 = CARTESIAN_POINT ( 'NONE',  ( 0.0000000000000000000, 0.0000000000000000000, 0.0000000000000000000 ) ) ;
#31 = ORIENTED_EDGE ( 'NONE', *, *, #137, .T. ) ;
#32 = CIRCLE ( 'NONE', #88, 1.499999999999992895 ) ;
#33 = DIRECTION ( 'NONE',  ( -3.491481338843133355E-15, 1.224646799147353207E-16, -1.000000000000000000 ) ) ;
#34 = PLANE ( 'NONE',  #29 ) ;
#35 = DIRECTION ( 'NONE',  ( 0.0000000000000000000, 1.000000000000000000, 0.0000000000000000000 ) ) ;
#36 = ORIENTED_EDGE ( 'NONE', *, *, #161, .F. ) ;
#37 = EDGE_LOOP ( 'NONE', ( #31 ) ) ;
#38 = APPLICATION_PROTOCOL_DEFINITION ( 'international standard', 'config_control_design', 1994, #109 ) ;
#39 = EDGE_CURVE ( 'NONE', #299, #299, #250, .T. ) ;
#40 = CONICAL_SURFACE ( 'NONE', #291, 1.964999999999990088, 0.5235987755983009251 ) ;
#41 = DATE_AND_TIME ( #247, #265 ) ;
#42 = CALENDAR_DATE ( 2021, 2, 12 ) ;
#43 = UNCERTAINTY_MEASURE_WITH_UNIT (LENGTH_MEASURE( 1.000000000000000082E-05 ), #73, 'distance_accuracy_value', 'NONE');
#44 = EDGE_LOOP ( 'NONE', ( #259 ) ) ;
#45 = PERSON_AND_ORGANIZATION_ROLE ( 'creator' ) ;
#46 = MECHANICAL_CONTEXT ( 'NONE', #109, 'mechanical' ) ;
#47 = CARTESIAN_POINT ( 'NONE',  ( -7.333050929713238582E-31, 2.572088027265070088E-32, -2.100269260537697595E-16 ) ) ;
#48 = PERSON_AND_ORGANIZATION ( #273, #225 ) ;
#49 = PERSON_AND_ORGANIZATION ( #273, #225 ) ;
#50 = ADVANCED_FACE ( 'NONE', ( #10, #12 ), #14, .T. ) ;
#51 = DIRECTION ( 'NONE',  ( 0.0000000000000000000, 1.000000000000000000, 0.0000000000000000000 ) ) ;
#52 = CARTESIAN_POINT ( 'NONE',  ( 3.772686511716934316E-14, -1.323280296348768564E-15, 10.80540362551951894 ) ) ;
#53 = MANIFOLD_SOLID_BREP ( 'Corps-Déplacer/Copier1[2]', #66 ) ;
#54 = EDGE_LOOP ( 'NONE', ( #25 ) ) ;
#55 = CC_DESIGN_PERSON_AND_ORGANIZATION_ASSIGNMENT ( #49, #270, ( #133 ) ) ;
#56 = CARTESIAN_POINT ( 'NONE',  ( 3.491481338843133355E-14, -1.224646799147353256E-15, 10.00000000000000000 ) ) ;
#57 = CARTESIAN_POINT ( 'NONE',  ( 3.772686511716934316E-14, 1.499999999999991562, 10.80540362551951894 ) ) ;
#58 = CARTESIAN_POINT ( 'NONE',  ( 3.491481338843133355E-14, -1.224646799147353256E-15, 10.00000000000000000 ) ) ;
#59 = DIRECTION ( 'NONE',  ( -3.491481338843133355E-15, 1.224646799147353207E-16, -1.000000000000000000 ) ) ;
#60 = EDGE_LOOP ( 'NONE', ( #215 ) ) ;
#61 = DIRECTION ( 'NONE',  ( -3.491481338843133355E-15, 1.224646799147353207E-16, -1.000000000000000000 ) ) ;
#62 = AXIS2_PLACEMENT_3D ( 'NONE', #257, #92, #243 ) ;
#63 = CARTESIAN_POINT ( 'NONE',  ( 2.444036937190193601E-13, -8.572527594031472993E-15, 70.00000000000000000 ) ) ;
#64 = FACE_OUTER_BOUND ( 'NONE', #194, .T. ) ;
#65 = DIRECTION ( 'NONE',  ( -4.275831445896958607E-31, -1.000000000000000000, -1.224646799147353207E-16 ) ) ;
#66 = CLOSED_SHELL ( 'NONE', ( #242, #181, #153, #11, #170, #292, #186 ) ) ;
#67 = CONICAL_SURFACE ( 'NONE', #71, 1.200000000000001510, 0.7853981633974566057 ) ;
#68 = COORDINATED_UNIVERSAL_TIME_OFFSET ( 1, 0, .AHEAD. ) ;
#69 = SHAPE_DEFINITION_REPRESENTATION ( #110, #203 ) ;
#70 = EDGE_LOOP ( 'NONE', ( #184 ) ) ;
#71 = AXIS2_PLACEMENT_3D ( 'NONE', #63, #20, #287 ) ;
#72 = APPLICATION_PROTOCOL_DEFINITION ( 'international standard', 'config_control_design', 1994, #189 ) ;
#73 =( LENGTH_UNIT ( ) NAMED_UNIT ( * ) SI_UNIT ( .MILLI., .METRE. ) );
#74 = APPROVAL_ROLE ( '' ) ;
#75 = LOCAL_TIME ( 10, 36, 12.00000000000000000, #91 ) ;
#76 = DIRECTION ( 'NONE',  ( -4.275831445896958607E-31, -1.000000000000000000, -1.224646799147353207E-16 ) ) ;
#77 = EDGE_LOOP ( 'NONE', ( #249 ) ) ;
#78 = EDGE_CURVE ( 'NONE', #185, #185, #227, .T. ) ;
#79 = DIRECTION ( 'NONE',  ( 0.0000000000000000000, 1.000000000000000000, 0.0000000000000000000 ) ) ;
#80 = APPROVAL_DATE_TIME ( #16, #108 ) ;
#81 = ORIENTED_EDGE ( 'NONE', *, *, #295, .F. ) ;
#82 = EDGE_LOOP ( 'NONE', ( #117 ) ) ;
#83 = FACE_OUTER_BOUND ( 'NONE', #125, .T. ) ;
#84 = CARTESIAN_POINT ( 'NONE',  ( 0.0000000000000000000, 0.0000000000000000000, 0.0000000000000000000 ) ) ;
#85 = FACE_OUTER_BOUND ( 'NONE', #302, .T. ) ;
#86 = EDGE_CURVE ( 'NONE', #288, #288, #22, .T. ) ;
#87 = VERTEX_POINT ( 'NONE', #105 ) ;
#88 = AXIS2_PLACEMENT_3D ( 'NONE', #52, #8, #79 ) ;
#89 = CC_DESIGN_APPROVAL ( #261, ( #120 ) ) ;
#90 = CC_DESIGN_SECURITY_CLASSIFICATION ( #3, ( #133 ) ) ;
#91 = COORDINATED_UNIVERSAL_TIME_OFFSET ( 1, 0, .AHEAD. ) ;
#92 = DIRECTION ( 'NONE',  ( -3.491481338843133355E-15, 1.224646799147353207E-16, -1.000000000000000000 ) ) ;
#93 = FACE_BOUND ( 'NONE', #226, .T. ) ;
#94 = CIRCLE ( 'NONE', #131, 1.499999999999992895 ) ;
#95 = DIRECTION ( 'NONE',  ( 0.0000000000000000000, 1.000000000000000000, 0.0000000000000000000 ) ) ;
#96 = LOCAL_TIME ( 10, 36, 12.00000000000000000, #114 ) ;
#97 = DIRECTION ( 'NONE',  ( 4.275831445896958607E-31, 1.000000000000000000, 1.224646799147353454E-16 ) ) ;
#98 = DIRECTION ( 'NONE',  ( 1.000000000000000000, 0.0000000000000000000, 0.0000000000000000000 ) ) ;
#99 = FACE_BOUND ( 'NONE', #147, .T. ) ;
#100 = AXIS2_PLACEMENT_3D ( 'NONE', #230, #61, #256 ) ;
#101 = DIRECTION ( 'NONE',  ( -3.491481338843133355E-15, 1.224646799147353207E-16, -1.000000000000000000 ) ) ;
#102 = APPROVAL ( #136, 'UNSPECIFIED' ) ;
#103 = APPROVAL_DATE_TIME ( #169, #102 ) ;
#104 = ORIENTED_EDGE ( 'NONE', *, *, #205, .T. ) ;
#105 = CARTESIAN_POINT ( 'NONE',  ( 2.433562493173664138E-13, 1.499999999999992673, 69.70000000000001705 ) ) ;
#106 = DIRECTION ( 'NONE',  ( 4.275831445896958607E-31, 1.000000000000000000, 1.224646799147353207E-16 ) ) ;
#107 = PERSON_AND_ORGANIZATION ( #273, #225 ) ;
#108 = APPROVAL ( #166, 'UNSPECIFIED' ) ;
#109 = APPLICATION_CONTEXT ( 'configuration controlled 3d designs of mechanical parts and assemblies' ) ;
#110 = PRODUCT_DEFINITION_SHAPE ( 'NONE', 'NONE',  #120 ) ;
#111 = PRODUCT_RELATED_PRODUCT_CATEGORY ( 'detail', '', ( #222 ) ) ;
#112 = CARTESIAN_POINT ( 'NONE',  ( -7.333050929713238582E-31, 2.572088027265070088E-32, -2.100269260537697595E-16 ) ) ;
#113 = AXIS2_PLACEMENT_3D ( 'NONE', #278, #183, #98 ) ;
#114 = COORDINATED_UNIVERSAL_TIME_OFFSET ( 1, 0, .AHEAD. ) ;
#115 = ORIENTED_EDGE ( 'NONE', *, *, #219, .F. ) ;
#116 = DIRECTION ( 'NONE',  ( -3.491481338843133355E-15, 1.224646799147353207E-16, -1.000000000000000000 ) ) ;
#117 = ORIENTED_EDGE ( 'NONE', *, *, #86, .F. ) ;
#118 = CLOSED_SHELL ( 'NONE', ( #236, #138, #50, #224, #279 ) ) ;
#119 = CC_DESIGN_PERSON_AND_ORGANIZATION_ASSIGNMENT ( #297, #150, ( #3 ) ) ;
#120 = PRODUCT_DEFINITION ( 'UNKNOWN', '', #133, #180 ) ;
#121 = VERTEX_POINT ( 'NONE', #214 ) ;
#122 = PERSON_AND_ORGANIZATION ( #273, #225 ) ;
#123 = DIRECTION ( 'NONE',  ( 0.0000000000000000000, 1.000000000000000000, 0.0000000000000000000 ) ) ;
#124 = CC_DESIGN_APPROVAL ( #108, ( #133 ) ) ;
#125 = EDGE_LOOP ( 'NONE', ( #165 ) ) ;
#126 = DIRECTION ( 'NONE',  ( 4.275831445896958607E-31, 1.000000000000000000, 1.224646799147353207E-16 ) ) ;
#127 = CC_DESIGN_PERSON_AND_ORGANIZATION_ASSIGNMENT ( #122, #146, ( #133 ) ) ;
#128 = CARTESIAN_POINT ( 'NONE',  ( 2.444036937190193601E-13, 8.998558695971026591E-33, 70.00000000000000000 ) ) ;
#129 = CIRCLE ( 'NONE', #217, 1.714999999999989422 ) ;
#130 = LOCAL_TIME ( 10, 36, 12.00000000000000000, #199 ) ;
#131 = AXIS2_PLACEMENT_3D ( 'NONE', #142, #233, #35 ) ;
#132 = DATE_TIME_ROLE ( 'creation_date' ) ;
#133 = PRODUCT_DEFINITION_FORMATION_WITH_SPECIFIED_SOURCE ( 'ANY', '', #222, .NOT_KNOWN. ) ;
#134 = ORIENTED_EDGE ( 'NONE', *, *, #39, .T. ) ;
#135 = ORIENTED_EDGE ( 'NONE', *, *, #78, .F. ) ;
#136 = APPROVAL_STATUS ( 'not_yet_approved' ) ;
#137 = EDGE_CURVE ( 'NONE', #282, #282, #94, .T. ) ;
#138 = ADVANCED_FACE ( 'NONE', ( #99, #187 ), #40, .T. ) ;
#139 = FACE_OUTER_BOUND ( 'NONE', #82, .T. ) ;
#140 = CARTESIAN_POINT ( 'NONE',  ( 2.433562493173664138E-13, 1.499999999999992673, 69.70000000000001705 ) ) ;
#141 = CARTESIAN_POINT ( 'NONE',  ( 0.0000000000000000000, 0.0000000000000000000, 0.0000000000000000000 ) ) ;
#142 = CARTESIAN_POINT ( 'NONE',  ( 3.772686511716934316E-14, -1.323280296348768564E-15, 10.80540362551951894 ) ) ;
#143 = DIRECTION ( 'NONE',  ( -3.491481338843133355E-15, 1.224646799147353207E-16, -1.000000000000000000 ) ) ;
#144 = APPROVAL_ROLE ( '' ) ;
#145 = EDGE_LOOP ( 'NONE', ( #115 ) ) ;
#146 = PERSON_AND_ORGANIZATION_ROLE ( 'creator' ) ;
#147 = EDGE_LOOP ( 'NONE', ( #168 ) ) ;
#148 = AXIS2_PLACEMENT_3D ( 'NONE', #56, #253, #51 ) ;
#149 = FACE_OUTER_BOUND ( 'NONE', #145, .T. ) ;
#150 = PERSON_AND_ORGANIZATION_ROLE ( 'classification_officer' ) ;
#151 = DIRECTION ( 'NONE',  ( -3.491481338843133355E-15, 1.224646799147353207E-16, -1.000000000000000000 ) ) ;
#152 = PLANE ( 'NONE',  #13 ) ;
#153 = ADVANCED_FACE ( 'NONE', ( #85, #93 ), #195, .T. ) ;
#154 = APPROVAL_PERSON_ORGANIZATION ( #48, #261, #162 ) ;
#155 = CARTESIAN_POINT ( 'NONE',  ( 3.491481338843133355E-14, 1.964999999999988978, 10.00000000000000000 ) ) ;
#156 = DATE_AND_TIME ( #177, #75 ) ;
#157 = DIRECTION ( 'NONE',  ( 4.275831445896958607E-31, 1.000000000000000000, 1.224646799147353454E-16 ) ) ;
#158 = CIRCLE ( 'NONE', #293, 1.964999999999990088 ) ;
#159 = CIRCLE ( 'NONE', #197, 1.200000000000001510 ) ;
#160 = EDGE_LOOP ( 'NONE', ( #36 ) ) ;
#161 = EDGE_CURVE ( 'NONE', #172, #172, #158, .T. ) ;
#162 = APPROVAL_ROLE ( '' ) ;
#163 = CC_DESIGN_PERSON_AND_ORGANIZATION_ASSIGNMENT ( #251, #45, ( #120 ) ) ;
#164 = AXIS2_PLACEMENT_3D ( 'NONE', #84, #267, #15 ) ;
#165 = ORIENTED_EDGE ( 'NONE', *, *, #78, .T. ) ;
#166 = APPROVAL_STATUS ( 'not_yet_approved' ) ;
#167 = ORIENTED_EDGE ( 'NONE', *, *, #205, .F. ) ;
#168 = ORIENTED_EDGE ( 'NONE', *, *, #18, .T. ) ;
#169 = DATE_AND_TIME ( #255, #96 ) ;
#170 = ADVANCED_FACE ( 'NONE', ( #64 ), #152, .F. ) ;
#171 = CARTESIAN_POINT ( 'NONE',  ( 3.491481338843133355E-14, -1.224646799147353256E-15, 10.00000000000000000 ) ) ;
#172 = VERTEX_POINT ( 'NONE', #234 ) ;
#173 = FACE_OUTER_BOUND ( 'NONE', #206, .T. ) ;
#174 = DIRECTION ( 'NONE',  ( 3.491481338843133355E-15, -1.224646799147353207E-16, 1.000000000000000000 ) ) ;
#175 = LOCAL_TIME ( 10, 36, 12.00000000000000000, #300 ) ;
#176 = VERTEX_POINT ( 'NONE', #155 ) ;
#177 = CALENDAR_DATE ( 2021, 2, 12 ) ;
#178 = DIRECTION ( 'NONE',  ( -3.491481338843133355E-15, 1.224646799147353207E-16, -1.000000000000000000 ) ) ;
#179 = FACE_OUTER_BOUND ( 'NONE', #17, .T. ) ;
#180 = DESIGN_CONTEXT ( 'detailed design', #189, 'design' ) ;
#181 = ADVANCED_FACE ( 'NONE', ( #83, #21 ), #196, .T. ) ;
#182 = FACE_OUTER_BOUND ( 'NONE', #277, .T. ) ;
#183 = DIRECTION ( 'NONE',  ( 0.0000000000000000000, 0.0000000000000000000, 1.000000000000000000 ) ) ;
#184 = ORIENTED_EDGE ( 'NONE', *, *, #18, .F. ) ;
#185 = VERTEX_POINT ( 'NONE', #280 ) ;
#186 = ADVANCED_FACE ( 'NONE', ( #240, #173 ), #298, .T. ) ;
#187 = FACE_OUTER_BOUND ( 'NONE', #77, .T. ) ;
#188 = AXIS2_PLACEMENT_3D ( 'NONE', #254, #33, #106 ) ;
#189 = APPLICATION_CONTEXT ( 'configuration controlled 3d designs of mechanical parts and assemblies' ) ;
#190 = FACE_BOUND ( 'NONE', #37, .T. ) ;
#191 = ORIENTED_EDGE ( 'NONE', *, *, #39, .F. ) ;
#192 = AXIS2_PLACEMENT_3D ( 'NONE', #30, #252, #157 ) ;
#193 = CC_DESIGN_APPROVAL ( #102, ( #3 ) ) ;
#194 = EDGE_LOOP ( 'NONE', ( #167 ) ) ;
#195 = CONICAL_SURFACE ( 'NONE', #248, 1.714999999999989422, 0.7853981633974500554 ) ;
#196 = CYLINDRICAL_SURFACE ( 'NONE', #164, 1.964999999999990088 ) ;
#197 = AXIS2_PLACEMENT_3D ( 'NONE', #211, #59, #9 ) ;
#198 = DIRECTION ( 'NONE',  ( -3.491481338843133355E-15, 1.224646799147353207E-16, -1.000000000000000000 ) ) ;
#199 = COORDINATED_UNIVERSAL_TIME_OFFSET ( 1, 0, .AHEAD. ) ;
#200 = VERTEX_POINT ( 'NONE', #245 ) ;
#201 = SECURITY_CLASSIFICATION_LEVEL ( 'unclassified' ) ;
#202 =( NAMED_UNIT ( * ) PLANE_ANGLE_UNIT ( ) SI_UNIT ( $, .RADIAN. ) );
#203 = ADVANCED_BREP_SHAPE_REPRESENTATION ( '321619', ( #244, #53, #113 ), #284 ) ;
#204 = DIRECTION ( 'NONE',  ( -3.491481338843133355E-15, 1.224646799147353207E-16, -1.000000000000000000 ) ) ;
#205 = EDGE_CURVE ( 'NONE', #121, #121, #159, .T. ) ;
#206 = EDGE_LOOP ( 'NONE', ( #134 ) ) ;
#207 = AXIS2_PLACEMENT_3D ( 'NONE', #58, #101, #210 ) ;
#208 = CONICAL_SURFACE ( 'NONE', #2, 1.200000000000001510, 0.7853981633974566057 ) ;
#209 = EDGE_LOOP ( 'NONE', ( #7 ) ) ;
#210 = DIRECTION ( 'NONE',  ( 0.0000000000000000000, 1.000000000000000000, 0.0000000000000000000 ) ) ;
#211 = CARTESIAN_POINT ( 'NONE',  ( 2.444036937190193601E-13, -8.572527594031472993E-15, 70.00000000000000000 ) ) ;
#212 = CARTESIAN_POINT ( 'NONE',  ( 3.491481338843133355E-14, 1.473513986465265876E-32, 10.00000000000000000 ) ) ;
#213 = FACE_OUTER_BOUND ( 'NONE', #44, .T. ) ;
#214 = CARTESIAN_POINT ( 'NONE',  ( 2.444036937190193601E-13, 1.199999999999992628, 70.00000000000000000 ) ) ;
#215 = ORIENTED_EDGE ( 'NONE', *, *, #5, .T. ) ;
#216 = DIRECTION ( 'NONE',  ( 0.0000000000000000000, 1.000000000000000000, 0.0000000000000000000 ) ) ;
#217 = AXIS2_PLACEMENT_3D ( 'NONE', #112, #178, #220 ) ;
#218 = AXIS2_PLACEMENT_3D ( 'NONE', #128, #151, #221 ) ;
#219 = EDGE_CURVE ( 'NONE', #87, #87, #24, .T. ) ;
#220 = DIRECTION ( 'NONE',  ( 4.275831445896958607E-31, 1.000000000000000000, 1.224646799147353207E-16 ) ) ;
#221 = DIRECTION ( 'NONE',  ( 4.275831445896958607E-31, 1.000000000000000000, 1.224646799147353207E-16 ) ) ;
#222 = PRODUCT ( '321619', '321619', '', ( #46 ) ) ;
#223 = AXIS2_PLACEMENT_3D ( 'NONE', #141, #286, #97 ) ;
#224 = ADVANCED_FACE ( 'NONE', ( #149, #264 ), #67, .T. ) ;
#225 = ORGANIZATION ( 'UNSPECIFIED', 'UNSPECIFIED', '' ) ;
#226 = EDGE_LOOP ( 'NONE', ( #81 ) ) ;
#227 = CIRCLE ( 'NONE', #269, 1.964999999999990088 ) ;
#228 = APPROVAL_STATUS ( 'not_yet_approved' ) ;
#229 = AXIS2_PLACEMENT_3D ( 'NONE', #262, #143, #123 ) ;
#230 = CARTESIAN_POINT ( 'NONE',  ( 2.444036937190193601E-13, -8.572527594031472993E-15, 70.00000000000000000 ) ) ;
#231 = CC_DESIGN_DATE_AND_TIME_ASSIGNMENT ( #156, #246, ( #3 ) ) ;
#232 = FACE_OUTER_BOUND ( 'NONE', #60, .T. ) ;
#233 = DIRECTION ( 'NONE',  ( -3.491481338843133355E-15, 1.224646799147353207E-16, -1.000000000000000000 ) ) ;
#234 = CARTESIAN_POINT ( 'NONE',  ( 8.728703347107833388E-16, 1.964999999999990088, 0.2500000000000000000 ) ) ;
#235 = DIRECTION ( 'NONE',  ( -3.491481338843133355E-15, 1.224646799147353207E-16, -1.000000000000000000 ) ) ;
#236 = ADVANCED_FACE ( 'NONE', ( #232 ), #34, .F. ) ;
#237 = EDGE_LOOP ( 'NONE', ( #104 ) ) ;
#238 = PERSON_AND_ORGANIZATION ( #273, #225 ) ;
#239 = VERTEX_POINT ( 'NONE', #26 ) ;
#240 = FACE_OUTER_BOUND ( 'NONE', #209, .T. ) ;
#241 = CIRCLE ( 'NONE', #207, 1.964999999999990088 ) ;
#242 = ADVANCED_FACE ( 'NONE', ( #190, #182 ), #23, .T. ) ;
#243 = DIRECTION ( 'NONE',  ( 0.0000000000000000000, 1.000000000000000000, 0.0000000000000000000 ) ) ;
#244 = MANIFOLD_SOLID_BREP ( 'Corps-Déplacer/Copier1[1]', #118 ) ;
#245 = CARTESIAN_POINT ( 'NONE',  ( 3.772686511716934316E-14, 1.499999999999991562, 10.80540362551951894 ) ) ;
#246 = DATE_TIME_ROLE ( 'classification_date' ) ;
#247 = CALENDAR_DATE ( 2021, 2, 12 ) ;
#248 = AXIS2_PLACEMENT_3D ( 'NONE', #47, #174, #65 ) ;
#249 = ORIENTED_EDGE ( 'NONE', *, *, #5, .F. ) ;
#250 = CIRCLE ( 'NONE', #229, 1.500000000000001110 ) ;
#251 = PERSON_AND_ORGANIZATION ( #273, #225 ) ;
#252 = DIRECTION ( 'NONE',  ( -3.491481338843133355E-15, 1.224646799147353207E-16, -1.000000000000000000 ) ) ;
#253 = DIRECTION ( 'NONE',  ( -3.491481338843133355E-15, 1.224646799147353207E-16, -1.000000000000000000 ) ) ;
#254 = CARTESIAN_POINT ( 'NONE',  ( -3.666525464856619291E-31, 1.286044013632535044E-32, -1.050134630268848797E-16 ) ) ;
#255 = CALENDAR_DATE ( 2021, 2, 12 ) ;
#256 = DIRECTION ( 'NONE',  ( 0.0000000000000000000, 1.000000000000000000, 0.0000000000000000000 ) ) ;
#257 = CARTESIAN_POINT ( 'NONE',  ( 2.433562493173664138E-13, -8.535788190057053710E-15, 69.70000000000001705 ) ) ;
#258 = DIRECTION ( 'NONE',  ( 3.491481338843133355E-15, -1.224646799147353207E-16, 1.000000000000000000 ) ) ;
#259 = ORIENTED_EDGE ( 'NONE', *, *, #295, .T. ) ;
#260 = APPROVAL_PERSON_ORGANIZATION ( #296, #108, #144 ) ;
#261 = APPROVAL ( #228, 'UNSPECIFIED' ) ;
#262 = CARTESIAN_POINT ( 'NONE',  ( 2.433562493173664138E-13, -8.535788190057053710E-15, 69.70000000000001705 ) ) ;
#263 = PLANE ( 'NONE',  #188 ) ;
#264 = FACE_BOUND ( 'NONE', #289, .T. ) ;
#265 = LOCAL_TIME ( 10, 36, 12.00000000000000000, #68 ) ;
#266 = APPROVAL_PERSON_ORGANIZATION ( #107, #102, #74 ) ;
#267 = DIRECTION ( 'NONE',  ( -3.491481338843133355E-15, 1.224646799147353207E-16, -1.000000000000000000 ) ) ;
#268 = DIRECTION ( 'NONE',  ( -3.491481338843133355E-15, 1.224646799147353207E-16, -1.000000000000000000 ) ) ;
#269 = AXIS2_PLACEMENT_3D ( 'NONE', #171, #235, #216 ) ;
#270 = PERSON_AND_ORGANIZATION_ROLE ( 'design_supplier' ) ;
#271 = CARTESIAN_POINT ( 'NONE',  ( 2.444036937190193601E-13, -8.572527594031472993E-15, 70.00000000000000000 ) ) ;
#272 = CC_DESIGN_PERSON_AND_ORGANIZATION_ASSIGNMENT ( #238, #274, ( #222 ) ) ;
#273 = PERSON ( 'UNSPECIFIED', 'UNSPECIFIED', 'UNSPECIFIED', ('UNSPECIFIED'), ('UNSPECIFIED'), ('UNSPECIFIED') ) ;
#274 = PERSON_AND_ORGANIZATION_ROLE ( 'design_owner' ) ;
#275 = CALENDAR_DATE ( 2021, 2, 12 ) ;
#276 = FACE_BOUND ( 'NONE', #237, .T. ) ;
#277 = EDGE_LOOP ( 'NONE', ( #135 ) ) ;
#278 = CARTESIAN_POINT ( 'NONE',  ( 0.0000000000000000000, 0.0000000000000000000, 0.0000000000000000000 ) ) ;
#279 = ADVANCED_FACE ( 'NONE', ( #139 ), #19, .F. ) ;
#280 = CARTESIAN_POINT ( 'NONE',  ( 3.491481338843133355E-14, 1.964999999999988978, 10.00000000000000000 ) ) ;
#281 = ORIENTED_EDGE ( 'NONE', *, *, #161, .T. ) ;
#282 = VERTEX_POINT ( 'NONE', #57 ) ;
#283 = CARTESIAN_POINT ( 'NONE',  ( 3.491481338843133355E-14, -1.224646799147353256E-15, 10.00000000000000000 ) ) ;
#284 =( GEOMETRIC_REPRESENTATION_CONTEXT ( 3 ) GLOBAL_UNCERTAINTY_ASSIGNED_CONTEXT ( ( #43 ) ) GLOBAL_UNIT_ASSIGNED_CONTEXT ( ( #73, #202, #301 ) ) REPRESENTATION_CONTEXT ( 'NONE', 'WORKASPACE' ) );
#285 = CARTESIAN_POINT ( 'NONE',  ( 2.444036937190193601E-13, 1.199999999999992628, 70.00000000000000000 ) ) ;
#286 = DIRECTION ( 'NONE',  ( -3.491481338843133355E-15, 1.224646799147353207E-16, -1.000000000000000000 ) ) ;
#287 = DIRECTION ( 'NONE',  ( 0.0000000000000000000, 1.000000000000000000, 0.0000000000000000000 ) ) ;
#288 = VERTEX_POINT ( 'NONE', #285 ) ;
#289 = EDGE_LOOP ( 'NONE', ( #28 ) ) ;
#290 = CARTESIAN_POINT ( 'NONE',  ( 8.728703347107825500E-16, -3.061616997868380553E-17, 0.2499999999999997780 ) ) ;
#291 = AXIS2_PLACEMENT_3D ( 'NONE', #283, #198, #294 ) ;
#292 = ADVANCED_FACE ( 'NONE', ( #179, #276 ), #208, .T. ) ;
#293 = AXIS2_PLACEMENT_3D ( 'NONE', #290, #268, #27 ) ;
#294 = DIRECTION ( 'NONE',  ( 0.0000000000000000000, 1.000000000000000000, 0.0000000000000000000 ) ) ;
#295 = EDGE_CURVE ( 'NONE', #239, #239, #129, .T. ) ;
#296 = PERSON_AND_ORGANIZATION ( #273, #225 ) ;
#297 = PERSON_AND_ORGANIZATION ( #273, #225 ) ;
#298 = CYLINDRICAL_SURFACE ( 'NONE', #192, 1.499999999999996891 ) ;
#299 = VERTEX_POINT ( 'NONE', #140 ) ;
#300 = COORDINATED_UNIVERSAL_TIME_OFFSET ( 1, 0, .AHEAD. ) ;
#301 =( NAMED_UNIT ( * ) SI_UNIT ( $, .STERADIAN. ) SOLID_ANGLE_UNIT ( ) );
#302 = EDGE_LOOP ( 'NONE', ( #281 ) ) ;
#303 = APPROVAL_DATE_TIME ( #4, #261 ) ;
ENDSEC;
END-ISO-10303-21;
