ISO-10303-21;
HEADER;
FILE_DESCRIPTION (( 'STEP AP203' ),
    '1' );
FILE_NAME ('321618.step',
    '2021-12-02T09:36:12',
    ( '' ),
    ( '' ),
    'SwSTEP 2.0',
    'SolidWorks 2019',
    '' );
FILE_SCHEMA (( 'CONFIG_CONTROL_DESIGN' ));
ENDSEC;

DATA;
#1 = APPROVAL ( #141, 'UNSPECIFIED' ) ;
#2 = CARTESIAN_POINT ( 'NONE',  ( 2.444036937190193601E-13, -8.572527594031472993E-15, 70.00000000000000000 ) ) ;
#3 = DIRECTION ( 'NONE',  ( -3.491481338843133355E-15, 1.224646799147353207E-16, -1.000000000000000000 ) ) ;
#4 = EDGE_CURVE ( 'NONE', #301, #301, #27, .T. ) ;
#5 = AXIS2_PLACEMENT_3D ( 'NONE', #22, #162, #144 ) ;
#6 = LOCAL_TIME ( 10, 36, 12.00000000000000000, #168 ) ;
#7 = CARTESIAN_POINT ( 'NONE',  ( 3.491481338843133355E-14, -1.224646799147353256E-15, 10.00000000000000000 ) ) ;
#8 = DIRECTION ( 'NONE',  ( -3.491481338843133355E-15, 1.224646799147353207E-16, -1.000000000000000000 ) ) ;
#9 = ORIENTED_EDGE ( 'NONE', *, *, #157, .F. ) ;
#10 = CALENDAR_DATE ( 2021, 2, 12 ) ;
#11 = PLANE ( 'NONE',  #5 ) ;
#12 = APPROVAL_STATUS ( 'not_yet_approved' ) ;
#13 = ADVANCED_FACE ( 'NONE', ( #302, #51 ), #105, .T. ) ;
#14 = CARTESIAN_POINT ( 'NONE',  ( 8.728703347107825500E-16, -3.061616997868380553E-17, 0.2499999999999997780 ) ) ;
#15 = CARTESIAN_POINT ( 'NONE',  ( 3.769662800180656811E-14, -1.322219721110043717E-15, 10.79674337148167673 ) ) ;
#16 = CONICAL_SURFACE ( 'NONE', #53, 1.200000000000001510, 0.7853981633974566057 ) ;
#17 =( GEOMETRIC_REPRESENTATION_CONTEXT ( 3 ) GLOBAL_UNCERTAINTY_ASSIGNED_CONTEXT ( ( #69 ) ) GLOBAL_UNIT_ASSIGNED_CONTEXT ( ( #275, #47, #268 ) ) REPRESENTATION_CONTEXT ( 'NONE', 'WORKASPACE' ) );
#18 = VERTEX_POINT ( 'NONE', #117 ) ;
#19 = CARTESIAN_POINT ( 'NONE',  ( 3.491481338843133355E-14, 1.959999999999988640, 10.00000000000000000 ) ) ;
#20 = APPLICATION_CONTEXT ( 'configuration controlled 3d designs of mechanical parts and assemblies' ) ;
#21 = CC_DESIGN_DATE_AND_TIME_ASSIGNMENT ( #33, #256, ( #224 ) ) ;
#22 = CARTESIAN_POINT ( 'NONE',  ( 2.444036937190193601E-13, 8.998558695971026591E-33, 70.00000000000000000 ) ) ;
#23 = DIRECTION ( 'NONE',  ( -3.491481338843133355E-15, 1.224646799147353207E-16, -1.000000000000000000 ) ) ;
#24 = AXIS2_PLACEMENT_3D ( 'NONE', #15, #239, #88 ) ;
#25 = DIRECTION ( 'NONE',  ( -3.491481338843133355E-15, 1.224646799147353207E-16, -1.000000000000000000 ) ) ;
#26 = DIRECTION ( 'NONE',  ( 0.0000000000000000000, 1.000000000000000000, 0.0000000000000000000 ) ) ;
#27 = CIRCLE ( 'NONE', #291, 1.500000000000001110 ) ;
#28 = CC_DESIGN_SECURITY_CLASSIFICATION ( #224, ( #63 ) ) ;
#29 = DIRECTION ( 'NONE',  ( 4.275831445896958607E-31, 1.000000000000000000, 1.224646799147353454E-16 ) ) ;
#30 = COORDINATED_UNIVERSAL_TIME_OFFSET ( 1, 0, .AHEAD. ) ;
#31 = ORIENTED_EDGE ( 'NONE', *, *, #221, .T. ) ;
#32 = EDGE_LOOP ( 'NONE', ( #267 ) ) ;
#33 = DATE_AND_TIME ( #103, #6 ) ;
#34 = CC_DESIGN_PERSON_AND_ORGANIZATION_ASSIGNMENT ( #269, #79, ( #160 ) ) ;
#35 = PERSON_AND_ORGANIZATION ( #66, #243 ) ;
#36 = AXIS2_PLACEMENT_3D ( 'NONE', #179, #218, #203 ) ;
#37 = AXIS2_PLACEMENT_3D ( 'NONE', #235, #82, #132 ) ;
#38 = VERTEX_POINT ( 'NONE', #216 ) ;
#39 = EDGE_LOOP ( 'NONE', ( #89 ) ) ;
#40 = APPROVAL_PERSON_ORGANIZATION ( #35, #1, #258 ) ;
#41 = ORIENTED_EDGE ( 'NONE', *, *, #125, .T. ) ;
#42 = CARTESIAN_POINT ( 'NONE',  ( 0.0000000000000000000, 0.0000000000000000000, 0.0000000000000000000 ) ) ;
#43 = PERSON_AND_ORGANIZATION ( #66, #243 ) ;
#44 = COORDINATED_UNIVERSAL_TIME_OFFSET ( 1, 0, .AHEAD. ) ;
#45 = DIRECTION ( 'NONE',  ( 0.0000000000000000000, 1.000000000000000000, 0.0000000000000000000 ) ) ;
#46 = AXIS2_PLACEMENT_3D ( 'NONE', #2, #156, #247 ) ;
#47 =( NAMED_UNIT ( * ) PLANE_ANGLE_UNIT ( ) SI_UNIT ( $, .RADIAN. ) );
#48 = APPROVAL_ROLE ( '' ) ;
#49 = ADVANCED_FACE ( 'NONE', ( #91 ), #245, .F. ) ;
#50 = DIRECTION ( 'NONE',  ( -4.275831445896958607E-31, -1.000000000000000000, -1.224646799147353207E-16 ) ) ;
#51 = FACE_OUTER_BOUND ( 'NONE', #255, .T. ) ;
#52 = CARTESIAN_POINT ( 'NONE',  ( -7.311671772483752116E-31, 2.564589228351760197E-32, -2.094146026541960473E-16 ) ) ;
#53 = AXIS2_PLACEMENT_3D ( 'NONE', #225, #210, #73 ) ;
#54 = CC_DESIGN_PERSON_AND_ORGANIZATION_ASSIGNMENT ( #251, #101, ( #224 ) ) ;
#55 = ORIENTED_EDGE ( 'NONE', *, *, #157, .T. ) ;
#56 = FACE_OUTER_BOUND ( 'NONE', #81, .T. ) ;
#57 = DIRECTION ( 'NONE',  ( 0.0000000000000000000, 1.000000000000000000, 0.0000000000000000000 ) ) ;
#58 = ORIENTED_EDGE ( 'NONE', *, *, #112, .F. ) ;
#59 = DIRECTION ( 'NONE',  ( 0.0000000000000000000, 1.000000000000000000, 0.0000000000000000000 ) ) ;
#60 = APPROVAL_DATE_TIME ( #234, #1 ) ;
#61 = CARTESIAN_POINT ( 'NONE',  ( -3.655835886241876058E-31, 1.282294614175880099E-32, -1.047073013270980236E-16 ) ) ;
#62 = CIRCLE ( 'NONE', #109, 1.200000000000001510 ) ;
#63 = PRODUCT_DEFINITION_FORMATION_WITH_SPECIFIED_SOURCE ( 'ANY', '', #160, .NOT_KNOWN. ) ;
#64 = ORIENTED_EDGE ( 'NONE', *, *, #112, .T. ) ;
#65 = EDGE_LOOP ( 'NONE', ( #292 ) ) ;
#66 = PERSON ( 'UNSPECIFIED', 'UNSPECIFIED', 'UNSPECIFIED', ('UNSPECIFIED'), ('UNSPECIFIED'), ('UNSPECIFIED') ) ;
#67 = APPLICATION_PROTOCOL_DEFINITION ( 'international standard', 'config_control_design', 1994, #20 ) ;
#68 = CALENDAR_DATE ( 2021, 2, 12 ) ;
#69 = UNCERTAINTY_MEASURE_WITH_UNIT (LENGTH_MEASURE( 1.000000000000000082E-05 ), #275, 'distance_accuracy_value', 'NONE');
#70 = FACE_OUTER_BOUND ( 'NONE', #174, .T. ) ;
#71 = CARTESIAN_POINT ( 'NONE',  ( 2.433562493173664138E-13, 1.499999999999992673, 69.70000000000001705 ) ) ;
#72 = CARTESIAN_POINT ( 'NONE',  ( 2.444036937190193601E-13, 1.199999999999992628, 70.00000000000000000 ) ) ;
#73 = DIRECTION ( 'NONE',  ( 0.0000000000000000000, 1.000000000000000000, 0.0000000000000000000 ) ) ;
#74 = CARTESIAN_POINT ( 'NONE',  ( 2.433562493173664138E-13, -8.535788190057053710E-15, 69.70000000000001705 ) ) ;
#75 = PERSON_AND_ORGANIZATION ( #66, #243 ) ;
#76 = CARTESIAN_POINT ( 'NONE',  ( 0.0000000000000000000, 0.0000000000000000000, 0.0000000000000000000 ) ) ;
#77 = CC_DESIGN_DATE_AND_TIME_ASSIGNMENT ( #280, #147, ( #171 ) ) ;
#78 = CONICAL_SURFACE ( 'NONE', #237, 1.959999999999989972, 0.5235987755983001479 ) ;
#79 = PERSON_AND_ORGANIZATION_ROLE ( 'design_owner' ) ;
#80 = ORIENTED_EDGE ( 'NONE', *, *, #149, .T. ) ;
#81 = EDGE_LOOP ( 'NONE', ( #31 ) ) ;
#82 = DIRECTION ( 'NONE',  ( -3.491481338843133355E-15, 1.224646799147353207E-16, -1.000000000000000000 ) ) ;
#83 = CONICAL_SURFACE ( 'NONE', #288, 1.200000000000001510, 0.7853981633974566057 ) ;
#84 = AXIS2_PLACEMENT_3D ( 'NONE', #42, #131, #294 ) ;
#85 = EDGE_LOOP ( 'NONE', ( #58 ) ) ;
#86 = COORDINATED_UNIVERSAL_TIME_OFFSET ( 1, 0, .AHEAD. ) ;
#87 = ADVANCED_FACE ( 'NONE', ( #222, #184 ), #16, .T. ) ;
#88 = DIRECTION ( 'NONE',  ( 0.0000000000000000000, 1.000000000000000000, 0.0000000000000000000 ) ) ;
#89 = ORIENTED_EDGE ( 'NONE', *, *, #4, .F. ) ;
#90 = APPROVAL_DATE_TIME ( #244, #121 ) ;
#91 = FACE_OUTER_BOUND ( 'NONE', #172, .T. ) ;
#92 = CARTESIAN_POINT ( 'NONE',  ( 3.491481338843133355E-14, 1.959999999999988640, 10.00000000000000000 ) ) ;
#93 = CIRCLE ( 'NONE', #146, 1.499999999999992895 ) ;
#94 = LOCAL_TIME ( 10, 36, 12.00000000000000000, #86 ) ;
#95 = CARTESIAN_POINT ( 'NONE',  ( 8.552847072295026068E-47, 1.709999999999989084, 0.0000000000000000000 ) ) ;
#96 = FACE_OUTER_BOUND ( 'NONE', #115, .T. ) ;
#97 = FACE_OUTER_BOUND ( 'NONE', #299, .T. ) ;
#98 = CARTESIAN_POINT ( 'NONE',  ( 2.444036937190193601E-13, 1.199999999999992628, 70.00000000000000000 ) ) ;
#99 = CC_DESIGN_APPROVAL ( #1, ( #224 ) ) ;
#100 = EDGE_CURVE ( 'NONE', #129, #129, #215, .T. ) ;
#101 = PERSON_AND_ORGANIZATION_ROLE ( 'classification_officer' ) ;
#102 = DIRECTION ( 'NONE',  ( 4.275831445896958607E-31, 1.000000000000000000, 1.224646799147353207E-16 ) ) ;
#103 = CALENDAR_DATE ( 2021, 2, 12 ) ;
#104 = PERSON_AND_ORGANIZATION ( #66, #243 ) ;
#105 = CONICAL_SURFACE ( 'NONE', #137, 1.959999999999989972, 0.5235987755983001479 ) ;
#106 = SHAPE_DEFINITION_REPRESENTATION ( #118, #189 ) ;
#107 = ADVANCED_FACE ( 'NONE', ( #70 ), #205, .F. ) ;
#108 = ORIENTED_EDGE ( 'NONE', *, *, #276, .T. ) ;
#109 = AXIS2_PLACEMENT_3D ( 'NONE', #211, #8, #253 ) ;
#110 = MANIFOLD_SOLID_BREP ( 'Corps-Déplacer/Copier1[1]', #208 ) ;
#111 = ORIENTED_EDGE ( 'NONE', *, *, #100, .T. ) ;
#112 = EDGE_CURVE ( 'NONE', #18, #18, #130, .T. ) ;
#113 = FACE_OUTER_BOUND ( 'NONE', #229, .T. ) ;
#114 = VERTEX_POINT ( 'NONE', #92 ) ;
#115 = EDGE_LOOP ( 'NONE', ( #9 ) ) ;
#116 = PERSON_AND_ORGANIZATION_ROLE ( 'creator' ) ;
#117 = CARTESIAN_POINT ( 'NONE',  ( 2.433562493173664138E-13, 1.499999999999992673, 69.70000000000001705 ) ) ;
#118 = PRODUCT_DEFINITION_SHAPE ( 'NONE', 'NONE',  #171 ) ;
#119 = CARTESIAN_POINT ( 'NONE',  ( 3.491481338843133355E-14, -1.224646799147353256E-15, 10.00000000000000000 ) ) ;
#120 = AXIS2_PLACEMENT_3D ( 'NONE', #287, #285, #102 ) ;
#121 = APPROVAL ( #12, 'UNSPECIFIED' ) ;
#122 = ADVANCED_FACE ( 'NONE', ( #97 ), #11, .F. ) ;
#123 = CYLINDRICAL_SURFACE ( 'NONE', #120, 1.959999999999989972 ) ;
#124 = APPLICATION_PROTOCOL_DEFINITION ( 'international standard', 'config_control_design', 1994, #158 ) ;
#125 = EDGE_CURVE ( 'NONE', #114, #114, #252, .T. ) ;
#126 = AXIS2_PLACEMENT_3D ( 'NONE', #52, #135, #148 ) ;
#127 = DIRECTION ( 'NONE',  ( -3.491481338843133355E-15, 1.224646799147353207E-16, -1.000000000000000000 ) ) ;
#128 = CARTESIAN_POINT ( 'NONE',  ( 3.769662800180656811E-14, 1.499999999999991562, 10.79674337148167673 ) ) ;
#129 = VERTEX_POINT ( 'NONE', #19 ) ;
#130 = CIRCLE ( 'NONE', #214, 1.500000000000001110 ) ;
#131 = DIRECTION ( 'NONE',  ( 0.0000000000000000000, 0.0000000000000000000, 1.000000000000000000 ) ) ;
#132 = DIRECTION ( 'NONE',  ( 0.0000000000000000000, 1.000000000000000000, 0.0000000000000000000 ) ) ;
#133 = PERSON_AND_ORGANIZATION_ROLE ( 'design_supplier' ) ;
#134 = EDGE_CURVE ( 'NONE', #180, #180, #93, .T. ) ;
#135 = DIRECTION ( 'NONE',  ( 3.491481338843133355E-15, -1.224646799147353207E-16, 1.000000000000000000 ) ) ;
#136 = DIRECTION ( 'NONE',  ( 4.275831445896958607E-31, 1.000000000000000000, 1.224646799147353454E-16 ) ) ;
#137 = AXIS2_PLACEMENT_3D ( 'NONE', #188, #273, #226 ) ;
#138 = ORIENTED_EDGE ( 'NONE', *, *, #232, .F. ) ;
#139 = COORDINATED_UNIVERSAL_TIME_OFFSET ( 1, 0, .AHEAD. ) ;
#140 = EDGE_LOOP ( 'NONE', ( #80 ) ) ;
#141 = APPROVAL_STATUS ( 'not_yet_approved' ) ;
#142 = PERSON_AND_ORGANIZATION ( #66, #243 ) ;
#143 = CARTESIAN_POINT ( 'NONE',  ( 2.433562493173664138E-13, -8.535788190057053710E-15, 69.70000000000001705 ) ) ;
#144 = DIRECTION ( 'NONE',  ( 4.275831445896958607E-31, 1.000000000000000000, 1.224646799147353207E-16 ) ) ;
#145 = FACE_OUTER_BOUND ( 'NONE', #65, .T. ) ;
#146 = AXIS2_PLACEMENT_3D ( 'NONE', #298, #154, #59 ) ;
#147 = DATE_TIME_ROLE ( 'creation_date' ) ;
#148 = DIRECTION ( 'NONE',  ( -4.275831445896959482E-31, -1.000000000000000000, -1.224646799147353207E-16 ) ) ;
#149 = EDGE_CURVE ( 'NONE', #183, #183, #62, .T. ) ;
#150 = EDGE_LOOP ( 'NONE', ( #64 ) ) ;
#151 = CARTESIAN_POINT ( 'NONE',  ( 0.0000000000000000000, 0.0000000000000000000, 0.0000000000000000000 ) ) ;
#152 = DATE_AND_TIME ( #177, #94 ) ;
#153 = DESIGN_CONTEXT ( 'detailed design', #158, 'design' ) ;
#154 = DIRECTION ( 'NONE',  ( -3.491481338843133355E-15, 1.224646799147353207E-16, -1.000000000000000000 ) ) ;
#155 = APPROVAL_PERSON_ORGANIZATION ( #264, #289, #296 ) ;
#156 = DIRECTION ( 'NONE',  ( -3.491481338843133355E-15, 1.224646799147353207E-16, -1.000000000000000000 ) ) ;
#157 = EDGE_CURVE ( 'NONE', #38, #38, #274, .T. ) ;
#158 = APPLICATION_CONTEXT ( 'configuration controlled 3d designs of mechanical parts and assemblies' ) ;
#159 = DIRECTION ( 'NONE',  ( 3.491481338843133355E-15, -1.224646799147353207E-16, 1.000000000000000000 ) ) ;
#160 = PRODUCT ( '321618', '321618', '', ( #164 ) ) ;
#161 = ADVANCED_FACE ( 'NONE', ( #145 ), #259, .T. ) ;
#162 = DIRECTION ( 'NONE',  ( -3.491481338843133355E-15, 1.224646799147353207E-16, -1.000000000000000000 ) ) ;
#163 = DIRECTION ( 'NONE',  ( 0.0000000000000000000, 1.000000000000000000, 0.0000000000000000000 ) ) ;
#164 = MECHANICAL_CONTEXT ( 'NONE', #20, 'mechanical' ) ;
#165 = AXIS2_PLACEMENT_3D ( 'NONE', #14, #127, #219 ) ;
#166 = EDGE_LOOP ( 'NONE', ( #202 ) ) ;
#167 = SECURITY_CLASSIFICATION_LEVEL ( 'unclassified' ) ;
#168 = COORDINATED_UNIVERSAL_TIME_OFFSET ( 1, 0, .AHEAD. ) ;
#169 = FACE_OUTER_BOUND ( 'NONE', #173, .T. ) ;
#170 = AXIS2_PLACEMENT_3D ( 'NONE', #61, #197, #254 ) ;
#171 = PRODUCT_DEFINITION ( 'UNKNOWN', '', #63, #153 ) ;
#172 = EDGE_LOOP ( 'NONE', ( #265 ) ) ;
#173 = EDGE_LOOP ( 'NONE', ( #111 ) ) ;
#174 = EDGE_LOOP ( 'NONE', ( #41 ) ) ;
#175 = ORIENTED_EDGE ( 'NONE', *, *, #100, .F. ) ;
#176 = CYLINDRICAL_SURFACE ( 'NONE', #282, 1.499999999999996891 ) ;
#177 = CALENDAR_DATE ( 2021, 2, 12 ) ;
#178 = VERTEX_POINT ( 'NONE', #95 ) ;
#179 = CARTESIAN_POINT ( 'NONE',  ( -7.311671772483752116E-31, 2.564589228351760197E-32, -2.094146026541960473E-16 ) ) ;
#180 = VERTEX_POINT ( 'NONE', #128 ) ;
#181 = PERSON_AND_ORGANIZATION_ROLE ( 'creator' ) ;
#182 = FACE_BOUND ( 'NONE', #32, .T. ) ;
#183 = VERTEX_POINT ( 'NONE', #72 ) ;
#184 = FACE_BOUND ( 'NONE', #140, .T. ) ;
#185 = ADVANCED_FACE ( 'NONE', ( #190, #286 ), #228, .T. ) ;
#186 = CONICAL_SURFACE ( 'NONE', #126, 1.709999999999989084, 0.7853981633974500554 ) ;
#187 = APPROVAL_PERSON_ORGANIZATION ( #142, #121, #48 ) ;
#188 = CARTESIAN_POINT ( 'NONE',  ( 3.491481338843133355E-14, -1.224646799147353256E-15, 10.00000000000000000 ) ) ;
#189 = ADVANCED_BREP_SHAPE_REPRESENTATION ( '321618', ( #110, #207, #84 ), #17 ) ;
#190 = FACE_OUTER_BOUND ( 'NONE', #166, .T. ) ;
#191 = VERTEX_POINT ( 'NONE', #98 ) ;
#192 = CARTESIAN_POINT ( 'NONE',  ( 2.444036937190193601E-13, -8.572527594031472993E-15, 70.00000000000000000 ) ) ;
#193 = AXIS2_PLACEMENT_3D ( 'NONE', #272, #159, #50 ) ;
#194 = PRODUCT_RELATED_PRODUCT_CATEGORY ( 'detail', '', ( #160 ) ) ;
#195 = LOCAL_TIME ( 10, 36, 12.00000000000000000, #44 ) ;
#196 = EDGE_LOOP ( 'NONE', ( #108 ) ) ;
#197 = DIRECTION ( 'NONE',  ( -3.491481338843133355E-15, 1.224646799147353207E-16, -1.000000000000000000 ) ) ;
#198 = CC_DESIGN_APPROVAL ( #289, ( #63 ) ) ;
#199 = DIRECTION ( 'NONE',  ( 0.0000000000000000000, 1.000000000000000000, 0.0000000000000000000 ) ) ;
#200 = APPROVAL_STATUS ( 'not_yet_approved' ) ;
#201 = VERTEX_POINT ( 'NONE', #297 ) ;
#202 = ORIENTED_EDGE ( 'NONE', *, *, #134, .F. ) ;
#203 = DIRECTION ( 'NONE',  ( 4.275831445896958607E-31, 1.000000000000000000, 1.224646799147353207E-16 ) ) ;
#204 = CC_DESIGN_PERSON_AND_ORGANIZATION_ASSIGNMENT ( #104, #116, ( #63 ) ) ;
#205 = PLANE ( 'NONE',  #193 ) ;
#206 = CARTESIAN_POINT ( 'NONE',  ( 3.491481338843133355E-14, -1.224646799147353256E-15, 10.00000000000000000 ) ) ;
#207 = MANIFOLD_SOLID_BREP ( 'Corps-Déplacer/Copier1[2]', #281 ) ;
#208 = CLOSED_SHELL ( 'NONE', ( #107, #13, #250, #87, #122 ) ) ;
#209 = LOCAL_TIME ( 10, 36, 12.00000000000000000, #139 ) ;
#210 = DIRECTION ( 'NONE',  ( -3.491481338843133355E-15, 1.224646799147353207E-16, -1.000000000000000000 ) ) ;
#211 = CARTESIAN_POINT ( 'NONE',  ( 2.444036937190193601E-13, -8.572527594031472993E-15, 70.00000000000000000 ) ) ;
#212 = FACE_BOUND ( 'NONE', #279, .T. ) ;
#213 = FACE_OUTER_BOUND ( 'NONE', #39, .T. ) ;
#214 = AXIS2_PLACEMENT_3D ( 'NONE', #74, #3, #26 ) ;
#215 = CIRCLE ( 'NONE', #223, 1.959999999999989972 ) ;
#216 = CARTESIAN_POINT ( 'NONE',  ( 3.769662800180656811E-14, 1.499999999999991562, 10.79674337148167673 ) ) ;
#217 = ADVANCED_FACE ( 'NONE', ( #56, #212 ), #186, .T. ) ;
#218 = DIRECTION ( 'NONE',  ( -3.491481338843133355E-15, 1.224646799147353207E-16, -1.000000000000000000 ) ) ;
#219 = DIRECTION ( 'NONE',  ( 3.930469274259685230E-31, 1.000000000000000000, 1.106328747434193891E-16 ) ) ;
#220 = CIRCLE ( 'NONE', #36, 1.709999999999989084 ) ;
#221 = EDGE_CURVE ( 'NONE', #201, #201, #303, .T. ) ;
#222 = FACE_OUTER_BOUND ( 'NONE', #85, .T. ) ;
#223 = AXIS2_PLACEMENT_3D ( 'NONE', #206, #23, #45 ) ;
#224 = SECURITY_CLASSIFICATION ( '', '', #167 ) ;
#225 = CARTESIAN_POINT ( 'NONE',  ( 2.444036937190193601E-13, -8.572527594031472993E-15, 70.00000000000000000 ) ) ;
#226 = DIRECTION ( 'NONE',  ( 0.0000000000000000000, 1.000000000000000000, 0.0000000000000000000 ) ) ;
#227 = CC_DESIGN_PERSON_AND_ORGANIZATION_ASSIGNMENT ( #43, #181, ( #171 ) ) ;
#228 = CYLINDRICAL_SURFACE ( 'NONE', #270, 1.499999999999996891 ) ;
#229 = EDGE_LOOP ( 'NONE', ( #175 ) ) ;
#230 = FACE_OUTER_BOUND ( 'NONE', #263, .T. ) ;
#231 = ORIENTED_EDGE ( 'NONE', *, *, #125, .F. ) ;
#232 = EDGE_CURVE ( 'NONE', #178, #178, #220, .T. ) ;
#233 = AXIS2_PLACEMENT_3D ( 'NONE', #119, #25, #248 ) ;
#234 = DATE_AND_TIME ( #10, #209 ) ;
#235 = CARTESIAN_POINT ( 'NONE',  ( 2.444036937190193601E-13, -8.572527594031472993E-15, 70.00000000000000000 ) ) ;
#236 = DIRECTION ( 'NONE',  ( -3.491481338843133355E-15, 1.224646799147353207E-16, -1.000000000000000000 ) ) ;
#237 = AXIS2_PLACEMENT_3D ( 'NONE', #7, #271, #199 ) ;
#238 = ADVANCED_FACE ( 'NONE', ( #182, #113 ), #78, .T. ) ;
#239 = DIRECTION ( 'NONE',  ( -3.491481338843133355E-15, 1.224646799147353207E-16, -1.000000000000000000 ) ) ;
#240 = ORIENTED_EDGE ( 'NONE', *, *, #221, .F. ) ;
#241 = DIRECTION ( 'NONE',  ( -3.491481338843133355E-15, 1.224646799147353207E-16, -1.000000000000000000 ) ) ;
#242 = APPROVAL_DATE_TIME ( #152, #289 ) ;
#243 = ORGANIZATION ( 'UNSPECIFIED', 'UNSPECIFIED', '' ) ;
#244 = DATE_AND_TIME ( #68, #195 ) ;
#245 = PLANE ( 'NONE',  #46 ) ;
#246 = CIRCLE ( 'NONE', #37, 1.200000000000001510 ) ;
#247 = DIRECTION ( 'NONE',  ( 4.275831445896958607E-31, 1.000000000000000000, 1.224646799147353207E-16 ) ) ;
#248 = DIRECTION ( 'NONE',  ( 0.0000000000000000000, 1.000000000000000000, 0.0000000000000000000 ) ) ;
#249 = DIRECTION ( 'NONE',  ( -3.491481338843133355E-15, 1.224646799147353207E-16, -1.000000000000000000 ) ) ;
#250 = ADVANCED_FACE ( 'NONE', ( #96, #300 ), #176, .T. ) ;
#251 = PERSON_AND_ORGANIZATION ( #66, #243 ) ;
#252 = CIRCLE ( 'NONE', #233, 1.959999999999989972 ) ;
#253 = DIRECTION ( 'NONE',  ( 0.0000000000000000000, 1.000000000000000000, 0.0000000000000000000 ) ) ;
#254 = DIRECTION ( 'NONE',  ( 4.275831445896958607E-31, 1.000000000000000000, 1.224646799147353207E-16 ) ) ;
#255 = EDGE_LOOP ( 'NONE', ( #231 ) ) ;
#256 = DATE_TIME_ROLE ( 'classification_date' ) ;
#257 = CC_DESIGN_APPROVAL ( #121, ( #171 ) ) ;
#258 = APPROVAL_ROLE ( '' ) ;
#259 = PLANE ( 'NONE',  #170 ) ;
#260 = ORIENTED_EDGE ( 'NONE', *, *, #149, .F. ) ;
#261 = ADVANCED_FACE ( 'NONE', ( #213, #278 ), #83, .T. ) ;
#262 = LOCAL_TIME ( 10, 36, 12.00000000000000000, #30 ) ;
#263 = EDGE_LOOP ( 'NONE', ( #240 ) ) ;
#264 = PERSON_AND_ORGANIZATION ( #66, #243 ) ;
#265 = ORIENTED_EDGE ( 'NONE', *, *, #276, .F. ) ;
#266 = ADVANCED_FACE ( 'NONE', ( #169, #230 ), #123, .T. ) ;
#267 = ORIENTED_EDGE ( 'NONE', *, *, #134, .T. ) ;
#268 =( NAMED_UNIT ( * ) SI_UNIT ( $, .STERADIAN. ) SOLID_ANGLE_UNIT ( ) );
#269 = PERSON_AND_ORGANIZATION ( #66, #243 ) ;
#270 = AXIS2_PLACEMENT_3D ( 'NONE', #76, #249, #29 ) ;
#271 = DIRECTION ( 'NONE',  ( -3.491481338843133355E-15, 1.224646799147353207E-16, -1.000000000000000000 ) ) ;
#272 = CARTESIAN_POINT ( 'NONE',  ( 3.491481338843133355E-14, 1.469764587008611205E-32, 10.00000000000000000 ) ) ;
#273 = DIRECTION ( 'NONE',  ( -3.491481338843133355E-15, 1.224646799147353207E-16, -1.000000000000000000 ) ) ;
#274 = CIRCLE ( 'NONE', #24, 1.499999999999992895 ) ;
#275 =( LENGTH_UNIT ( ) NAMED_UNIT ( * ) SI_UNIT ( .MILLI., .METRE. ) );
#276 = EDGE_CURVE ( 'NONE', #191, #191, #246, .T. ) ;
#277 = CALENDAR_DATE ( 2021, 2, 12 ) ;
#278 = FACE_BOUND ( 'NONE', #196, .T. ) ;
#279 = EDGE_LOOP ( 'NONE', ( #138 ) ) ;
#280 = DATE_AND_TIME ( #277, #262 ) ;
#281 = CLOSED_SHELL ( 'NONE', ( #238, #266, #217, #161, #49, #261, #185 ) ) ;
#282 = AXIS2_PLACEMENT_3D ( 'NONE', #151, #241, #136 ) ;
#283 = DIRECTION ( 'NONE',  ( -3.491481338843133355E-15, 1.224646799147353207E-16, -1.000000000000000000 ) ) ;
#284 = EDGE_LOOP ( 'NONE', ( #55 ) ) ;
#285 = DIRECTION ( 'NONE',  ( -3.491481338843133355E-15, 1.224646799147353207E-16, -1.000000000000000000 ) ) ;
#286 = FACE_OUTER_BOUND ( 'NONE', #290, .T. ) ;
#287 = CARTESIAN_POINT ( 'NONE',  ( 0.0000000000000000000, 0.0000000000000000000, 0.0000000000000000000 ) ) ;
#288 = AXIS2_PLACEMENT_3D ( 'NONE', #192, #283, #57 ) ;
#289 = APPROVAL ( #200, 'UNSPECIFIED' ) ;
#290 = EDGE_LOOP ( 'NONE', ( #295 ) ) ;
#291 = AXIS2_PLACEMENT_3D ( 'NONE', #143, #236, #163 ) ;
#292 = ORIENTED_EDGE ( 'NONE', *, *, #232, .T. ) ;
#293 = CC_DESIGN_PERSON_AND_ORGANIZATION_ASSIGNMENT ( #75, #133, ( #63 ) ) ;
#294 = DIRECTION ( 'NONE',  ( 1.000000000000000000, 0.0000000000000000000, 0.0000000000000000000 ) ) ;
#295 = ORIENTED_EDGE ( 'NONE', *, *, #4, .T. ) ;
#296 = APPROVAL_ROLE ( '' ) ;
#297 = CARTESIAN_POINT ( 'NONE',  ( 8.728703347107833388E-16, 1.959999999999989972, 0.2500000000000000000 ) ) ;
#298 = CARTESIAN_POINT ( 'NONE',  ( 3.769662800180656811E-14, -1.322219721110043717E-15, 10.79674337148167673 ) ) ;
#299 = EDGE_LOOP ( 'NONE', ( #260 ) ) ;
#300 = FACE_OUTER_BOUND ( 'NONE', #150, .T. ) ;
#301 = VERTEX_POINT ( 'NONE', #71 ) ;
#302 = FACE_BOUND ( 'NONE', #284, .T. ) ;
#303 = CIRCLE ( 'NONE', #165, 1.959999999999989972 ) ;
ENDSEC;
END-ISO-10303-21;
