ISO-10303-21;
HEADER;
FILE_DESCRIPTION (( 'STEP AP203' ),
    '1' );
FILE_NAME ('321617.step',
    '2021-12-02T09:36:11',
    ( '' ),
    ( '' ),
    'SwSTEP 2.0',
    'SolidWorks 2019',
    '' );
FILE_SCHEMA (( 'CONFIG_CONTROL_DESIGN' ));
ENDSEC;

DATA;
#1 = APPROVAL ( #102, 'UNSPECIFIED' ) ;
#2 = CARTESIAN_POINT ( 'NONE',  ( 3.766639088644378676E-14, -1.321159145871318673E-15, 10.78808311744383097 ) ) ;
#3 = CIRCLE ( 'NONE', #293, 1.954999999999990079 ) ;
#4 = PRODUCT_RELATED_PRODUCT_CATEGORY ( 'detail', '', ( #37 ) ) ;
#5 = CYLINDRICAL_SURFACE ( 'NONE', #67, 1.954999999999990079 ) ;
#6 = DIRECTION ( 'NONE',  ( 0.0000000000000000000, 1.000000000000000000, 0.0000000000000000000 ) ) ;
#7 = CC_DESIGN_APPROVAL ( #1, ( #169 ) ) ;
#8 = ADVANCED_FACE ( 'NONE', ( #163, #88 ), #104, .T. ) ;
#9 = APPROVAL_DATE_TIME ( #29, #271 ) ;
#10 = ORIENTED_EDGE ( 'NONE', *, *, #13, .T. ) ;
#11 = VERTEX_POINT ( 'NONE', #114 ) ;
#12 = EDGE_LOOP ( 'NONE', ( #239 ) ) ;
#13 = EDGE_CURVE ( 'NONE', #213, #213, #71, .T. ) ;
#14 = DIRECTION ( 'NONE',  ( -3.491481338843133355E-15, 1.224646799147353207E-16, -1.000000000000000000 ) ) ;
#15 = CIRCLE ( 'NONE', #267, 1.200000000000001510 ) ;
#16 = DIRECTION ( 'NONE',  ( -3.491481338843133355E-15, 1.224646799147353207E-16, -1.000000000000000000 ) ) ;
#17 = EDGE_LOOP ( 'NONE', ( #270 ) ) ;
#18 = LOCAL_TIME ( 10, 36, 11.00000000000000000, #98 ) ;
#19 = DIRECTION ( 'NONE',  ( -3.491481338843133355E-15, 1.224646799147353207E-16, -1.000000000000000000 ) ) ;
#20 = FACE_OUTER_BOUND ( 'NONE', #200, .T. ) ;
#21 = PLANE ( 'NONE',  #106 ) ;
#22 = CC_DESIGN_PERSON_AND_ORGANIZATION_ASSIGNMENT ( #109, #140, ( #169 ) ) ;
#23 = CONICAL_SURFACE ( 'NONE', #253, 1.704999999999989191, 0.7853981633974500554 ) ;
#24 = PLANE ( 'NONE',  #96 ) ;
#25 = LOCAL_TIME ( 10, 36, 11.00000000000000000, #287 ) ;
#26 = CARTESIAN_POINT ( 'NONE',  ( 0.0000000000000000000, 0.0000000000000000000, 0.0000000000000000000 ) ) ;
#27 = ORIENTED_EDGE ( 'NONE', *, *, #48, .F. ) ;
#28 = AXIS2_PLACEMENT_3D ( 'NONE', #283, #192, #284 ) ;
#29 = DATE_AND_TIME ( #145, #225 ) ;
#30 = PERSON_AND_ORGANIZATION_ROLE ( 'creator' ) ;
#31 = PERSON_AND_ORGANIZATION ( #123, #208 ) ;
#32 = CARTESIAN_POINT ( 'NONE',  ( 3.491481338843133355E-14, -1.224646799147353256E-15, 10.00000000000000000 ) ) ;
#33 = ADVANCED_FACE ( 'NONE', ( #179, #121 ), #133, .T. ) ;
#34 = DATE_AND_TIME ( #238, #25 ) ;
#35 = AXIS2_PLACEMENT_3D ( 'NONE', #150, #14, #223 ) ;
#36 = CARTESIAN_POINT ( 'NONE',  ( 2.444036937190193601E-13, 1.199999999999992628, 70.00000000000000000 ) ) ;
#37 = PRODUCT ( '321617', '321617', '', ( #77 ) ) ;
#38 = CARTESIAN_POINT ( 'NONE',  ( 3.491481338843133355E-14, 1.954999999999988969, 10.00000000000000000 ) ) ;
#39 = DIRECTION ( 'NONE',  ( 0.0000000000000000000, 1.000000000000000000, 0.0000000000000000000 ) ) ;
#40 = APPLICATION_PROTOCOL_DEFINITION ( 'international standard', 'config_control_design', 1994, #108 ) ;
#41 = CIRCLE ( 'NONE', #204, 1.200000000000001510 ) ;
#42 = VERTEX_POINT ( 'NONE', #62 ) ;
#43 = VERTEX_POINT ( 'NONE', #301 ) ;
#44 = MANIFOLD_SOLID_BREP ( 'Corps-Déplacer/Copier1[1]', #188 ) ;
#45 = ADVANCED_FACE ( 'NONE', ( #209 ), #24, .F. ) ;
#46 = DIRECTION ( 'NONE',  ( 4.275831445896958607E-31, 1.000000000000000000, 1.224646799147353454E-16 ) ) ;
#47 = AXIS2_PLACEMENT_3D ( 'NONE', #122, #19, #101 ) ;
#48 = EDGE_CURVE ( 'NONE', #94, #94, #272, .T. ) ;
#49 = FACE_OUTER_BOUND ( 'NONE', #58, .T. ) ;
#50 = CARTESIAN_POINT ( 'NONE',  ( 2.444036937190193601E-13, -8.572527594031472993E-15, 70.00000000000000000 ) ) ;
#51 = CARTESIAN_POINT ( 'NONE',  ( 3.766639088644378676E-14, -1.321159145871318673E-15, 10.78808311744383097 ) ) ;
#52 = AXIS2_PLACEMENT_3D ( 'NONE', #205, #273, #296 ) ;
#53 = PERSON_AND_ORGANIZATION ( #123, #208 ) ;
#54 = PERSON_AND_ORGANIZATION ( #123, #208 ) ;
#55 = DIRECTION ( 'NONE',  ( 4.275831445896958607E-31, 1.000000000000000000, 1.224646799147353207E-16 ) ) ;
#56 = EDGE_LOOP ( 'NONE', ( #151 ) ) ;
#57 = AXIS2_PLACEMENT_3D ( 'NONE', #2, #190, #83 ) ;
#58 = EDGE_LOOP ( 'NONE', ( #27 ) ) ;
#59 = VERTEX_POINT ( 'NONE', #36 ) ;
#60 = CARTESIAN_POINT ( 'NONE',  ( -3.645146307627134139E-31, 1.278545214719225701E-32, -1.044011396273112045E-16 ) ) ;
#61 = DIRECTION ( 'NONE',  ( 4.275831445896958607E-31, 1.000000000000000000, 1.224646799147353454E-16 ) ) ;
#62 = CARTESIAN_POINT ( 'NONE',  ( 2.433562493173664138E-13, 1.499999999999992673, 69.70000000000001705 ) ) ;
#63 = FACE_OUTER_BOUND ( 'NONE', #241, .T. ) ;
#64 = PERSON_AND_ORGANIZATION ( #123, #208 ) ;
#65 = CYLINDRICAL_SURFACE ( 'NONE', #202, 1.499999999999996891 ) ;
#66 = EDGE_CURVE ( 'NONE', #142, #142, #15, .T. ) ;
#67 = AXIS2_PLACEMENT_3D ( 'NONE', #176, #84, #222 ) ;
#68 = CARTESIAN_POINT ( 'NONE',  ( 2.444036937190193601E-13, 1.199999999999992628, 70.00000000000000000 ) ) ;
#69 = ORIENTED_EDGE ( 'NONE', *, *, #78, .F. ) ;
#70 = EDGE_LOOP ( 'NONE', ( #115 ) ) ;
#71 = CIRCLE ( 'NONE', #191, 1.954999999999990079 ) ;
#72 = PRODUCT_DEFINITION_FORMATION_WITH_SPECIFIED_SOURCE ( 'ANY', '', #37, .NOT_KNOWN. ) ;
#73 = CARTESIAN_POINT ( 'NONE',  ( 2.444036937190193601E-13, -8.572527594031472993E-15, 70.00000000000000000 ) ) ;
#74 = CC_DESIGN_PERSON_AND_ORGANIZATION_ASSIGNMENT ( #53, #141, ( #107 ) ) ;
#75 = CARTESIAN_POINT ( 'NONE',  ( 3.491481338843133355E-14, 1.954999999999988969, 10.00000000000000000 ) ) ;
#76 = CALENDAR_DATE ( 2021, 2, 12 ) ;
#77 = MECHANICAL_CONTEXT ( 'NONE', #108, 'mechanical' ) ;
#78 = EDGE_CURVE ( 'NONE', #11, #11, #217, .T. ) ;
#79 = DIRECTION ( 'NONE',  ( 0.0000000000000000000, 1.000000000000000000, 0.0000000000000000000 ) ) ;
#80 = CONICAL_SURFACE ( 'NONE', #116, 1.954999999999990079, 0.5235987755983008141 ) ;
#81 = APPROVAL_PERSON_ORGANIZATION ( #64, #1, #129 ) ;
#82 = DIRECTION ( 'NONE',  ( 4.275831445896958607E-31, 1.000000000000000000, 1.224646799147353207E-16 ) ) ;
#83 = DIRECTION ( 'NONE',  ( 0.0000000000000000000, 1.000000000000000000, 0.0000000000000000000 ) ) ;
#84 = DIRECTION ( 'NONE',  ( -3.491481338843133355E-15, 1.224646799147353207E-16, -1.000000000000000000 ) ) ;
#85 = EDGE_LOOP ( 'NONE', ( #127 ) ) ;
#86 = ORIENTED_EDGE ( 'NONE', *, *, #66, .F. ) ;
#87 = CARTESIAN_POINT ( 'NONE',  ( 2.433562493173664138E-13, -8.535788190057053710E-15, 69.70000000000001705 ) ) ;
#88 = FACE_BOUND ( 'NONE', #56, .T. ) ;
#89 = EDGE_LOOP ( 'NONE', ( #226 ) ) ;
#90 = EDGE_CURVE ( 'NONE', #43, #43, #3, .T. ) ;
#91 = CALENDAR_DATE ( 2021, 2, 12 ) ;
#92 = EDGE_LOOP ( 'NONE', ( #197 ) ) ;
#93 = PERSON_AND_ORGANIZATION ( #123, #208 ) ;
#94 = VERTEX_POINT ( 'NONE', #240 ) ;
#95 = SECURITY_CLASSIFICATION_LEVEL ( 'unclassified' ) ;
#96 = AXIS2_PLACEMENT_3D ( 'NONE', #255, #299, #156 ) ;
#97 = APPLICATION_PROTOCOL_DEFINITION ( 'international standard', 'config_control_design', 1994, #128 ) ;
#98 = COORDINATED_UNIVERSAL_TIME_OFFSET ( 1, 0, .AHEAD. ) ;
#99 = EDGE_CURVE ( 'NONE', #254, #254, #183, .T. ) ;
#100 = ADVANCED_FACE ( 'NONE', ( #49, #196 ), #65, .T. ) ;
#101 = DIRECTION ( 'NONE',  ( 0.0000000000000000000, 1.000000000000000000, 0.0000000000000000000 ) ) ;
#102 = APPROVAL_STATUS ( 'not_yet_approved' ) ;
#103 = DIRECTION ( 'NONE',  ( -3.491481338843133355E-15, 1.224646799147353207E-16, -1.000000000000000000 ) ) ;
#104 = CONICAL_SURFACE ( 'NONE', #229, 1.200000000000001510, 0.7853981633974566057 ) ;
#105 = CC_DESIGN_APPROVAL ( #187, ( #107 ) ) ;
#106 = AXIS2_PLACEMENT_3D ( 'NONE', #297, #181, #302 ) ;
#107 = SECURITY_CLASSIFICATION ( '', '', #95 ) ;
#108 = APPLICATION_CONTEXT ( 'configuration controlled 3d designs of mechanical parts and assemblies' ) ;
#109 = PERSON_AND_ORGANIZATION ( #123, #208 ) ;
#110 = ADVANCED_FACE ( 'NONE', ( #135, #118 ), #168, .T. ) ;
#111 = DIRECTION ( 'NONE',  ( 0.0000000000000000000, 1.000000000000000000, 0.0000000000000000000 ) ) ;
#112 = AXIS2_PLACEMENT_3D ( 'NONE', #247, #269, #55 ) ;
#113 = CC_DESIGN_APPROVAL ( #271, ( #72 ) ) ;
#114 = CARTESIAN_POINT ( 'NONE',  ( 0.0000000000000000000, 1.704999999999989191, 0.0000000000000000000 ) ) ;
#115 = ORIENTED_EDGE ( 'NONE', *, *, #117, .F. ) ;
#116 = AXIS2_PLACEMENT_3D ( 'NONE', #32, #120, #218 ) ;
#117 = EDGE_CURVE ( 'NONE', #251, #251, #234, .T. ) ;
#118 = FACE_OUTER_BOUND ( 'NONE', #155, .T. ) ;
#119 = DIRECTION ( 'NONE',  ( 0.0000000000000000000, 1.000000000000000000, 0.0000000000000000000 ) ) ;
#120 = DIRECTION ( 'NONE',  ( -3.491481338843133355E-15, 1.224646799147353207E-16, -1.000000000000000000 ) ) ;
#121 = FACE_OUTER_BOUND ( 'NONE', #12, .T. ) ;
#122 = CARTESIAN_POINT ( 'NONE',  ( 2.433562493173664138E-13, -8.535788190057053710E-15, 69.70000000000001705 ) ) ;
#123 = PERSON ( 'UNSPECIFIED', 'UNSPECIFIED', 'UNSPECIFIED', ('UNSPECIFIED'), ('UNSPECIFIED'), ('UNSPECIFIED') ) ;
#124 = CONICAL_SURFACE ( 'NONE', #28, 1.200000000000001510, 0.7853981633974566057 ) ;
#125 = CARTESIAN_POINT ( 'NONE',  ( 3.766639088644378676E-14, 1.499999999999991562, 10.78808311744383097 ) ) ;
#126 = PLANE ( 'NONE',  #261 ) ;
#127 = ORIENTED_EDGE ( 'NONE', *, *, #66, .T. ) ;
#128 = APPLICATION_CONTEXT ( 'configuration controlled 3d designs of mechanical parts and assemblies' ) ;
#129 = APPROVAL_ROLE ( '' ) ;
#130 = ADVANCED_FACE ( 'NONE', ( #206 ), #21, .F. ) ;
#131 = AXIS2_PLACEMENT_3D ( 'NONE', #51, #210, #6 ) ;
#132 = ORIENTED_EDGE ( 'NONE', *, *, #221, .F. ) ;
#133 = CYLINDRICAL_SURFACE ( 'NONE', #248, 1.499999999999996891 ) ;
#134 = UNCERTAINTY_MEASURE_WITH_UNIT (LENGTH_MEASURE( 1.000000000000000082E-05 ), #228, 'distance_accuracy_value', 'NONE');
#135 = FACE_BOUND ( 'NONE', #89, .T. ) ;
#136 = DIRECTION ( 'NONE',  ( -4.275831445896958607E-31, -1.000000000000000000, -1.224646799147353207E-16 ) ) ;
#137 = CIRCLE ( 'NONE', #57, 1.499999999999992895 ) ;
#138 = APPROVAL_PERSON_ORGANIZATION ( #295, #187, #178 ) ;
#139 = APPROVAL_STATUS ( 'not_yet_approved' ) ;
#140 = PERSON_AND_ORGANIZATION_ROLE ( 'creator' ) ;
#141 = PERSON_AND_ORGANIZATION_ROLE ( 'classification_officer' ) ;
#142 = VERTEX_POINT ( 'NONE', #68 ) ;
#143 = PRODUCT_DEFINITION_SHAPE ( 'NONE', 'NONE',  #169 ) ;
#144 = EDGE_LOOP ( 'NONE', ( #86 ) ) ;
#145 = CALENDAR_DATE ( 2021, 2, 12 ) ;
#146 = EDGE_LOOP ( 'NONE', ( #170 ) ) ;
#147 = CARTESIAN_POINT ( 'NONE',  ( 8.728703347107825500E-16, -3.061616997868380553E-17, 0.2499999999999997780 ) ) ;
#148 = PERSON_AND_ORGANIZATION_ROLE ( 'design_owner' ) ;
#149 = ORIENTED_EDGE ( 'NONE', *, *, #13, .F. ) ;
#150 = CARTESIAN_POINT ( 'NONE',  ( 3.491481338843133355E-14, -1.224646799147353256E-15, 10.00000000000000000 ) ) ;
#151 = ORIENTED_EDGE ( 'NONE', *, *, #294, .T. ) ;
#152 = CC_DESIGN_PERSON_AND_ORGANIZATION_ASSIGNMENT ( #250, #148, ( #37 ) ) ;
#153 = FACE_BOUND ( 'NONE', #165, .T. ) ;
#154 = SHAPE_DEFINITION_REPRESENTATION ( #143, #256 ) ;
#155 = EDGE_LOOP ( 'NONE', ( #274 ) ) ;
#156 = DIRECTION ( 'NONE',  ( 4.275831445896958607E-31, 1.000000000000000000, 1.224646799147353207E-16 ) ) ;
#157 = AXIS2_PLACEMENT_3D ( 'NONE', #87, #282, #39 ) ;
#158 = APPROVAL_DATE_TIME ( #278, #187 ) ;
#159 = ADVANCED_FACE ( 'NONE', ( #177 ), #126, .T. ) ;
#160 = AXIS2_PLACEMENT_3D ( 'NONE', #211, #263, #288 ) ;
#161 = ADVANCED_FACE ( 'NONE', ( #186, #63 ), #80, .T. ) ;
#162 =( NAMED_UNIT ( * ) PLANE_ANGLE_UNIT ( ) SI_UNIT ( $, .RADIAN. ) );
#163 = FACE_OUTER_BOUND ( 'NONE', #246, .T. ) ;
#164 = COORDINATED_UNIVERSAL_TIME_OFFSET ( 1, 0, .AHEAD. ) ;
#165 = EDGE_LOOP ( 'NONE', ( #69 ) ) ;
#166 = DATE_AND_TIME ( #268, #18 ) ;
#167 = FACE_BOUND ( 'NONE', #85, .T. ) ;
#168 = CONICAL_SURFACE ( 'NONE', #35, 1.954999999999990079, 0.5235987755983008141 ) ;
#169 = PRODUCT_DEFINITION ( 'UNKNOWN', '', #72, #224 ) ;
#170 = ORIENTED_EDGE ( 'NONE', *, *, #294, .F. ) ;
#171 = EDGE_LOOP ( 'NONE', ( #285 ) ) ;
#172 = ORIENTED_EDGE ( 'NONE', *, *, #90, .F. ) ;
#173 = APPROVAL_PERSON_ORGANIZATION ( #54, #271, #233 ) ;
#174 = EDGE_LOOP ( 'NONE', ( #237 ) ) ;
#175 = DIRECTION ( 'NONE',  ( -3.491481338843133355E-15, 1.224646799147353207E-16, -1.000000000000000000 ) ) ;
#176 = CARTESIAN_POINT ( 'NONE',  ( 0.0000000000000000000, 0.0000000000000000000, 0.0000000000000000000 ) ) ;
#177 = FACE_OUTER_BOUND ( 'NONE', #171, .T. ) ;
#178 = APPROVAL_ROLE ( '' ) ;
#179 = FACE_OUTER_BOUND ( 'NONE', #174, .T. ) ;
#180 = DIRECTION ( 'NONE',  ( -4.275831445896958607E-31, -1.000000000000000000, -1.224646799147353207E-16 ) ) ;
#181 = DIRECTION ( 'NONE',  ( -3.491481338843133355E-15, 1.224646799147353207E-16, -1.000000000000000000 ) ) ;
#182 = DATE_TIME_ROLE ( 'classification_date' ) ;
#183 = CIRCLE ( 'NONE', #160, 1.954999999999990079 ) ;
#184 = LOCAL_TIME ( 10, 36, 11.00000000000000000, #219 ) ;
#185 = DIRECTION ( 'NONE',  ( 3.491481338843133355E-15, -1.224646799147353207E-16, 1.000000000000000000 ) ) ;
#186 = FACE_BOUND ( 'NONE', #92, .T. ) ;
#187 = APPROVAL ( #298, 'UNSPECIFIED' ) ;
#188 = CLOSED_SHELL ( 'NONE', ( #230, #110, #33, #291, #45 ) ) ;
#189 = DIRECTION ( 'NONE',  ( -3.491481338843133355E-15, 1.224646799147353207E-16, -1.000000000000000000 ) ) ;
#190 = DIRECTION ( 'NONE',  ( -3.491481338843133355E-15, 1.224646799147353207E-16, -1.000000000000000000 ) ) ;
#191 = AXIS2_PLACEMENT_3D ( 'NONE', #245, #175, #275 ) ;
#192 = DIRECTION ( 'NONE',  ( -3.491481338843133355E-15, 1.224646799147353207E-16, -1.000000000000000000 ) ) ;
#193 = CIRCLE ( 'NONE', #157, 1.500000000000001110 ) ;
#194 = EDGE_CURVE ( 'NONE', #277, #277, #137, .T. ) ;
#195 = EDGE_LOOP ( 'NONE', ( #10 ) ) ;
#196 = FACE_OUTER_BOUND ( 'NONE', #215, .T. ) ;
#197 = ORIENTED_EDGE ( 'NONE', *, *, #48, .T. ) ;
#198 = PERSON_AND_ORGANIZATION_ROLE ( 'design_supplier' ) ;
#199 = ORIENTED_EDGE ( 'NONE', *, *, #221, .T. ) ;
#200 = EDGE_LOOP ( 'NONE', ( #220 ) ) ;
#201 = EDGE_LOOP ( 'NONE', ( #172 ) ) ;
#202 = AXIS2_PLACEMENT_3D ( 'NONE', #26, #258, #46 ) ;
#203 = FACE_OUTER_BOUND ( 'NONE', #17, .T. ) ;
#204 = AXIS2_PLACEMENT_3D ( 'NONE', #50, #232, #111 ) ;
#205 = CARTESIAN_POINT ( 'NONE',  ( 0.0000000000000000000, 0.0000000000000000000, 0.0000000000000000000 ) ) ;
#206 = FACE_OUTER_BOUND ( 'NONE', #146, .T. ) ;
#207 = CARTESIAN_POINT ( 'NONE',  ( 3.491481338843133355E-14, 1.466015187551956534E-32, 10.00000000000000000 ) ) ;
#208 = ORGANIZATION ( 'UNSPECIFIED', 'UNSPECIFIED', '' ) ;
#209 = FACE_OUTER_BOUND ( 'NONE', #144, .T. ) ;
#210 = DIRECTION ( 'NONE',  ( -3.491481338843133355E-15, 1.224646799147353207E-16, -1.000000000000000000 ) ) ;
#211 = CARTESIAN_POINT ( 'NONE',  ( 3.491481338843133355E-14, -1.224646799147353256E-15, 10.00000000000000000 ) ) ;
#212 = DATE_TIME_ROLE ( 'creation_date' ) ;
#213 = VERTEX_POINT ( 'NONE', #75 ) ;
#214 = CC_DESIGN_SECURITY_CLASSIFICATION ( #107, ( #72 ) ) ;
#215 = EDGE_LOOP ( 'NONE', ( #199 ) ) ;
#216 = DIRECTION ( 'NONE',  ( -3.491481338843133355E-15, 1.224646799147353207E-16, -1.000000000000000000 ) ) ;
#217 = CIRCLE ( 'NONE', #112, 1.704999999999989191 ) ;
#218 = DIRECTION ( 'NONE',  ( 0.0000000000000000000, 1.000000000000000000, 0.0000000000000000000 ) ) ;
#219 = COORDINATED_UNIVERSAL_TIME_OFFSET ( 1, 0, .AHEAD. ) ;
#220 = ORIENTED_EDGE ( 'NONE', *, *, #99, .T. ) ;
#221 = EDGE_CURVE ( 'NONE', #42, #42, #193, .T. ) ;
#222 = DIRECTION ( 'NONE',  ( 4.275831445896958607E-31, 1.000000000000000000, 1.224646799147353454E-16 ) ) ;
#223 = DIRECTION ( 'NONE',  ( 0.0000000000000000000, 1.000000000000000000, 0.0000000000000000000 ) ) ;
#224 = DESIGN_CONTEXT ( 'detailed design', #128, 'design' ) ;
#225 = LOCAL_TIME ( 10, 36, 11.00000000000000000, #266 ) ;
#226 = ORIENTED_EDGE ( 'NONE', *, *, #194, .T. ) ;
#227 = CC_DESIGN_PERSON_AND_ORGANIZATION_ASSIGNMENT ( #93, #198, ( #72 ) ) ;
#228 =( LENGTH_UNIT ( ) NAMED_UNIT ( * ) SI_UNIT ( .MILLI., .METRE. ) );
#229 = AXIS2_PLACEMENT_3D ( 'NONE', #73, #242, #119 ) ;
#230 = ADVANCED_FACE ( 'NONE', ( #20 ), #236, .F. ) ;
#231 = DIRECTION ( 'NONE',  ( 3.940521625344748112E-31, 1.000000000000000000, 1.109158232721749303E-16 ) ) ;
#232 = DIRECTION ( 'NONE',  ( -3.491481338843133355E-15, 1.224646799147353207E-16, -1.000000000000000000 ) ) ;
#233 = APPROVAL_ROLE ( '' ) ;
#234 = CIRCLE ( 'NONE', #47, 1.500000000000001110 ) ;
#235 = CC_DESIGN_DATE_AND_TIME_ASSIGNMENT ( #166, #212, ( #169 ) ) ;
#236 = PLANE ( 'NONE',  #280 ) ;
#237 = ORIENTED_EDGE ( 'NONE', *, *, #194, .F. ) ;
#238 = CALENDAR_DATE ( 2021, 2, 12 ) ;
#239 = ORIENTED_EDGE ( 'NONE', *, *, #117, .T. ) ;
#240 = CARTESIAN_POINT ( 'NONE',  ( 3.766639088644378676E-14, 1.499999999999991562, 10.78808311744383097 ) ) ;
#241 = EDGE_LOOP ( 'NONE', ( #149 ) ) ;
#242 = DIRECTION ( 'NONE',  ( -3.491481338843133355E-15, 1.224646799147353207E-16, -1.000000000000000000 ) ) ;
#243 = LOCAL_TIME ( 10, 36, 11.00000000000000000, #164 ) ;
#244 = CC_DESIGN_PERSON_AND_ORGANIZATION_ASSIGNMENT ( #31, #30, ( #72 ) ) ;
#245 = CARTESIAN_POINT ( 'NONE',  ( 3.491481338843133355E-14, -1.224646799147353256E-15, 10.00000000000000000 ) ) ;
#246 = EDGE_LOOP ( 'NONE', ( #132 ) ) ;
#247 = CARTESIAN_POINT ( 'NONE',  ( -7.290292615254268278E-31, 2.557090429438451402E-32, -2.088022792546224090E-16 ) ) ;
#248 = AXIS2_PLACEMENT_3D ( 'NONE', #257, #216, #61 ) ;
#249 = CARTESIAN_POINT ( 'NONE',  ( -7.290292615254268278E-31, 2.557090429438451402E-32, -2.088022792546224090E-16 ) ) ;
#250 = PERSON_AND_ORGANIZATION ( #123, #208 ) ;
#251 = VERTEX_POINT ( 'NONE', #303 ) ;
#252 = CLOSED_SHELL ( 'NONE', ( #161, #264, #276, #159, #130, #8, #100 ) ) ;
#253 = AXIS2_PLACEMENT_3D ( 'NONE', #249, #289, #136 ) ;
#254 = VERTEX_POINT ( 'NONE', #38 ) ;
#255 = CARTESIAN_POINT ( 'NONE',  ( 2.444036937190193601E-13, 8.998558695971026591E-33, 70.00000000000000000 ) ) ;
#256 = ADVANCED_BREP_SHAPE_REPRESENTATION ( '321617', ( #44, #292, #52 ), #290 ) ;
#257 = CARTESIAN_POINT ( 'NONE',  ( 0.0000000000000000000, 0.0000000000000000000, 0.0000000000000000000 ) ) ;
#258 = DIRECTION ( 'NONE',  ( -3.491481338843133355E-15, 1.224646799147353207E-16, -1.000000000000000000 ) ) ;
#259 = CC_DESIGN_DATE_AND_TIME_ASSIGNMENT ( #34, #182, ( #107 ) ) ;
#260 = DATE_AND_TIME ( #91, #243 ) ;
#261 = AXIS2_PLACEMENT_3D ( 'NONE', #60, #103, #82 ) ;
#262 = CARTESIAN_POINT ( 'NONE',  ( 2.444036937190193601E-13, -8.572527594031472993E-15, 70.00000000000000000 ) ) ;
#263 = DIRECTION ( 'NONE',  ( -3.491481338843133355E-15, 1.224646799147353207E-16, -1.000000000000000000 ) ) ;
#264 = ADVANCED_FACE ( 'NONE', ( #300, #281 ), #5, .T. ) ;
#265 = APPROVAL_DATE_TIME ( #260, #1 ) ;
#266 = COORDINATED_UNIVERSAL_TIME_OFFSET ( 1, 0, .AHEAD. ) ;
#267 = AXIS2_PLACEMENT_3D ( 'NONE', #262, #16, #79 ) ;
#268 = CALENDAR_DATE ( 2021, 2, 12 ) ;
#269 = DIRECTION ( 'NONE',  ( -3.491481338843133355E-15, 1.224646799147353207E-16, -1.000000000000000000 ) ) ;
#270 = ORIENTED_EDGE ( 'NONE', *, *, #90, .T. ) ;
#271 = APPROVAL ( #139, 'UNSPECIFIED' ) ;
#272 = CIRCLE ( 'NONE', #131, 1.499999999999992895 ) ;
#273 = DIRECTION ( 'NONE',  ( 0.0000000000000000000, 0.0000000000000000000, 1.000000000000000000 ) ) ;
#274 = ORIENTED_EDGE ( 'NONE', *, *, #99, .F. ) ;
#275 = DIRECTION ( 'NONE',  ( 0.0000000000000000000, 1.000000000000000000, 0.0000000000000000000 ) ) ;
#276 = ADVANCED_FACE ( 'NONE', ( #203, #153 ), #23, .T. ) ;
#277 = VERTEX_POINT ( 'NONE', #125 ) ;
#278 = DATE_AND_TIME ( #76, #184 ) ;
#279 =( NAMED_UNIT ( * ) SI_UNIT ( $, .STERADIAN. ) SOLID_ANGLE_UNIT ( ) );
#280 = AXIS2_PLACEMENT_3D ( 'NONE', #207, #185, #180 ) ;
#281 = FACE_OUTER_BOUND ( 'NONE', #201, .T. ) ;
#282 = DIRECTION ( 'NONE',  ( -3.491481338843133355E-15, 1.224646799147353207E-16, -1.000000000000000000 ) ) ;
#283 = CARTESIAN_POINT ( 'NONE',  ( 2.444036937190193601E-13, -8.572527594031472993E-15, 70.00000000000000000 ) ) ;
#284 = DIRECTION ( 'NONE',  ( 0.0000000000000000000, 1.000000000000000000, 0.0000000000000000000 ) ) ;
#285 = ORIENTED_EDGE ( 'NONE', *, *, #78, .T. ) ;
#286 = FACE_OUTER_BOUND ( 'NONE', #70, .T. ) ;
#287 = COORDINATED_UNIVERSAL_TIME_OFFSET ( 1, 0, .AHEAD. ) ;
#288 = DIRECTION ( 'NONE',  ( 0.0000000000000000000, 1.000000000000000000, 0.0000000000000000000 ) ) ;
#289 = DIRECTION ( 'NONE',  ( 3.491481338843133355E-15, -1.224646799147353207E-16, 1.000000000000000000 ) ) ;
#290 =( GEOMETRIC_REPRESENTATION_CONTEXT ( 3 ) GLOBAL_UNCERTAINTY_ASSIGNED_CONTEXT ( ( #134 ) ) GLOBAL_UNIT_ASSIGNED_CONTEXT ( ( #228, #162, #279 ) ) REPRESENTATION_CONTEXT ( 'NONE', 'WORKASPACE' ) );
#291 = ADVANCED_FACE ( 'NONE', ( #286, #167 ), #124, .T. ) ;
#292 = MANIFOLD_SOLID_BREP ( 'Corps-Déplacer/Copier1[2]', #252 ) ;
#293 = AXIS2_PLACEMENT_3D ( 'NONE', #147, #189, #231 ) ;
#294 = EDGE_CURVE ( 'NONE', #59, #59, #41, .T. ) ;
#295 = PERSON_AND_ORGANIZATION ( #123, #208 ) ;
#296 = DIRECTION ( 'NONE',  ( 1.000000000000000000, 0.0000000000000000000, 0.0000000000000000000 ) ) ;
#297 = CARTESIAN_POINT ( 'NONE',  ( 2.444036937190193601E-13, -8.572527594031472993E-15, 70.00000000000000000 ) ) ;
#298 = APPROVAL_STATUS ( 'not_yet_approved' ) ;
#299 = DIRECTION ( 'NONE',  ( -3.491481338843133355E-15, 1.224646799147353207E-16, -1.000000000000000000 ) ) ;
#300 = FACE_OUTER_BOUND ( 'NONE', #195, .T. ) ;
#301 = CARTESIAN_POINT ( 'NONE',  ( 8.728703347107833388E-16, 1.954999999999990079, 0.2500000000000000000 ) ) ;
#302 = DIRECTION ( 'NONE',  ( 4.275831445896958607E-31, 1.000000000000000000, 1.224646799147353207E-16 ) ) ;
#303 = CARTESIAN_POINT ( 'NONE',  ( 2.433562493173664138E-13, 1.499999999999992673, 69.70000000000001705 ) ) ;
ENDSEC;
END-ISO-10303-21;
