ISO-10303-21;
HEADER;
FILE_DESCRIPTION (( 'STEP AP203' ),
    '1' );
FILE_NAME ('321616.step',
    '2021-12-02T09:36:10',
    ( '' ),
    ( '' ),
    'SwSTEP 2.0',
    'SolidWorks 2019',
    '' );
FILE_SCHEMA (( 'CONFIG_CONTROL_DESIGN' ));
ENDSEC;

DATA;
#1 = CIRCLE ( 'NONE', #215, 1.499999999999992895 ) ;
#2 = APPROVAL_ROLE ( '' ) ;
#3 = CC_DESIGN_PERSON_AND_ORGANIZATION_ASSIGNMENT ( #186, #111, ( #188 ) ) ;
#4 = COORDINATED_UNIVERSAL_TIME_OFFSET ( 1, 0, .AHEAD. ) ;
#5 = ORIENTED_EDGE ( 'NONE', *, *, #43, .F. ) ;
#6 = DIRECTION ( 'NONE',  ( -3.491481338843133355E-15, 1.224646799147353207E-16, -1.000000000000000000 ) ) ;
#7 = EDGE_LOOP ( 'NONE', ( #262 ) ) ;
#8 = ADVANCED_BREP_SHAPE_REPRESENTATION ( '321616', ( #226, #20, #39 ), #161 ) ;
#9 = FACE_OUTER_BOUND ( 'NONE', #194, .T. ) ;
#10 = CALENDAR_DATE ( 2021, 2, 12 ) ;
#11 = CONICAL_SURFACE ( 'NONE', #41, 1.200000000000001510, 0.7853981633974566057 ) ;
#12 = APPLICATION_PROTOCOL_DEFINITION ( 'international standard', 'config_control_design', 1994, #46 ) ;
#13 = ORIENTED_EDGE ( 'NONE', *, *, #81, .T. ) ;
#14 = CARTESIAN_POINT ( 'NONE',  ( -7.268913458024783563E-31, 2.549591630525141512E-32, -2.081899558550487214E-16 ) ) ;
#15 = DIRECTION ( 'NONE',  ( -3.491481338843133355E-15, 1.224646799147353207E-16, -1.000000000000000000 ) ) ;
#16 = ADVANCED_FACE ( 'NONE', ( #62, #224 ), #114, .T. ) ;
#17 = CIRCLE ( 'NONE', #156, 1.500000000000001110 ) ;
#18 = FACE_OUTER_BOUND ( 'NONE', #73, .T. ) ;
#19 = FACE_OUTER_BOUND ( 'NONE', #203, .T. ) ;
#20 = MANIFOLD_SOLID_BREP ( 'Corps-Déplacer/Copier1[2]', #166 ) ;
#21 = PERSON_AND_ORGANIZATION_ROLE ( 'creator' ) ;
#22 = DIRECTION ( 'NONE',  ( 0.0000000000000000000, 0.0000000000000000000, 1.000000000000000000 ) ) ;
#23 = CARTESIAN_POINT ( 'NONE',  ( 0.0000000000000000000, 0.0000000000000000000, 0.0000000000000000000 ) ) ;
#24 = ADVANCED_FACE ( 'NONE', ( #36 ), #58, .T. ) ;
#25 = AXIS2_PLACEMENT_3D ( 'NONE', #155, #57, #275 ) ;
#26 = APPROVAL_STATUS ( 'not_yet_approved' ) ;
#27 = DIRECTION ( 'NONE',  ( -3.491481338843133355E-15, 1.224646799147353207E-16, -1.000000000000000000 ) ) ;
#28 = ORIENTED_EDGE ( 'NONE', *, *, #64, .F. ) ;
#29 = ORIENTED_EDGE ( 'NONE', *, *, #38, .F. ) ;
#30 = ORIENTED_EDGE ( 'NONE', *, *, #43, .T. ) ;
#31 = EDGE_CURVE ( 'NONE', #72, #72, #1, .T. ) ;
#32 = ORIENTED_EDGE ( 'NONE', *, *, #31, .F. ) ;
#33 = AXIS2_PLACEMENT_3D ( 'NONE', #100, #254, #37 ) ;
#34 = PRODUCT_DEFINITION_FORMATION_WITH_SPECIFIED_SOURCE ( 'ANY', '', #188, .NOT_KNOWN. ) ;
#35 = DIRECTION ( 'NONE',  ( -3.491481338843133355E-15, 1.224646799147353207E-16, -1.000000000000000000 ) ) ;
#36 = FACE_OUTER_BOUND ( 'NONE', #139, .T. ) ;
#37 = DIRECTION ( 'NONE',  ( 3.950625526948196230E-31, 1.000000000000000000, 1.112002228190266622E-16 ) ) ;
#38 = EDGE_CURVE ( 'NONE', #120, #120, #291, .T. ) ;
#39 = AXIS2_PLACEMENT_3D ( 'NONE', #236, #22, #61 ) ;
#40 = PERSON_AND_ORGANIZATION ( #190, #118 ) ;
#41 = AXIS2_PLACEMENT_3D ( 'NONE', #89, #196, #56 ) ;
#42 = COORDINATED_UNIVERSAL_TIME_OFFSET ( 1, 0, .AHEAD. ) ;
#43 = EDGE_CURVE ( 'NONE', #248, #248, #200, .T. ) ;
#44 = CALENDAR_DATE ( 2021, 2, 12 ) ;
#45 = ORIENTED_EDGE ( 'NONE', *, *, #81, .F. ) ;
#46 = APPLICATION_CONTEXT ( 'configuration controlled 3d designs of mechanical parts and assemblies' ) ;
#47 = APPROVAL_PERSON_ORGANIZATION ( #252, #90, #265 ) ;
#48 = EDGE_LOOP ( 'NONE', ( #52 ) ) ;
#49 = EDGE_LOOP ( 'NONE', ( #13 ) ) ;
#50 = ADVANCED_FACE ( 'NONE', ( #18, #211 ), #106, .T. ) ;
#51 = COORDINATED_UNIVERSAL_TIME_OFFSET ( 1, 0, .AHEAD. ) ;
#52 = ORIENTED_EDGE ( 'NONE', *, *, #276, .T. ) ;
#53 = DIRECTION ( 'NONE',  ( 0.0000000000000000000, 1.000000000000000000, 0.0000000000000000000 ) ) ;
#54 = AXIS2_PLACEMENT_3D ( 'NONE', #103, #207, #78 ) ;
#55 = LOCAL_TIME ( 10, 36, 10.00000000000000000, #42 ) ;
#56 = DIRECTION ( 'NONE',  ( 0.0000000000000000000, 1.000000000000000000, 0.0000000000000000000 ) ) ;
#57 = DIRECTION ( 'NONE',  ( -3.491481338843133355E-15, 1.224646799147353207E-16, -1.000000000000000000 ) ) ;
#58 = PLANE ( 'NONE',  #125 ) ;
#59 = AXIS2_PLACEMENT_3D ( 'NONE', #301, #122, #126 ) ;
#60 = AXIS2_PLACEMENT_3D ( 'NONE', #202, #241, #197 ) ;
#61 = DIRECTION ( 'NONE',  ( 1.000000000000000000, 0.0000000000000000000, 0.0000000000000000000 ) ) ;
#62 = FACE_OUTER_BOUND ( 'NONE', #7, .T. ) ;
#63 = VERTEX_POINT ( 'NONE', #213 ) ;
#64 = EDGE_CURVE ( 'NONE', #183, #183, #233, .T. ) ;
#65 = DIRECTION ( 'NONE',  ( -3.491481338843133355E-15, 1.224646799147353207E-16, -1.000000000000000000 ) ) ;
#66 = DATE_AND_TIME ( #191, #55 ) ;
#67 = CC_DESIGN_PERSON_AND_ORGANIZATION_ASSIGNMENT ( #229, #21, ( #34 ) ) ;
#68 = AXIS2_PLACEMENT_3D ( 'NONE', #14, #209, #82 ) ;
#69 = EDGE_LOOP ( 'NONE', ( #28 ) ) ;
#70 = FACE_BOUND ( 'NONE', #97, .T. ) ;
#71 = CARTESIAN_POINT ( 'NONE',  ( 2.444036937190193601E-13, -8.572527594031472993E-15, 70.00000000000000000 ) ) ;
#72 = VERTEX_POINT ( 'NONE', #246 ) ;
#73 = EDGE_LOOP ( 'NONE', ( #32 ) ) ;
#74 = ORIENTED_EDGE ( 'NONE', *, *, #77, .T. ) ;
#75 = CLOSED_SHELL ( 'NONE', ( #294, #280, #50, #235, #242 ) ) ;
#76 = DIRECTION ( 'NONE',  ( 4.275831445896958607E-31, 1.000000000000000000, 1.224646799147353454E-16 ) ) ;
#77 = EDGE_CURVE ( 'NONE', #123, #123, #237, .T. ) ;
#78 = DIRECTION ( 'NONE',  ( 0.0000000000000000000, 1.000000000000000000, 0.0000000000000000000 ) ) ;
#79 = APPROVAL_STATUS ( 'not_yet_approved' ) ;
#80 = CC_DESIGN_PERSON_AND_ORGANIZATION_ASSIGNMENT ( #260, #217, ( #297 ) ) ;
#81 = EDGE_CURVE ( 'NONE', #256, #256, #302, .T. ) ;
#82 = DIRECTION ( 'NONE',  ( -4.275831445896957731E-31, -1.000000000000000000, -1.224646799147353207E-16 ) ) ;
#83 = PRODUCT_DEFINITION_SHAPE ( 'NONE', 'NONE',  #208 ) ;
#84 = DATE_AND_TIME ( #206, #127 ) ;
#85 = CARTESIAN_POINT ( 'NONE',  ( 3.491481338843133355E-14, 1.462265788095301588E-32, 10.00000000000000000 ) ) ;
#86 = DIRECTION ( 'NONE',  ( -3.491481338843133355E-15, 1.224646799147353207E-16, -1.000000000000000000 ) ) ;
#87 = DIRECTION ( 'NONE',  ( -4.275831445896958607E-31, -1.000000000000000000, -1.224646799147353207E-16 ) ) ;
#88 = APPROVAL_PERSON_ORGANIZATION ( #40, #157, #132 ) ;
#89 = CARTESIAN_POINT ( 'NONE',  ( 2.444036937190193601E-13, -8.572527594031472993E-15, 70.00000000000000000 ) ) ;
#90 = APPROVAL ( #79, 'UNSPECIFIED' ) ;
#91 = DIRECTION ( 'NONE',  ( 0.0000000000000000000, 1.000000000000000000, 0.0000000000000000000 ) ) ;
#92 = EDGE_LOOP ( 'NONE', ( #163 ) ) ;
#93 = ORIENTED_EDGE ( 'NONE', *, *, #121, .T. ) ;
#94 = AXIS2_PLACEMENT_3D ( 'NONE', #299, #181, #184 ) ;
#95 = LOCAL_TIME ( 10, 36, 10.00000000000000000, #51 ) ;
#96 = EDGE_LOOP ( 'NONE', ( #5 ) ) ;
#97 = EDGE_LOOP ( 'NONE', ( #219 ) ) ;
#98 = CYLINDRICAL_SURFACE ( 'NONE', #292, 1.499999999999996891 ) ;
#99 = APPLICATION_PROTOCOL_DEFINITION ( 'international standard', 'config_control_design', 1994, #281 ) ;
#100 = CARTESIAN_POINT ( 'NONE',  ( 8.728703347107825500E-16, -3.061616997868380553E-17, 0.2499999999999997780 ) ) ;
#101 = PRODUCT_RELATED_PRODUCT_CATEGORY ( 'detail', '', ( #188 ) ) ;
#102 = ADVANCED_FACE ( 'NONE', ( #272, #228 ), #192, .T. ) ;
#103 = CARTESIAN_POINT ( 'NONE',  ( 3.491481338843133355E-14, -1.224646799147353256E-15, 10.00000000000000000 ) ) ;
#104 = CONICAL_SURFACE ( 'NONE', #167, 1.949999999999989964, 0.5235987755983001479 ) ;
#105 = APPROVAL_DATE_TIME ( #84, #284 ) ;
#106 = CYLINDRICAL_SURFACE ( 'NONE', #94, 1.499999999999996891 ) ;
#107 = DIRECTION ( 'NONE',  ( -3.491481338843133355E-15, 1.224646799147353207E-16, -1.000000000000000000 ) ) ;
#108 = AXIS2_PLACEMENT_3D ( 'NONE', #178, #15, #152 ) ;
#109 = AXIS2_PLACEMENT_3D ( 'NONE', #71, #27, #201 ) ;
#110 = AXIS2_PLACEMENT_3D ( 'NONE', #85, #160, #87 ) ;
#111 = PERSON_AND_ORGANIZATION_ROLE ( 'design_owner' ) ;
#112 = ADVANCED_FACE ( 'NONE', ( #19, #158 ), #247, .T. ) ;
#113 = EDGE_LOOP ( 'NONE', ( #45 ) ) ;
#114 = CONICAL_SURFACE ( 'NONE', #68, 1.699999999999989075, 0.7853981633974500554 ) ;
#115 = EDGE_LOOP ( 'NONE', ( #30 ) ) ;
#116 = CARTESIAN_POINT ( 'NONE',  ( 3.763615377108102434E-14, -1.320098570632594023E-15, 10.77942286340598699 ) ) ;
#117 = CC_DESIGN_PERSON_AND_ORGANIZATION_ASSIGNMENT ( #290, #261, ( #208 ) ) ;
#118 = ORGANIZATION ( 'UNSPECIFIED', 'UNSPECIFIED', '' ) ;
#119 = DATE_AND_TIME ( #10, #212 ) ;
#120 = VERTEX_POINT ( 'NONE', #270 ) ;
#121 = EDGE_CURVE ( 'NONE', #63, #63, #133, .T. ) ;
#122 = DIRECTION ( 'NONE',  ( -3.491481338843133355E-15, 1.224646799147353207E-16, -1.000000000000000000 ) ) ;
#123 = VERTEX_POINT ( 'NONE', #131 ) ;
#124 =( NAMED_UNIT ( * ) SI_UNIT ( $, .STERADIAN. ) SOLID_ANGLE_UNIT ( ) );
#125 = AXIS2_PLACEMENT_3D ( 'NONE', #253, #107, #175 ) ;
#126 = DIRECTION ( 'NONE',  ( 0.0000000000000000000, 1.000000000000000000, 0.0000000000000000000 ) ) ;
#127 = LOCAL_TIME ( 10, 36, 10.00000000000000000, #149 ) ;
#128 = FACE_OUTER_BOUND ( 'NONE', #96, .T. ) ;
#129 = CIRCLE ( 'NONE', #286, 1.499999999999992895 ) ;
#130 = CARTESIAN_POINT ( 'NONE',  ( 2.433562493173664138E-13, -8.535788190057053710E-15, 69.70000000000001705 ) ) ;
#131 = CARTESIAN_POINT ( 'NONE',  ( 2.444036937190193601E-13, 1.199999999999992628, 70.00000000000000000 ) ) ;
#132 = APPROVAL_ROLE ( '' ) ;
#133 = CIRCLE ( 'NONE', #108, 1.949999999999989964 ) ;
#134 = EDGE_LOOP ( 'NONE', ( #74 ) ) ;
#135 = AXIS2_PLACEMENT_3D ( 'NONE', #266, #86, #231 ) ;
#136 = FACE_OUTER_BOUND ( 'NONE', #49, .T. ) ;
#137 = ORIENTED_EDGE ( 'NONE', *, *, #271, .T. ) ;
#138 = DIRECTION ( 'NONE',  ( 0.0000000000000000000, 1.000000000000000000, 0.0000000000000000000 ) ) ;
#139 = EDGE_LOOP ( 'NONE', ( #137 ) ) ;
#140 = FACE_OUTER_BOUND ( 'NONE', #171, .T. ) ;
#141 = CALENDAR_DATE ( 2021, 2, 12 ) ;
#142 = AXIS2_PLACEMENT_3D ( 'NONE', #204, #295, #298 ) ;
#143 = ORIENTED_EDGE ( 'NONE', *, *, #250, .F. ) ;
#144 = FACE_BOUND ( 'NONE', #134, .T. ) ;
#145 = APPROVAL_DATE_TIME ( #119, #157 ) ;
#146 =( NAMED_UNIT ( * ) PLANE_ANGLE_UNIT ( ) SI_UNIT ( $, .RADIAN. ) );
#147 = VERTEX_POINT ( 'NONE', #288 ) ;
#148 = DIRECTION ( 'NONE',  ( -3.491481338843133355E-15, 1.224646799147353207E-16, -1.000000000000000000 ) ) ;
#149 = COORDINATED_UNIVERSAL_TIME_OFFSET ( 1, 0, .AHEAD. ) ;
#150 = DIRECTION ( 'NONE',  ( 0.0000000000000000000, 1.000000000000000000, 0.0000000000000000000 ) ) ;
#151 = APPROVAL_PERSON_ORGANIZATION ( #227, #284, #2 ) ;
#152 = DIRECTION ( 'NONE',  ( 0.0000000000000000000, 1.000000000000000000, 0.0000000000000000000 ) ) ;
#153 = SECURITY_CLASSIFICATION_LEVEL ( 'unclassified' ) ;
#154 = UNCERTAINTY_MEASURE_WITH_UNIT (LENGTH_MEASURE( 1.000000000000000082E-05 ), #169, 'distance_accuracy_value', 'NONE');
#155 = CARTESIAN_POINT ( 'NONE',  ( 2.444036937190193601E-13, -8.572527594031472993E-15, 70.00000000000000000 ) ) ;
#156 = AXIS2_PLACEMENT_3D ( 'NONE', #130, #198, #91 ) ;
#157 = APPROVAL ( #26, 'UNSPECIFIED' ) ;
#158 = FACE_OUTER_BOUND ( 'NONE', #69, .T. ) ;
#159 = CC_DESIGN_DATE_AND_TIME_ASSIGNMENT ( #210, #187, ( #297 ) ) ;
#160 = DIRECTION ( 'NONE',  ( 3.491481338843133355E-15, -1.224646799147353207E-16, 1.000000000000000000 ) ) ;
#161 =( GEOMETRIC_REPRESENTATION_CONTEXT ( 3 ) GLOBAL_UNCERTAINTY_ASSIGNED_CONTEXT ( ( #154 ) ) GLOBAL_UNIT_ASSIGNED_CONTEXT ( ( #169, #146, #124 ) ) REPRESENTATION_CONTEXT ( 'NONE', 'WORKASPACE' ) );
#162 = VERTEX_POINT ( 'NONE', #174 ) ;
#163 = ORIENTED_EDGE ( 'NONE', *, *, #38, .T. ) ;
#164 = CARTESIAN_POINT ( 'NONE',  ( 3.491481338843133355E-14, -1.224646799147353256E-15, 10.00000000000000000 ) ) ;
#165 = EDGE_LOOP ( 'NONE', ( #267 ) ) ;
#166 = CLOSED_SHELL ( 'NONE', ( #102, #112, #16, #24, #285, #205, #221 ) ) ;
#167 = AXIS2_PLACEMENT_3D ( 'NONE', #164, #6, #138 ) ;
#168 = CC_DESIGN_PERSON_AND_ORGANIZATION_ASSIGNMENT ( #300, #255, ( #34 ) ) ;
#169 =( LENGTH_UNIT ( ) NAMED_UNIT ( * ) SI_UNIT ( .MILLI., .METRE. ) );
#170 = DIRECTION ( 'NONE',  ( -3.491481338843133355E-15, 1.224646799147353207E-16, -1.000000000000000000 ) ) ;
#171 = EDGE_LOOP ( 'NONE', ( #143 ) ) ;
#172 = DIRECTION ( 'NONE',  ( -3.491481338843133355E-15, 1.224646799147353207E-16, -1.000000000000000000 ) ) ;
#173 = PLANE ( 'NONE',  #60 ) ;
#174 = CARTESIAN_POINT ( 'NONE',  ( 2.433562493173664138E-13, 1.499999999999992673, 69.70000000000001705 ) ) ;
#175 = DIRECTION ( 'NONE',  ( 4.275831445896958607E-31, 1.000000000000000000, 1.224646799147353207E-16 ) ) ;
#176 = FACE_OUTER_BOUND ( 'NONE', #199, .T. ) ;
#177 = CARTESIAN_POINT ( 'NONE',  ( 2.433562493173664138E-13, 1.499999999999992673, 69.70000000000001705 ) ) ;
#178 = CARTESIAN_POINT ( 'NONE',  ( 3.491481338843133355E-14, -1.224646799147353256E-15, 10.00000000000000000 ) ) ;
#179 = SHAPE_DEFINITION_REPRESENTATION ( #83, #8 ) ;
#180 = CC_DESIGN_DATE_AND_TIME_ASSIGNMENT ( #66, #257, ( #208 ) ) ;
#181 = DIRECTION ( 'NONE',  ( -3.491481338843133355E-15, 1.224646799147353207E-16, -1.000000000000000000 ) ) ;
#182 = DIRECTION ( 'NONE',  ( 4.275831445896958607E-31, 1.000000000000000000, 1.224646799147353207E-16 ) ) ;
#183 = VERTEX_POINT ( 'NONE', #274 ) ;
#184 = DIRECTION ( 'NONE',  ( 4.275831445896958607E-31, 1.000000000000000000, 1.224646799147353454E-16 ) ) ;
#185 = AXIS2_PLACEMENT_3D ( 'NONE', #225, #172, #53 ) ;
#186 = PERSON_AND_ORGANIZATION ( #190, #118 ) ;
#187 = DATE_TIME_ROLE ( 'classification_date' ) ;
#188 = PRODUCT ( '321616', '321616', '', ( #214 ) ) ;
#189 = CIRCLE ( 'NONE', #135, 1.699999999999989075 ) ;
#190 = PERSON ( 'UNSPECIFIED', 'UNSPECIFIED', 'UNSPECIFIED', ('UNSPECIFIED'), ('UNSPECIFIED'), ('UNSPECIFIED') ) ;
#191 = CALENDAR_DATE ( 2021, 2, 12 ) ;
#192 = CONICAL_SURFACE ( 'NONE', #54, 1.949999999999989964, 0.5235987755983001479 ) ;
#193 = FACE_OUTER_BOUND ( 'NONE', #113, .T. ) ;
#194 = EDGE_LOOP ( 'NONE', ( #29 ) ) ;
#195 = APPROVAL_DATE_TIME ( #238, #90 ) ;
#196 = DIRECTION ( 'NONE',  ( -3.491481338843133355E-15, 1.224646799147353207E-16, -1.000000000000000000 ) ) ;
#197 = DIRECTION ( 'NONE',  ( 4.275831445896958607E-31, 1.000000000000000000, 1.224646799147353207E-16 ) ) ;
#198 = DIRECTION ( 'NONE',  ( -3.491481338843133355E-15, 1.224646799147353207E-16, -1.000000000000000000 ) ) ;
#199 = EDGE_LOOP ( 'NONE', ( #293 ) ) ;
#200 = CIRCLE ( 'NONE', #59, 1.500000000000001110 ) ;
#201 = DIRECTION ( 'NONE',  ( 4.275831445896958607E-31, 1.000000000000000000, 1.224646799147353207E-16 ) ) ;
#202 = CARTESIAN_POINT ( 'NONE',  ( 2.444036937190193601E-13, 8.998558695971026591E-33, 70.00000000000000000 ) ) ;
#203 = EDGE_LOOP ( 'NONE', ( #93 ) ) ;
#204 = CARTESIAN_POINT ( 'NONE',  ( 3.491481338843133355E-14, -1.224646799147353256E-15, 10.00000000000000000 ) ) ;
#205 = ADVANCED_FACE ( 'NONE', ( #128, #144 ), #259, .T. ) ;
#206 = CALENDAR_DATE ( 2021, 2, 12 ) ;
#207 = DIRECTION ( 'NONE',  ( -3.491481338843133355E-15, 1.224646799147353207E-16, -1.000000000000000000 ) ) ;
#208 = PRODUCT_DEFINITION ( 'UNKNOWN', '', #34, #232 ) ;
#209 = DIRECTION ( 'NONE',  ( 3.491481338843133355E-15, -1.224646799147353207E-16, 1.000000000000000000 ) ) ;
#210 = DATE_AND_TIME ( #44, #282 ) ;
#211 = FACE_OUTER_BOUND ( 'NONE', #48, .T. ) ;
#212 = LOCAL_TIME ( 10, 36, 10.00000000000000000, #218 ) ;
#213 = CARTESIAN_POINT ( 'NONE',  ( 3.491481338843133355E-14, 1.949999999999988631, 10.00000000000000000 ) ) ;
#214 = MECHANICAL_CONTEXT ( 'NONE', #281, 'mechanical' ) ;
#215 = AXIS2_PLACEMENT_3D ( 'NONE', #230, #148, #150 ) ;
#216 = VERTEX_POINT ( 'NONE', #283 ) ;
#217 = PERSON_AND_ORGANIZATION_ROLE ( 'classification_officer' ) ;
#218 = COORDINATED_UNIVERSAL_TIME_OFFSET ( 1, 0, .AHEAD. ) ;
#219 = ORIENTED_EDGE ( 'NONE', *, *, #31, .T. ) ;
#220 = FACE_OUTER_BOUND ( 'NONE', #268, .T. ) ;
#221 = ADVANCED_FACE ( 'NONE', ( #140, #245 ), #98, .T. ) ;
#222 = CARTESIAN_POINT ( 'NONE',  ( 3.491481338843133355E-14, 1.949999999999988631, 10.00000000000000000 ) ) ;
#223 = ORIENTED_EDGE ( 'NONE', *, *, #77, .F. ) ;
#224 = FACE_BOUND ( 'NONE', #289, .T. ) ;
#225 = CARTESIAN_POINT ( 'NONE',  ( 2.444036937190193601E-13, -8.572527594031472993E-15, 70.00000000000000000 ) ) ;
#226 = MANIFOLD_SOLID_BREP ( 'Corps-Déplacer/Copier1[1]', #75 ) ;
#227 = PERSON_AND_ORGANIZATION ( #190, #118 ) ;
#228 = FACE_OUTER_BOUND ( 'NONE', #244, .T. ) ;
#229 = PERSON_AND_ORGANIZATION ( #190, #118 ) ;
#230 = CARTESIAN_POINT ( 'NONE',  ( 3.763615377108102434E-14, -1.320098570632594023E-15, 10.77942286340598699 ) ) ;
#231 = DIRECTION ( 'NONE',  ( 4.275831445896958607E-31, 1.000000000000000000, 1.224646799147353207E-16 ) ) ;
#232 = DESIGN_CONTEXT ( 'detailed design', #46, 'design' ) ;
#233 = CIRCLE ( 'NONE', #33, 1.949999999999989964 ) ;
#234 = CC_DESIGN_APPROVAL ( #284, ( #297 ) ) ;
#235 = ADVANCED_FACE ( 'NONE', ( #176, #273 ), #11, .T. ) ;
#236 = CARTESIAN_POINT ( 'NONE',  ( 0.0000000000000000000, 0.0000000000000000000, 0.0000000000000000000 ) ) ;
#237 = CIRCLE ( 'NONE', #258, 1.200000000000001510 ) ;
#238 = DATE_AND_TIME ( #141, #95 ) ;
#239 = ORIENTED_EDGE ( 'NONE', *, *, #271, .F. ) ;
#240 = CC_DESIGN_APPROVAL ( #157, ( #34 ) ) ;
#241 = DIRECTION ( 'NONE',  ( -3.491481338843133355E-15, 1.224646799147353207E-16, -1.000000000000000000 ) ) ;
#242 = ADVANCED_FACE ( 'NONE', ( #9 ), #173, .F. ) ;
#243 = PLANE ( 'NONE',  #110 ) ;
#244 = EDGE_LOOP ( 'NONE', ( #264 ) ) ;
#245 = FACE_OUTER_BOUND ( 'NONE', #115, .T. ) ;
#246 = CARTESIAN_POINT ( 'NONE',  ( 3.763615377108102434E-14, 1.499999999999991562, 10.77942286340598699 ) ) ;
#247 = CYLINDRICAL_SURFACE ( 'NONE', #263, 1.949999999999989964 ) ;
#248 = VERTEX_POINT ( 'NONE', #177 ) ;
#249 = DIRECTION ( 'NONE',  ( 0.0000000000000000000, 1.000000000000000000, 0.0000000000000000000 ) ) ;
#250 = EDGE_CURVE ( 'NONE', #147, #147, #129, .T. ) ;
#251 = DIRECTION ( 'NONE',  ( 0.0000000000000000000, 1.000000000000000000, 0.0000000000000000000 ) ) ;
#252 = PERSON_AND_ORGANIZATION ( #190, #118 ) ;
#253 = CARTESIAN_POINT ( 'NONE',  ( -3.634456729012391782E-31, 1.274795815262570756E-32, -1.040949779275243607E-16 ) ) ;
#254 = DIRECTION ( 'NONE',  ( -3.491481338843133355E-15, 1.224646799147353207E-16, -1.000000000000000000 ) ) ;
#255 = PERSON_AND_ORGANIZATION_ROLE ( 'design_supplier' ) ;
#256 = VERTEX_POINT ( 'NONE', #222 ) ;
#257 = DATE_TIME_ROLE ( 'creation_date' ) ;
#258 = AXIS2_PLACEMENT_3D ( 'NONE', #277, #35, #251 ) ;
#259 = CONICAL_SURFACE ( 'NONE', #185, 1.200000000000001510, 0.7853981633974566057 ) ;
#260 = PERSON_AND_ORGANIZATION ( #190, #118 ) ;
#261 = PERSON_AND_ORGANIZATION_ROLE ( 'creator' ) ;
#262 = ORIENTED_EDGE ( 'NONE', *, *, #64, .T. ) ;
#263 = AXIS2_PLACEMENT_3D ( 'NONE', #23, #65, #182 ) ;
#264 = ORIENTED_EDGE ( 'NONE', *, *, #121, .F. ) ;
#265 = APPROVAL_ROLE ( '' ) ;
#266 = CARTESIAN_POINT ( 'NONE',  ( -7.268913458024783563E-31, 2.549591630525141512E-32, -2.081899558550487214E-16 ) ) ;
#267 = ORIENTED_EDGE ( 'NONE', *, *, #250, .T. ) ;
#268 = EDGE_LOOP ( 'NONE', ( #223 ) ) ;
#269 = DIRECTION ( 'NONE',  ( -3.491481338843133355E-15, 1.224646799147353207E-16, -1.000000000000000000 ) ) ;
#270 = CARTESIAN_POINT ( 'NONE',  ( 2.444036937190193601E-13, 1.199999999999992628, 70.00000000000000000 ) ) ;
#271 = EDGE_CURVE ( 'NONE', #216, #216, #189, .T. ) ;
#272 = FACE_BOUND ( 'NONE', #165, .T. ) ;
#273 = FACE_BOUND ( 'NONE', #92, .T. ) ;
#274 = CARTESIAN_POINT ( 'NONE',  ( 8.728703347107833388E-16, 1.949999999999989964, 0.2500000000000000000 ) ) ;
#275 = DIRECTION ( 'NONE',  ( 0.0000000000000000000, 1.000000000000000000, 0.0000000000000000000 ) ) ;
#276 = EDGE_CURVE ( 'NONE', #162, #162, #17, .T. ) ;
#277 = CARTESIAN_POINT ( 'NONE',  ( 2.444036937190193601E-13, -8.572527594031472993E-15, 70.00000000000000000 ) ) ;
#278 = CC_DESIGN_SECURITY_CLASSIFICATION ( #297, ( #34 ) ) ;
#279 = APPROVAL_STATUS ( 'not_yet_approved' ) ;
#280 = ADVANCED_FACE ( 'NONE', ( #70, #193 ), #104, .T. ) ;
#281 = APPLICATION_CONTEXT ( 'configuration controlled 3d designs of mechanical parts and assemblies' ) ;
#282 = LOCAL_TIME ( 10, 36, 10.00000000000000000, #4 ) ;
#283 = CARTESIAN_POINT ( 'NONE',  ( -8.552847072295026068E-47, 1.699999999999989075, 0.0000000000000000000 ) ) ;
#284 = APPROVAL ( #279, 'UNSPECIFIED' ) ;
#285 = ADVANCED_FACE ( 'NONE', ( #220 ), #287, .F. ) ;
#286 = AXIS2_PLACEMENT_3D ( 'NONE', #116, #170, #249 ) ;
#287 = PLANE ( 'NONE',  #109 ) ;
#288 = CARTESIAN_POINT ( 'NONE',  ( 3.763615377108102434E-14, 1.499999999999991562, 10.77942286340598699 ) ) ;
#289 = EDGE_LOOP ( 'NONE', ( #239 ) ) ;
#290 = PERSON_AND_ORGANIZATION ( #190, #118 ) ;
#291 = CIRCLE ( 'NONE', #25, 1.200000000000001510 ) ;
#292 = AXIS2_PLACEMENT_3D ( 'NONE', #296, #269, #76 ) ;
#293 = ORIENTED_EDGE ( 'NONE', *, *, #276, .F. ) ;
#294 = ADVANCED_FACE ( 'NONE', ( #136 ), #243, .F. ) ;
#295 = DIRECTION ( 'NONE',  ( -3.491481338843133355E-15, 1.224646799147353207E-16, -1.000000000000000000 ) ) ;
#296 = CARTESIAN_POINT ( 'NONE',  ( 0.0000000000000000000, 0.0000000000000000000, 0.0000000000000000000 ) ) ;
#297 = SECURITY_CLASSIFICATION ( '', '', #153 ) ;
#298 = DIRECTION ( 'NONE',  ( 0.0000000000000000000, 1.000000000000000000, 0.0000000000000000000 ) ) ;
#299 = CARTESIAN_POINT ( 'NONE',  ( 0.0000000000000000000, 0.0000000000000000000, 0.0000000000000000000 ) ) ;
#300 = PERSON_AND_ORGANIZATION ( #190, #118 ) ;
#301 = CARTESIAN_POINT ( 'NONE',  ( 2.433562493173664138E-13, -8.535788190057053710E-15, 69.70000000000001705 ) ) ;
#302 = CIRCLE ( 'NONE', #142, 1.949999999999989964 ) ;
#303 = CC_DESIGN_APPROVAL ( #90, ( #208 ) ) ;
ENDSEC;
END-ISO-10303-21;
