ISO-10303-21;
HEADER;
FILE_DESCRIPTION (( 'STEP AP203' ),
    '1' );
FILE_NAME ('321615.step',
    '2021-12-02T09:36:10',
    ( '' ),
    ( '' ),
    'SwSTEP 2.0',
    'SolidWorks 2019',
    '' );
FILE_SCHEMA (( 'CONFIG_CONTROL_DESIGN' ));
ENDSEC;

DATA;
#1 = DIRECTION ( 'NONE',  ( -3.491481338843133355E-15, 1.224646799147353207E-16, -1.000000000000000000 ) ) ;
#2 = CYLINDRICAL_SURFACE ( 'NONE', #253, 1.499999999999996891 ) ;
#3 = PERSON_AND_ORGANIZATION ( #122, #278 ) ;
#4 = DIRECTION ( 'NONE',  ( -3.491481338843133355E-15, 1.224646799147353207E-16, -1.000000000000000000 ) ) ;
#5 = APPLICATION_CONTEXT ( 'configuration controlled 3d designs of mechanical parts and assemblies' ) ;
#6 = FACE_OUTER_BOUND ( 'NONE', #273, .T. ) ;
#7 =( NAMED_UNIT ( * ) SI_UNIT ( $, .STERADIAN. ) SOLID_ANGLE_UNIT ( ) );
#8 = AXIS2_PLACEMENT_3D ( 'NONE', #245, #266, #174 ) ;
#9 = DIRECTION ( 'NONE',  ( -3.491481338843133355E-15, 1.224646799147353207E-16, -1.000000000000000000 ) ) ;
#10 = DIRECTION ( 'NONE',  ( -3.491481338843133355E-15, 1.224646799147353207E-16, -1.000000000000000000 ) ) ;
#11 = APPLICATION_CONTEXT ( 'configuration controlled 3d designs of mechanical parts and assemblies' ) ;
#12 = CARTESIAN_POINT ( 'NONE',  ( 2.444036937190193601E-13, 1.199999999999992628, 70.00000000000000000 ) ) ;
#13 = AXIS2_PLACEMENT_3D ( 'NONE', #127, #258, #216 ) ;
#14 = DATE_AND_TIME ( #223, #108 ) ;
#15 = EDGE_CURVE ( 'NONE', #180, #180, #293, .T. ) ;
#16 = EDGE_LOOP ( 'NONE', ( #87 ) ) ;
#17 = CARTESIAN_POINT ( 'NONE',  ( 3.760591665571824298E-14, -1.319037995393868979E-15, 10.77076260936814300 ) ) ;
#18 = MANIFOLD_SOLID_BREP ( 'Corps-Déplacer/Copier1[1]', #247 ) ;
#19 = EDGE_CURVE ( 'NONE', #208, #208, #129, .T. ) ;
#20 = SHAPE_DEFINITION_REPRESENTATION ( #135, #295 ) ;
#21 = EDGE_LOOP ( 'NONE', ( #224 ) ) ;
#22 = COORDINATED_UNIVERSAL_TIME_OFFSET ( 1, 0, .AHEAD. ) ;
#23 = EDGE_LOOP ( 'NONE', ( #179 ) ) ;
#24 = ORIENTED_EDGE ( 'NONE', *, *, #57, .F. ) ;
#25 = LOCAL_TIME ( 10, 36, 10.00000000000000000, #213 ) ;
#26 = CARTESIAN_POINT ( 'NONE',  ( 2.444036937190193601E-13, -8.572527594031472993E-15, 70.00000000000000000 ) ) ;
#27 = EDGE_CURVE ( 'NONE', #287, #287, #32, .T. ) ;
#28 = FACE_BOUND ( 'NONE', #67, .T. ) ;
#29 = FACE_OUTER_BOUND ( 'NONE', #104, .T. ) ;
#30 = DIRECTION ( 'NONE',  ( -3.491481338843133355E-15, 1.224646799147353207E-16, -1.000000000000000000 ) ) ;
#31 = APPROVAL ( #181, 'UNSPECIFIED' ) ;
#32 = CIRCLE ( 'NONE', #176, 1.499999999999992895 ) ;
#33 = LOCAL_TIME ( 10, 36, 10.00000000000000000, #173 ) ;
#34 = DIRECTION ( 'NONE',  ( -3.491481338843133355E-15, 1.224646799147353207E-16, -1.000000000000000000 ) ) ;
#35 = DIRECTION ( 'NONE',  ( -3.491481338843133355E-15, 1.224646799147353207E-16, -1.000000000000000000 ) ) ;
#36 = APPROVAL_STATUS ( 'not_yet_approved' ) ;
#37 = CARTESIAN_POINT ( 'NONE',  ( 3.491481338843133355E-14, -1.224646799147353256E-15, 10.00000000000000000 ) ) ;
#38 = APPROVAL_STATUS ( 'not_yet_approved' ) ;
#39 = CLOSED_SHELL ( 'NONE', ( #172, #267, #297, #41, #292, #164, #276 ) ) ;
#40 = CARTESIAN_POINT ( 'NONE',  ( 2.444036937190193601E-13, 1.199999999999992628, 70.00000000000000000 ) ) ;
#41 = ADVANCED_FACE ( 'NONE', ( #92 ), #256, .T. ) ;
#42 = ORIENTED_EDGE ( 'NONE', *, *, #15, .T. ) ;
#43 = DIRECTION ( 'NONE',  ( -3.491481338843133355E-15, 1.224646799147353207E-16, -1.000000000000000000 ) ) ;
#44 = VERTEX_POINT ( 'NONE', #40 ) ;
#45 = AXIS2_PLACEMENT_3D ( 'NONE', #144, #277, #230 ) ;
#46 = EDGE_LOOP ( 'NONE', ( #204 ) ) ;
#47 = DIRECTION ( 'NONE',  ( -4.275831445896958607E-31, -1.000000000000000000, -1.224646799147353207E-16 ) ) ;
#48 = FACE_OUTER_BOUND ( 'NONE', #268, .T. ) ;
#49 = CC_DESIGN_SECURITY_CLASSIFICATION ( #227, ( #140 ) ) ;
#50 = FACE_OUTER_BOUND ( 'NONE', #23, .T. ) ;
#51 = PERSON_AND_ORGANIZATION ( #122, #278 ) ;
#52 = AXIS2_PLACEMENT_3D ( 'NONE', #105, #35, #128 ) ;
#53 = AXIS2_PLACEMENT_3D ( 'NONE', #205, #1, #255 ) ;
#54 = DIRECTION ( 'NONE',  ( -3.491481338843133355E-15, 1.224646799147353207E-16, -1.000000000000000000 ) ) ;
#55 = MECHANICAL_CONTEXT ( 'NONE', #5, 'mechanical' ) ;
#56 = DATE_AND_TIME ( #290, #242 ) ;
#57 = EDGE_CURVE ( 'NONE', #44, #44, #259, .T. ) ;
#58 = CIRCLE ( 'NONE', #52, 1.944999999999990070 ) ;
#59 = CARTESIAN_POINT ( 'NONE',  ( 2.433562493173664138E-13, 1.499999999999992673, 69.70000000000001705 ) ) ;
#60 = EDGE_LOOP ( 'NONE', ( #303 ) ) ;
#61 = CARTESIAN_POINT ( 'NONE',  ( 3.491481338843133355E-14, 1.944999999999988738, 10.00000000000000000 ) ) ;
#62 = DIRECTION ( 'NONE',  ( -3.491481338843133355E-15, 1.224646799147353207E-16, -1.000000000000000000 ) ) ;
#63 = ORIENTED_EDGE ( 'NONE', *, *, #57, .T. ) ;
#64 = APPROVAL_PERSON_ORGANIZATION ( #211, #263, #115 ) ;
#65 = CARTESIAN_POINT ( 'NONE',  ( -7.247534300795298849E-31, 2.542092831611832716E-32, -2.075776324554750585E-16 ) ) ;
#66 = FACE_OUTER_BOUND ( 'NONE', #250, .T. ) ;
#67 = EDGE_LOOP ( 'NONE', ( #63 ) ) ;
#68 = FACE_OUTER_BOUND ( 'NONE', #182, .T. ) ;
#69 = CONICAL_SURFACE ( 'NONE', #291, 1.694999999999989182, 0.7853981633974500554 ) ;
#70 = DIRECTION ( 'NONE',  ( 0.0000000000000000000, 1.000000000000000000, 0.0000000000000000000 ) ) ;
#71 = DIRECTION ( 'NONE',  ( 4.275831445896958607E-31, 1.000000000000000000, 1.224646799147353207E-16 ) ) ;
#72 = DIRECTION ( 'NONE',  ( 1.000000000000000000, 0.0000000000000000000, 0.0000000000000000000 ) ) ;
#73 = DIRECTION ( 'NONE',  ( 0.0000000000000000000, 1.000000000000000000, 0.0000000000000000000 ) ) ;
#74 = AXIS2_PLACEMENT_3D ( 'NONE', #289, #185, #72 ) ;
#75 = CARTESIAN_POINT ( 'NONE',  ( 3.491481338843133355E-14, -1.224646799147353256E-15, 10.00000000000000000 ) ) ;
#76 = DIRECTION ( 'NONE',  ( 0.0000000000000000000, 1.000000000000000000, 0.0000000000000000000 ) ) ;
#77 = CIRCLE ( 'NONE', #284, 1.694999999999989182 ) ;
#78 = CC_DESIGN_DATE_AND_TIME_ASSIGNMENT ( #220, #196, ( #227 ) ) ;
#79 = FACE_OUTER_BOUND ( 'NONE', #86, .T. ) ;
#80 = CARTESIAN_POINT ( 'NONE',  ( 3.491481338843133355E-14, 1.944999999999988738, 10.00000000000000000 ) ) ;
#81 = APPROVAL_DATE_TIME ( #241, #281 ) ;
#82 = EDGE_LOOP ( 'NONE', ( #123 ) ) ;
#83 = EDGE_CURVE ( 'NONE', #168, #168, #58, .T. ) ;
#84 = CARTESIAN_POINT ( 'NONE',  ( 3.760591665571824298E-14, -1.319037995393868979E-15, 10.77076260936814300 ) ) ;
#85 = CC_DESIGN_PERSON_AND_ORGANIZATION_ASSIGNMENT ( #3, #249, ( #140 ) ) ;
#86 = EDGE_LOOP ( 'NONE', ( #193 ) ) ;
#87 = ORIENTED_EDGE ( 'NONE', *, *, #83, .T. ) ;
#88 = EDGE_CURVE ( 'NONE', #146, #146, #301, .T. ) ;
#89 = CARTESIAN_POINT ( 'NONE',  ( 2.444036937190193601E-13, 8.998558695971026591E-33, 70.00000000000000000 ) ) ;
#90 = SECURITY_CLASSIFICATION_LEVEL ( 'unclassified' ) ;
#91 = DIRECTION ( 'NONE',  ( -3.491481338843133355E-15, 1.224646799147353207E-16, -1.000000000000000000 ) ) ;
#92 = FACE_OUTER_BOUND ( 'NONE', #251, .T. ) ;
#93 = CARTESIAN_POINT ( 'NONE',  ( 2.433562493173664138E-13, -8.535788190057053710E-15, 69.70000000000001705 ) ) ;
#94 = APPROVAL_PERSON_ORGANIZATION ( #149, #31, #274 ) ;
#95 = FACE_BOUND ( 'NONE', #21, .T. ) ;
#96 = PERSON_AND_ORGANIZATION ( #122, #278 ) ;
#97 = CARTESIAN_POINT ( 'NONE',  ( 3.760591665571824298E-14, 1.499999999999991562, 10.77076260936814300 ) ) ;
#98 = DIRECTION ( 'NONE',  ( -3.491481338843133355E-15, 1.224646799147353207E-16, -1.000000000000000000 ) ) ;
#99 = PERSON_AND_ORGANIZATION ( #122, #278 ) ;
#100 = EDGE_LOOP ( 'NONE', ( #102 ) ) ;
#101 = PRODUCT_RELATED_PRODUCT_CATEGORY ( 'detail', '', ( #262 ) ) ;
#102 = ORIENTED_EDGE ( 'NONE', *, *, #88, .T. ) ;
#103 = APPROVAL_PERSON_ORGANIZATION ( #236, #281, #111 ) ;
#104 = EDGE_LOOP ( 'NONE', ( #42 ) ) ;
#105 = CARTESIAN_POINT ( 'NONE',  ( 3.491481338843133355E-14, -1.224646799147353256E-15, 10.00000000000000000 ) ) ;
#106 = DIRECTION ( 'NONE',  ( -3.491481338843133355E-15, 1.224646799147353207E-16, -1.000000000000000000 ) ) ;
#107 = AXIS2_PLACEMENT_3D ( 'NONE', #145, #43, #222 ) ;
#108 = LOCAL_TIME ( 10, 36, 10.00000000000000000, #142 ) ;
#109 = CARTESIAN_POINT ( 'NONE',  ( -7.247534300795298849E-31, 2.542092831611832716E-32, -2.075776324554750585E-16 ) ) ;
#110 = CARTESIAN_POINT ( 'NONE',  ( 8.728703347107833388E-16, 1.944999999999990070, 0.2500000000000000000 ) ) ;
#111 = APPROVAL_ROLE ( '' ) ;
#112 = CIRCLE ( 'NONE', #302, 1.944999999999990070 ) ;
#113 = VERTEX_POINT ( 'NONE', #80 ) ;
#114 = AXIS2_PLACEMENT_3D ( 'NONE', #75, #137, #188 ) ;
#115 = APPROVAL_ROLE ( '' ) ;
#116 = CYLINDRICAL_SURFACE ( 'NONE', #8, 1.944999999999990070 ) ;
#117 = FACE_BOUND ( 'NONE', #100, .T. ) ;
#118 =( LENGTH_UNIT ( ) NAMED_UNIT ( * ) SI_UNIT ( .MILLI., .METRE. ) );
#119 = CYLINDRICAL_SURFACE ( 'NONE', #13, 1.499999999999996891 ) ;
#120 = VERTEX_POINT ( 'NONE', #59 ) ;
#121 = APPROVAL_DATE_TIME ( #178, #31 ) ;
#122 = PERSON ( 'UNSPECIFIED', 'UNSPECIFIED', 'UNSPECIFIED', ('UNSPECIFIED'), ('UNSPECIFIED'), ('UNSPECIFIED') ) ;
#123 = ORIENTED_EDGE ( 'NONE', *, *, #19, .F. ) ;
#124 = PRODUCT_DEFINITION ( 'UNKNOWN', '', #140, #225 ) ;
#125 = ORIENTED_EDGE ( 'NONE', *, *, #15, .F. ) ;
#126 = DIRECTION ( 'NONE',  ( 0.0000000000000000000, 1.000000000000000000, 0.0000000000000000000 ) ) ;
#127 = CARTESIAN_POINT ( 'NONE',  ( 0.0000000000000000000, 0.0000000000000000000, 0.0000000000000000000 ) ) ;
#128 = DIRECTION ( 'NONE',  ( 0.0000000000000000000, 1.000000000000000000, 0.0000000000000000000 ) ) ;
#129 = CIRCLE ( 'NONE', #155, 1.499999999999992895 ) ;
#130 = PERSON_AND_ORGANIZATION_ROLE ( 'design_owner' ) ;
#131 = CONICAL_SURFACE ( 'NONE', #136, 1.200000000000001510, 0.7853981633974566057 ) ;
#132 = EDGE_CURVE ( 'NONE', #246, #246, #77, .T. ) ;
#133 = APPROVAL_DATE_TIME ( #14, #263 ) ;
#134 = DIRECTION ( 'NONE',  ( 0.0000000000000000000, 1.000000000000000000, 0.0000000000000000000 ) ) ;
#135 = PRODUCT_DEFINITION_SHAPE ( 'NONE', 'NONE',  #124 ) ;
#136 = AXIS2_PLACEMENT_3D ( 'NONE', #26, #158, #139 ) ;
#137 = DIRECTION ( 'NONE',  ( -3.491481338843133355E-15, 1.224646799147353207E-16, -1.000000000000000000 ) ) ;
#138 = PLANE ( 'NONE',  #272 ) ;
#139 = DIRECTION ( 'NONE',  ( 0.0000000000000000000, 1.000000000000000000, 0.0000000000000000000 ) ) ;
#140 = PRODUCT_DEFINITION_FORMATION_WITH_SPECIFIED_SOURCE ( 'ANY', '', #262, .NOT_KNOWN. ) ;
#141 = CARTESIAN_POINT ( 'NONE',  ( 2.433562493173664138E-13, 1.499999999999992673, 69.70000000000001705 ) ) ;
#142 = COORDINATED_UNIVERSAL_TIME_OFFSET ( 1, 0, .AHEAD. ) ;
#143 = VERTEX_POINT ( 'NONE', #141 ) ;
#144 = CARTESIAN_POINT ( 'NONE',  ( 2.444036937190193601E-13, -8.572527594031472993E-15, 70.00000000000000000 ) ) ;
#145 = CARTESIAN_POINT ( 'NONE',  ( 8.728703347107825500E-16, -3.061616997868380553E-17, 0.2499999999999997780 ) ) ;
#146 = VERTEX_POINT ( 'NONE', #12 ) ;
#147 = CC_DESIGN_PERSON_AND_ORGANIZATION_ASSIGNMENT ( #96, #199, ( #140 ) ) ;
#148 = ORIENTED_EDGE ( 'NONE', *, *, #192, .T. ) ;
#149 = PERSON_AND_ORGANIZATION ( #122, #278 ) ;
#150 = UNCERTAINTY_MEASURE_WITH_UNIT (LENGTH_MEASURE( 1.000000000000000082E-05 ), #118, 'distance_accuracy_value', 'NONE');
#151 = DIRECTION ( 'NONE',  ( 3.491481338843133355E-15, -1.224646799147353207E-16, 1.000000000000000000 ) ) ;
#152 = EDGE_LOOP ( 'NONE', ( #300 ) ) ;
#153 = FACE_OUTER_BOUND ( 'NONE', #170, .T. ) ;
#154 = ADVANCED_FACE ( 'NONE', ( #231 ), #161, .F. ) ;
#155 = AXIS2_PLACEMENT_3D ( 'NONE', #17, #98, #197 ) ;
#156 = AXIS2_PLACEMENT_3D ( 'NONE', #160, #4, #73 ) ;
#157 = CARTESIAN_POINT ( 'NONE',  ( 0.0000000000000000000, 0.0000000000000000000, 0.0000000000000000000 ) ) ;
#158 = DIRECTION ( 'NONE',  ( -3.491481338843133355E-15, 1.224646799147353207E-16, -1.000000000000000000 ) ) ;
#159 = ADVANCED_FACE ( 'NONE', ( #68, #153 ), #2, .T. ) ;
#160 = CARTESIAN_POINT ( 'NONE',  ( 2.444036937190193601E-13, -8.572527594031472993E-15, 70.00000000000000000 ) ) ;
#161 = PLANE ( 'NONE',  #218 ) ;
#162 = DIRECTION ( 'NONE',  ( 0.0000000000000000000, 1.000000000000000000, 0.0000000000000000000 ) ) ;
#163 = CARTESIAN_POINT ( 'NONE',  ( 2.433562493173664138E-13, -8.535788190057053710E-15, 69.70000000000001705 ) ) ;
#164 = ADVANCED_FACE ( 'NONE', ( #6, #28 ), #294, .T. ) ;
#165 = CARTESIAN_POINT ( 'NONE',  ( 3.491481338843133355E-14, 1.458516388638647464E-32, 10.00000000000000000 ) ) ;
#166 = DATE_TIME_ROLE ( 'creation_date' ) ;
#167 = AXIS2_PLACEMENT_3D ( 'NONE', #163, #10, #217 ) ;
#168 = VERTEX_POINT ( 'NONE', #61 ) ;
#169 = CARTESIAN_POINT ( 'NONE',  ( 0.0000000000000000000, 1.694999999999989182, 0.0000000000000000000 ) ) ;
#170 = EDGE_LOOP ( 'NONE', ( #271 ) ) ;
#171 = FACE_OUTER_BOUND ( 'NONE', #82, .T. ) ;
#172 = ADVANCED_FACE ( 'NONE', ( #252, #48 ), #184, .T. ) ;
#173 = COORDINATED_UNIVERSAL_TIME_OFFSET ( 1, 0, .AHEAD. ) ;
#174 = DIRECTION ( 'NONE',  ( 4.275831445896959482E-31, 1.000000000000000000, 1.224646799147353207E-16 ) ) ;
#175 = CALENDAR_DATE ( 2021, 2, 12 ) ;
#176 = AXIS2_PLACEMENT_3D ( 'NONE', #84, #62, #70 ) ;
#177 = CONICAL_SURFACE ( 'NONE', #114, 1.944999999999990070, 0.5235987755983008141 ) ;
#178 = DATE_AND_TIME ( #238, #265 ) ;
#179 = ORIENTED_EDGE ( 'NONE', *, *, #261, .F. ) ;
#180 = VERTEX_POINT ( 'NONE', #110 ) ;
#181 = APPROVAL_STATUS ( 'not_yet_approved' ) ;
#182 = EDGE_LOOP ( 'NONE', ( #200 ) ) ;
#183 = CC_DESIGN_PERSON_AND_ORGANIZATION_ASSIGNMENT ( #283, #187, ( #124 ) ) ;
#184 = CONICAL_SURFACE ( 'NONE', #53, 1.944999999999990070, 0.5235987755983008141 ) ;
#185 = DIRECTION ( 'NONE',  ( 0.0000000000000000000, 0.0000000000000000000, 1.000000000000000000 ) ) ;
#186 = CC_DESIGN_APPROVAL ( #281, ( #140 ) ) ;
#187 = PERSON_AND_ORGANIZATION_ROLE ( 'creator' ) ;
#188 = DIRECTION ( 'NONE',  ( 0.0000000000000000000, 1.000000000000000000, 0.0000000000000000000 ) ) ;
#189 = ADVANCED_FACE ( 'NONE', ( #50, #117 ), #131, .T. ) ;
#190 = AXIS2_PLACEMENT_3D ( 'NONE', #279, #30, #282 ) ;
#191 = DIRECTION ( 'NONE',  ( 3.491481338843133355E-15, -1.224646799147353207E-16, 1.000000000000000000 ) ) ;
#192 = EDGE_CURVE ( 'NONE', #120, #120, #260, .T. ) ;
#193 = ORIENTED_EDGE ( 'NONE', *, *, #239, .T. ) ;
#194 = AXIS2_PLACEMENT_3D ( 'NONE', #228, #54, #126 ) ;
#195 =( GEOMETRIC_REPRESENTATION_CONTEXT ( 3 ) GLOBAL_UNCERTAINTY_ASSIGNED_CONTEXT ( ( #150 ) ) GLOBAL_UNIT_ASSIGNED_CONTEXT ( ( #118, #257, #7 ) ) REPRESENTATION_CONTEXT ( 'NONE', 'WORKASPACE' ) );
#196 = DATE_TIME_ROLE ( 'classification_date' ) ;
#197 = DIRECTION ( 'NONE',  ( 0.0000000000000000000, 1.000000000000000000, 0.0000000000000000000 ) ) ;
#198 = EDGE_LOOP ( 'NONE', ( #244 ) ) ;
#199 = PERSON_AND_ORGANIZATION_ROLE ( 'creator' ) ;
#200 = ORIENTED_EDGE ( 'NONE', *, *, #27, .F. ) ;
#201 = AXIS2_PLACEMENT_3D ( 'NONE', #93, #91, #162 ) ;
#202 = CC_DESIGN_APPROVAL ( #263, ( #124 ) ) ;
#203 = CC_DESIGN_PERSON_AND_ORGANIZATION_ASSIGNMENT ( #51, #130, ( #262 ) ) ;
#204 = ORIENTED_EDGE ( 'NONE', *, *, #83, .F. ) ;
#205 = CARTESIAN_POINT ( 'NONE',  ( 3.491481338843133355E-14, -1.224646799147353256E-15, 10.00000000000000000 ) ) ;
#206 = PLANE ( 'NONE',  #45 ) ;
#207 = FACE_BOUND ( 'NONE', #152, .T. ) ;
#208 = VERTEX_POINT ( 'NONE', #280 ) ;
#209 = MANIFOLD_SOLID_BREP ( 'Corps-Déplacer/Copier1[2]', #39 ) ;
#210 = CARTESIAN_POINT ( 'NONE',  ( 2.444036937190193601E-13, -8.572527594031472993E-15, 70.00000000000000000 ) ) ;
#211 = PERSON_AND_ORGANIZATION ( #122, #278 ) ;
#212 = ADVANCED_FACE ( 'NONE', ( #95, #240 ), #177, .T. ) ;
#213 = COORDINATED_UNIVERSAL_TIME_OFFSET ( 1, 0, .AHEAD. ) ;
#214 = DIRECTION ( 'NONE',  ( -4.275831445896958607E-31, -1.000000000000000000, -1.224646799147353207E-16 ) ) ;
#215 = CC_DESIGN_PERSON_AND_ORGANIZATION_ASSIGNMENT ( #99, #299, ( #227 ) ) ;
#216 = DIRECTION ( 'NONE',  ( 4.275831445896958607E-31, 1.000000000000000000, 1.224646799147353454E-16 ) ) ;
#217 = DIRECTION ( 'NONE',  ( 0.0000000000000000000, 1.000000000000000000, 0.0000000000000000000 ) ) ;
#218 = AXIS2_PLACEMENT_3D ( 'NONE', #89, #106, #71 ) ;
#219 = EDGE_LOOP ( 'NONE', ( #148 ) ) ;
#220 = DATE_AND_TIME ( #175, #33 ) ;
#221 = ADVANCED_FACE ( 'NONE', ( #286 ), #138, .F. ) ;
#222 = DIRECTION ( 'NONE',  ( 3.960781376631867764E-31, 1.000000000000000000, 1.114860845743454990E-16 ) ) ;
#223 = CALENDAR_DATE ( 2021, 2, 12 ) ;
#224 = ORIENTED_EDGE ( 'NONE', *, *, #27, .T. ) ;
#225 = DESIGN_CONTEXT ( 'detailed design', #11, 'design' ) ;
#226 = ORIENTED_EDGE ( 'NONE', *, *, #239, .F. ) ;
#227 = SECURITY_CLASSIFICATION ( '', '', #90 ) ;
#228 = CARTESIAN_POINT ( 'NONE',  ( 2.444036937190193601E-13, -8.572527594031472993E-15, 70.00000000000000000 ) ) ;
#229 = DIRECTION ( 'NONE',  ( -3.491481338843133355E-15, 1.224646799147353207E-16, -1.000000000000000000 ) ) ;
#230 = DIRECTION ( 'NONE',  ( 4.275831445896958607E-31, 1.000000000000000000, 1.224646799147353207E-16 ) ) ;
#231 = FACE_OUTER_BOUND ( 'NONE', #60, .T. ) ;
#232 = CC_DESIGN_APPROVAL ( #31, ( #227 ) ) ;
#233 = DIRECTION ( 'NONE',  ( 4.275831445896958607E-31, 1.000000000000000000, 1.224646799147353207E-16 ) ) ;
#234 = DIRECTION ( 'NONE',  ( -3.491481338843133355E-15, 1.224646799147353207E-16, -1.000000000000000000 ) ) ;
#235 = APPLICATION_PROTOCOL_DEFINITION ( 'international standard', 'config_control_design', 1994, #11 ) ;
#236 = PERSON_AND_ORGANIZATION ( #122, #278 ) ;
#237 = AXIS2_PLACEMENT_3D ( 'NONE', #210, #234, #134 ) ;
#238 = CALENDAR_DATE ( 2021, 2, 12 ) ;
#239 = EDGE_CURVE ( 'NONE', #113, #113, #112, .T. ) ;
#240 = FACE_OUTER_BOUND ( 'NONE', #46, .T. ) ;
#241 = DATE_AND_TIME ( #288, #25 ) ;
#242 = LOCAL_TIME ( 10, 36, 10.00000000000000000, #285 ) ;
#243 = FACE_OUTER_BOUND ( 'NONE', #270, .T. ) ;
#244 = ORIENTED_EDGE ( 'NONE', *, *, #19, .T. ) ;
#245 = CARTESIAN_POINT ( 'NONE',  ( 0.0000000000000000000, 0.0000000000000000000, 0.0000000000000000000 ) ) ;
#246 = VERTEX_POINT ( 'NONE', #169 ) ;
#247 = CLOSED_SHELL ( 'NONE', ( #221, #212, #159, #189, #154 ) ) ;
#248 = CIRCLE ( 'NONE', #201, 1.500000000000001110 ) ;
#249 = PERSON_AND_ORGANIZATION_ROLE ( 'design_supplier' ) ;
#250 = EDGE_LOOP ( 'NONE', ( #24 ) ) ;
#251 = EDGE_LOOP ( 'NONE', ( #296 ) ) ;
#252 = FACE_BOUND ( 'NONE', #198, .T. ) ;
#253 = AXIS2_PLACEMENT_3D ( 'NONE', #157, #34, #275 ) ;
#254 = CC_DESIGN_DATE_AND_TIME_ASSIGNMENT ( #56, #166, ( #124 ) ) ;
#255 = DIRECTION ( 'NONE',  ( 0.0000000000000000000, 1.000000000000000000, 0.0000000000000000000 ) ) ;
#256 = PLANE ( 'NONE',  #190 ) ;
#257 =( NAMED_UNIT ( * ) PLANE_ANGLE_UNIT ( ) SI_UNIT ( $, .RADIAN. ) );
#258 = DIRECTION ( 'NONE',  ( -3.491481338843133355E-15, 1.224646799147353207E-16, -1.000000000000000000 ) ) ;
#259 = CIRCLE ( 'NONE', #194, 1.200000000000001510 ) ;
#260 = CIRCLE ( 'NONE', #167, 1.500000000000001110 ) ;
#261 = EDGE_CURVE ( 'NONE', #143, #143, #248, .T. ) ;
#262 = PRODUCT ( '321615', '321615', '', ( #55 ) ) ;
#263 = APPROVAL ( #36, 'UNSPECIFIED' ) ;
#264 = APPLICATION_PROTOCOL_DEFINITION ( 'international standard', 'config_control_design', 1994, #5 ) ;
#265 = LOCAL_TIME ( 10, 36, 10.00000000000000000, #22 ) ;
#266 = DIRECTION ( 'NONE',  ( -3.491481338843133355E-15, 1.224646799147353207E-16, -1.000000000000000000 ) ) ;
#267 = ADVANCED_FACE ( 'NONE', ( #79, #243 ), #116, .T. ) ;
#268 = EDGE_LOOP ( 'NONE', ( #226 ) ) ;
#269 = FACE_OUTER_BOUND ( 'NONE', #219, .T. ) ;
#270 = EDGE_LOOP ( 'NONE', ( #125 ) ) ;
#271 = ORIENTED_EDGE ( 'NONE', *, *, #261, .T. ) ;
#272 = AXIS2_PLACEMENT_3D ( 'NONE', #165, #191, #214 ) ;
#273 = EDGE_LOOP ( 'NONE', ( #298 ) ) ;
#274 = APPROVAL_ROLE ( '' ) ;
#275 = DIRECTION ( 'NONE',  ( 4.275831445896958607E-31, 1.000000000000000000, 1.224646799147353454E-16 ) ) ;
#276 = ADVANCED_FACE ( 'NONE', ( #171, #269 ), #119, .T. ) ;
#277 = DIRECTION ( 'NONE',  ( -3.491481338843133355E-15, 1.224646799147353207E-16, -1.000000000000000000 ) ) ;
#278 = ORGANIZATION ( 'UNSPECIFIED', 'UNSPECIFIED', '' ) ;
#279 = CARTESIAN_POINT ( 'NONE',  ( -3.623767150397649425E-31, 1.271046415805916358E-32, -1.037888162277375292E-16 ) ) ;
#280 = CARTESIAN_POINT ( 'NONE',  ( 3.760591665571824298E-14, 1.499999999999991562, 10.77076260936814300 ) ) ;
#281 = APPROVAL ( #38, 'UNSPECIFIED' ) ;
#282 = DIRECTION ( 'NONE',  ( 4.275831445896958607E-31, 1.000000000000000000, 1.224646799147353207E-16 ) ) ;
#283 = PERSON_AND_ORGANIZATION ( #122, #278 ) ;
#284 = AXIS2_PLACEMENT_3D ( 'NONE', #109, #229, #233 ) ;
#285 = COORDINATED_UNIVERSAL_TIME_OFFSET ( 1, 0, .AHEAD. ) ;
#286 = FACE_OUTER_BOUND ( 'NONE', #16, .T. ) ;
#287 = VERTEX_POINT ( 'NONE', #97 ) ;
#288 = CALENDAR_DATE ( 2021, 2, 12 ) ;
#289 = CARTESIAN_POINT ( 'NONE',  ( 0.0000000000000000000, 0.0000000000000000000, 0.0000000000000000000 ) ) ;
#290 = CALENDAR_DATE ( 2021, 2, 12 ) ;
#291 = AXIS2_PLACEMENT_3D ( 'NONE', #65, #151, #47 ) ;
#292 = ADVANCED_FACE ( 'NONE', ( #66 ), #206, .F. ) ;
#293 = CIRCLE ( 'NONE', #107, 1.944999999999990070 ) ;
#294 = CONICAL_SURFACE ( 'NONE', #156, 1.200000000000001510, 0.7853981633974566057 ) ;
#295 = ADVANCED_BREP_SHAPE_REPRESENTATION ( '321615', ( #18, #209, #74 ), #195 ) ;
#296 = ORIENTED_EDGE ( 'NONE', *, *, #132, .T. ) ;
#297 = ADVANCED_FACE ( 'NONE', ( #29, #207 ), #69, .T. ) ;
#298 = ORIENTED_EDGE ( 'NONE', *, *, #192, .F. ) ;
#299 = PERSON_AND_ORGANIZATION_ROLE ( 'classification_officer' ) ;
#300 = ORIENTED_EDGE ( 'NONE', *, *, #132, .F. ) ;
#301 = CIRCLE ( 'NONE', #237, 1.200000000000001510 ) ;
#302 = AXIS2_PLACEMENT_3D ( 'NONE', #37, #9, #76 ) ;
#303 = ORIENTED_EDGE ( 'NONE', *, *, #88, .F. ) ;
ENDSEC;
END-ISO-10303-21;
