ISO-10303-21;
HEADER;
FILE_DESCRIPTION (( 'STEP AP203' ),
    '1' );
FILE_NAME ('321614.step',
    '2021-12-02T09:36:09',
    ( '' ),
    ( '' ),
    'SwSTEP 2.0',
    'SolidWorks 2019',
    '' );
FILE_SCHEMA (( 'CONFIG_CONTROL_DESIGN' ));
ENDSEC;

DATA;
#1 = ADVANCED_FACE ( 'NONE', ( #271 ), #148, .F. ) ;
#2 = VERTEX_POINT ( 'NONE', #258 ) ;
#3 = ORIENTED_EDGE ( 'NONE', *, *, #25, .F. ) ;
#4 = APPROVAL_PERSON_ORGANIZATION ( #205, #5, #228 ) ;
#5 = APPROVAL ( #99, 'UNSPECIFIED' ) ;
#6 = VERTEX_POINT ( 'NONE', #171 ) ;
#7 = ORIENTED_EDGE ( 'NONE', *, *, #103, .T. ) ;
#8 = CARTESIAN_POINT ( 'NONE',  ( 0.0000000000000000000, 1.689999999999989067, 0.0000000000000000000 ) ) ;
#9 = DIRECTION ( 'NONE',  ( 0.0000000000000000000, 1.000000000000000000, 0.0000000000000000000 ) ) ;
#10 = ORIENTED_EDGE ( 'NONE', *, *, #272, .T. ) ;
#11 = DIRECTION ( 'NONE',  ( -3.491481338843133355E-15, 1.224646799147353207E-16, -1.000000000000000000 ) ) ;
#12 = PLANE ( 'NONE',  #279 ) ;
#13 = DATE_TIME_ROLE ( 'classification_date' ) ;
#14 = COORDINATED_UNIVERSAL_TIME_OFFSET ( 1, 0, .AHEAD. ) ;
#15 = CONICAL_SURFACE ( 'NONE', #233, 1.200000000000001510, 0.7853981633974566057 ) ;
#16 = CC_DESIGN_DATE_AND_TIME_ASSIGNMENT ( #270, #126, ( #52 ) ) ;
#17 = EDGE_LOOP ( 'NONE', ( #117 ) ) ;
#18 = EDGE_LOOP ( 'NONE', ( #151 ) ) ;
#19 = FACE_OUTER_BOUND ( 'NONE', #194, .T. ) ;
#20 = CC_DESIGN_APPROVAL ( #229, ( #93 ) ) ;
#21 = APPROVAL_STATUS ( 'not_yet_approved' ) ;
#22 = CARTESIAN_POINT ( 'NONE',  ( 3.491481338843133355E-14, -1.224646799147353256E-15, 10.00000000000000000 ) ) ;
#23 = DIRECTION ( 'NONE',  ( -3.491481338843133355E-15, 1.224646799147353207E-16, -1.000000000000000000 ) ) ;
#24 = DIRECTION ( 'NONE',  ( 0.0000000000000000000, 1.000000000000000000, 0.0000000000000000000 ) ) ;
#25 = EDGE_CURVE ( 'NONE', #2, #2, #201, .T. ) ;
#26 = AXIS2_PLACEMENT_3D ( 'NONE', #104, #216, #293 ) ;
#27 = CARTESIAN_POINT ( 'NONE',  ( -3.613077571782906192E-31, 1.267297016349261413E-32, -1.034826545279506731E-16 ) ) ;
#28 = ORIENTED_EDGE ( 'NONE', *, *, #263, .T. ) ;
#29 = CARTESIAN_POINT ( 'NONE',  ( 2.433562493173664138E-13, -8.535788190057053710E-15, 69.70000000000001705 ) ) ;
#30 = EDGE_LOOP ( 'NONE', ( #102 ) ) ;
#31 = PRODUCT_DEFINITION_FORMATION_WITH_SPECIFIED_SOURCE ( 'ANY', '', #259, .NOT_KNOWN. ) ;
#32 = VERTEX_POINT ( 'NONE', #8 ) ;
#33 =( LENGTH_UNIT ( ) NAMED_UNIT ( * ) SI_UNIT ( .MILLI., .METRE. ) );
#34 = CLOSED_SHELL ( 'NONE', ( #143, #210, #131, #239, #1, #112, #174 ) ) ;
#35 = AXIS2_PLACEMENT_3D ( 'NONE', #303, #208, #95 ) ;
#36 = EDGE_LOOP ( 'NONE', ( #125 ) ) ;
#37 = DIRECTION ( 'NONE',  ( 0.0000000000000000000, 1.000000000000000000, 0.0000000000000000000 ) ) ;
#38 = CC_DESIGN_PERSON_AND_ORGANIZATION_ASSIGNMENT ( #85, #66, ( #31 ) ) ;
#39 = APPROVAL_DATE_TIME ( #110, #5 ) ;
#40 = ORIENTED_EDGE ( 'NONE', *, *, #298, .F. ) ;
#41 = FACE_BOUND ( 'NONE', #79, .T. ) ;
#42 = CARTESIAN_POINT ( 'NONE',  ( 0.0000000000000000000, 0.0000000000000000000, 0.0000000000000000000 ) ) ;
#43 = DATE_AND_TIME ( #249, #72 ) ;
#44 = DIRECTION ( 'NONE',  ( -3.491481338843133355E-15, 1.224646799147353207E-16, -1.000000000000000000 ) ) ;
#45 = SECURITY_CLASSIFICATION_LEVEL ( 'unclassified' ) ;
#46 = CONICAL_SURFACE ( 'NONE', #106, 1.689999999999989067, 0.7853981633974500554 ) ;
#47 = PLANE ( 'NONE',  #273 ) ;
#48 = FACE_OUTER_BOUND ( 'NONE', #269, .T. ) ;
#49 =( NAMED_UNIT ( * ) SI_UNIT ( $, .STERADIAN. ) SOLID_ANGLE_UNIT ( ) );
#50 = ORGANIZATION ( 'UNSPECIFIED', 'UNSPECIFIED', '' ) ;
#51 = DIRECTION ( 'NONE',  ( 4.275831445896957731E-31, 1.000000000000000000, 1.224646799147353207E-16 ) ) ;
#52 = PRODUCT_DEFINITION ( 'UNKNOWN', '', #31, #231 ) ;
#53 = AXIS2_PLACEMENT_3D ( 'NONE', #204, #294, #159 ) ;
#54 = CIRCLE ( 'NONE', #35, 1.939999999999989955 ) ;
#55 = CARTESIAN_POINT ( 'NONE',  ( 2.433562493173664138E-13, 1.499999999999992673, 69.70000000000001705 ) ) ;
#56 = PRODUCT_RELATED_PRODUCT_CATEGORY ( 'detail', '', ( #259 ) ) ;
#57 = EDGE_LOOP ( 'NONE', ( #28 ) ) ;
#58 = AXIS2_PLACEMENT_3D ( 'NONE', #94, #67, #137 ) ;
#59 = EDGE_LOOP ( 'NONE', ( #264 ) ) ;
#60 = PERSON_AND_ORGANIZATION_ROLE ( 'design_supplier' ) ;
#61 = FACE_OUTER_BOUND ( 'NONE', #178, .T. ) ;
#62 = MANIFOLD_SOLID_BREP ( 'Corps-Déplacer/Copier1[1]', #266 ) ;
#63 = APPLICATION_CONTEXT ( 'configuration controlled 3d designs of mechanical parts and assemblies' ) ;
#64 = CALENDAR_DATE ( 2021, 2, 12 ) ;
#65 = FACE_OUTER_BOUND ( 'NONE', #96, .T. ) ;
#66 = PERSON_AND_ORGANIZATION_ROLE ( 'creator' ) ;
#67 = DIRECTION ( 'NONE',  ( -3.491481338843133355E-15, 1.224646799147353207E-16, -1.000000000000000000 ) ) ;
#68 = AXIS2_PLACEMENT_3D ( 'NONE', #71, #73, #167 ) ;
#69 = CYLINDRICAL_SURFACE ( 'NONE', #256, 1.499999999999996891 ) ;
#70 = CARTESIAN_POINT ( 'NONE',  ( 2.444036937190193601E-13, -8.572527594031472993E-15, 70.00000000000000000 ) ) ;
#71 = CARTESIAN_POINT ( 'NONE',  ( 3.757567954035546794E-14, -1.317977420155144329E-15, 10.76210235533029902 ) ) ;
#72 = LOCAL_TIME ( 10, 36, 9.000000000000000000, #155 ) ;
#73 = DIRECTION ( 'NONE',  ( -3.491481338843133355E-15, 1.224646799147353207E-16, -1.000000000000000000 ) ) ;
#74 = ADVANCED_BREP_SHAPE_REPRESENTATION ( '321614', ( #62, #262, #220 ), #147 ) ;
#75 = CARTESIAN_POINT ( 'NONE',  ( 3.491481338843133355E-14, 1.939999999999988622, 10.00000000000000000 ) ) ;
#76 = CARTESIAN_POINT ( 'NONE',  ( -7.226155143565812383E-31, 2.534594032698522826E-32, -2.069653090559013463E-16 ) ) ;
#77 = AXIS2_PLACEMENT_3D ( 'NONE', #70, #23, #134 ) ;
#78 = ADVANCED_FACE ( 'NONE', ( #80, #173 ), #247, .T. ) ;
#79 = EDGE_LOOP ( 'NONE', ( #149 ) ) ;
#80 = FACE_OUTER_BOUND ( 'NONE', #285, .T. ) ;
#81 = PRODUCT_DEFINITION_SHAPE ( 'NONE', 'NONE',  #52 ) ;
#82 = EDGE_LOOP ( 'NONE', ( #172 ) ) ;
#83 = COORDINATED_UNIVERSAL_TIME_OFFSET ( 1, 0, .AHEAD. ) ;
#84 = ORIENTED_EDGE ( 'NONE', *, *, #276, .T. ) ;
#85 = PERSON_AND_ORGANIZATION ( #253, #50 ) ;
#86 = ORIENTED_EDGE ( 'NONE', *, *, #25, .T. ) ;
#87 = ADVANCED_FACE ( 'NONE', ( #221, #41 ), #15, .T. ) ;
#88 = AXIS2_PLACEMENT_3D ( 'NONE', #27, #115, #157 ) ;
#89 = FACE_OUTER_BOUND ( 'NONE', #290, .T. ) ;
#90 = FACE_OUTER_BOUND ( 'NONE', #241, .T. ) ;
#91 = ADVANCED_FACE ( 'NONE', ( #127 ), #12, .F. ) ;
#92 = DIRECTION ( 'NONE',  ( 3.491481338843133355E-15, -1.224646799147353207E-16, 1.000000000000000000 ) ) ;
#93 = SECURITY_CLASSIFICATION ( '', '', #45 ) ;
#94 = CARTESIAN_POINT ( 'NONE',  ( 2.444036937190193601E-13, -8.572527594031472993E-15, 70.00000000000000000 ) ) ;
#95 = DIRECTION ( 'NONE',  ( 0.0000000000000000000, 1.000000000000000000, 0.0000000000000000000 ) ) ;
#96 = EDGE_LOOP ( 'NONE', ( #108 ) ) ;
#97 = VERTEX_POINT ( 'NONE', #116 ) ;
#98 = EDGE_LOOP ( 'NONE', ( #40 ) ) ;
#99 = APPROVAL_STATUS ( 'not_yet_approved' ) ;
#100 = AXIS2_PLACEMENT_3D ( 'NONE', #129, #268, #132 ) ;
#101 = APPROVAL_ROLE ( '' ) ;
#102 = ORIENTED_EDGE ( 'NONE', *, *, #276, .F. ) ;
#103 = EDGE_CURVE ( 'NONE', #6, #6, #187, .T. ) ;
#104 = CARTESIAN_POINT ( 'NONE',  ( 2.444036937190193601E-13, -8.572527594031472993E-15, 70.00000000000000000 ) ) ;
#105 = CARTESIAN_POINT ( 'NONE',  ( 2.444036937190193601E-13, 8.998558695971026591E-33, 70.00000000000000000 ) ) ;
#106 = AXIS2_PLACEMENT_3D ( 'NONE', #114, #92, #277 ) ;
#107 = DIRECTION ( 'NONE',  ( 4.275831445896958607E-31, 1.000000000000000000, 1.224646799147353207E-16 ) ) ;
#108 = ORIENTED_EDGE ( 'NONE', *, *, #295, .T. ) ;
#109 = EDGE_CURVE ( 'NONE', #236, #236, #218, .T. ) ;
#110 = DATE_AND_TIME ( #200, #280 ) ;
#111 = DIRECTION ( 'NONE',  ( -3.491481338843133355E-15, 1.224646799147353207E-16, -1.000000000000000000 ) ) ;
#112 = ADVANCED_FACE ( 'NONE', ( #230, #252 ), #119, .T. ) ;
#113 = FACE_BOUND ( 'NONE', #17, .T. ) ;
#114 = CARTESIAN_POINT ( 'NONE',  ( -7.226155143565812383E-31, 2.534594032698522826E-32, -2.069653090559013463E-16 ) ) ;
#115 = DIRECTION ( 'NONE',  ( -3.491481338843133355E-15, 1.224646799147353207E-16, -1.000000000000000000 ) ) ;
#116 = CARTESIAN_POINT ( 'NONE',  ( 3.757567954035546794E-14, 1.499999999999991562, 10.76210235533029902 ) ) ;
#117 = ORIENTED_EDGE ( 'NONE', *, *, #295, .F. ) ;
#118 = CARTESIAN_POINT ( 'NONE',  ( 2.444036937190193601E-13, 1.199999999999992628, 70.00000000000000000 ) ) ;
#119 = CONICAL_SURFACE ( 'NONE', #292, 1.200000000000001510, 0.7853981633974566057 ) ;
#120 = EDGE_CURVE ( 'NONE', #97, #97, #203, .T. ) ;
#121 = VERTEX_POINT ( 'NONE', #55 ) ;
#122 = ORIENTED_EDGE ( 'NONE', *, *, #263, .F. ) ;
#123 = EDGE_CURVE ( 'NONE', #141, #141, #166, .T. ) ;
#124 = APPROVAL_PERSON_ORGANIZATION ( #274, #242, #101 ) ;
#125 = ORIENTED_EDGE ( 'NONE', *, *, #109, .F. ) ;
#126 = DATE_TIME_ROLE ( 'creation_date' ) ;
#127 = FACE_OUTER_BOUND ( 'NONE', #18, .T. ) ;
#128 = PERSON_AND_ORGANIZATION_ROLE ( 'classification_officer' ) ;
#129 = CARTESIAN_POINT ( 'NONE',  ( 0.0000000000000000000, 0.0000000000000000000, 0.0000000000000000000 ) ) ;
#130 = AXIS2_PLACEMENT_3D ( 'NONE', #154, #248, #190 ) ;
#131 = ADVANCED_FACE ( 'NONE', ( #61, #113 ), #46, .T. ) ;
#132 = DIRECTION ( 'NONE',  ( 4.275831445896958607E-31, 1.000000000000000000, 1.224646799147353454E-16 ) ) ;
#133 = DATE_AND_TIME ( #135, #170 ) ;
#134 = DIRECTION ( 'NONE',  ( 0.0000000000000000000, 1.000000000000000000, 0.0000000000000000000 ) ) ;
#135 = CALENDAR_DATE ( 2021, 2, 12 ) ;
#136 = CC_DESIGN_APPROVAL ( #242, ( #52 ) ) ;
#137 = DIRECTION ( 'NONE',  ( 0.0000000000000000000, 1.000000000000000000, 0.0000000000000000000 ) ) ;
#138 = DIRECTION ( 'NONE',  ( -3.491481338843133355E-15, 1.224646799147353207E-16, -1.000000000000000000 ) ) ;
#139 = DIRECTION ( 'NONE',  ( 4.275831445896958607E-31, 1.000000000000000000, 1.224646799147353207E-16 ) ) ;
#140 = AXIS2_PLACEMENT_3D ( 'NONE', #22, #111, #212 ) ;
#141 = VERTEX_POINT ( 'NONE', #286 ) ;
#142 = COORDINATED_UNIVERSAL_TIME_OFFSET ( 1, 0, .AHEAD. ) ;
#143 = ADVANCED_FACE ( 'NONE', ( #183, #90 ), #297, .T. ) ;
#144 = CARTESIAN_POINT ( 'NONE',  ( 3.491481338843133355E-14, 1.939999999999988622, 10.00000000000000000 ) ) ;
#145 = AXIS2_PLACEMENT_3D ( 'NONE', #223, #227, #299 ) ;
#146 = DIRECTION ( 'NONE',  ( -3.491481338843133355E-15, 1.224646799147353207E-16, -1.000000000000000000 ) ) ;
#147 =( GEOMETRIC_REPRESENTATION_CONTEXT ( 3 ) GLOBAL_UNCERTAINTY_ASSIGNED_CONTEXT ( ( #163 ) ) GLOBAL_UNIT_ASSIGNED_CONTEXT ( ( #33, #282, #49 ) ) REPRESENTATION_CONTEXT ( 'NONE', 'WORKASPACE' ) );
#148 = PLANE ( 'NONE',  #26 ) ;
#149 = ORIENTED_EDGE ( 'NONE', *, *, #123, .T. ) ;
#150 = CARTESIAN_POINT ( 'NONE',  ( 0.0000000000000000000, 0.0000000000000000000, 0.0000000000000000000 ) ) ;
#151 = ORIENTED_EDGE ( 'NONE', *, *, #123, .F. ) ;
#152 = CIRCLE ( 'NONE', #68, 1.499999999999992895 ) ;
#153 = APPROVAL_STATUS ( 'not_yet_approved' ) ;
#154 = CARTESIAN_POINT ( 'NONE',  ( 3.491481338843133355E-14, -1.224646799147353256E-15, 10.00000000000000000 ) ) ;
#155 = COORDINATED_UNIVERSAL_TIME_OFFSET ( 1, 0, .AHEAD. ) ;
#156 = ADVANCED_FACE ( 'NONE', ( #300 ), #47, .F. ) ;
#157 = DIRECTION ( 'NONE',  ( 4.275831445896958607E-31, 1.000000000000000000, 1.224646799147353207E-16 ) ) ;
#158 = PERSON_AND_ORGANIZATION ( #253, #50 ) ;
#159 = DIRECTION ( 'NONE',  ( 0.0000000000000000000, 1.000000000000000000, 0.0000000000000000000 ) ) ;
#160 = CIRCLE ( 'NONE', #234, 1.689999999999989067 ) ;
#161 = DIRECTION ( 'NONE',  ( 0.0000000000000000000, 0.0000000000000000000, 1.000000000000000000 ) ) ;
#162 = DIRECTION ( 'NONE',  ( -3.491481338843133355E-15, 1.224646799147353207E-16, -1.000000000000000000 ) ) ;
#163 = UNCERTAINTY_MEASURE_WITH_UNIT (LENGTH_MEASURE( 1.000000000000000082E-05 ), #33, 'distance_accuracy_value', 'NONE');
#164 = FACE_OUTER_BOUND ( 'NONE', #59, .T. ) ;
#165 = CC_DESIGN_PERSON_AND_ORGANIZATION_ASSIGNMENT ( #158, #60, ( #31 ) ) ;
#166 = CIRCLE ( 'NONE', #77, 1.200000000000001510 ) ;
#167 = DIRECTION ( 'NONE',  ( 0.0000000000000000000, 1.000000000000000000, 0.0000000000000000000 ) ) ;
#168 = ADVANCED_FACE ( 'NONE', ( #278, #19 ), #261, .T. ) ;
#169 = VERTEX_POINT ( 'NONE', #238 ) ;
#170 = LOCAL_TIME ( 10, 36, 9.000000000000000000, #83 ) ;
#171 = CARTESIAN_POINT ( 'NONE',  ( 2.433562493173664138E-13, 1.499999999999992673, 69.70000000000001705 ) ) ;
#172 = ORIENTED_EDGE ( 'NONE', *, *, #109, .T. ) ;
#173 = FACE_OUTER_BOUND ( 'NONE', #202, .T. ) ;
#174 = ADVANCED_FACE ( 'NONE', ( #254, #164 ), #69, .T. ) ;
#175 = PERSON_AND_ORGANIZATION ( #253, #50 ) ;
#176 = PERSON_AND_ORGANIZATION_ROLE ( 'creator' ) ;
#177 = PERSON_AND_ORGANIZATION ( #253, #50 ) ;
#178 = EDGE_LOOP ( 'NONE', ( #86 ) ) ;
#179 = DATE_AND_TIME ( #64, #213 ) ;
#180 = ORIENTED_EDGE ( 'NONE', *, *, #272, .F. ) ;
#181 = APPROVAL_ROLE ( '' ) ;
#182 = APPLICATION_PROTOCOL_DEFINITION ( 'international standard', 'config_control_design', 1994, #63 ) ;
#183 = FACE_BOUND ( 'NONE', #217, .T. ) ;
#184 = PERSON_AND_ORGANIZATION_ROLE ( 'design_owner' ) ;
#185 = APPLICATION_PROTOCOL_DEFINITION ( 'international standard', 'config_control_design', 1994, #265 ) ;
#186 = DIRECTION ( 'NONE',  ( 3.491481338843133355E-15, -1.224646799147353207E-16, 1.000000000000000000 ) ) ;
#187 = CIRCLE ( 'NONE', #53, 1.500000000000001110 ) ;
#188 = DIRECTION ( 'NONE',  ( -3.491481338843133355E-15, 1.224646799147353207E-16, -1.000000000000000000 ) ) ;
#189 = APPROVAL_DATE_TIME ( #43, #229 ) ;
#190 = DIRECTION ( 'NONE',  ( 0.0000000000000000000, 1.000000000000000000, 0.0000000000000000000 ) ) ;
#191 = CC_DESIGN_PERSON_AND_ORGANIZATION_ASSIGNMENT ( #243, #176, ( #52 ) ) ;
#192 = CC_DESIGN_SECURITY_CLASSIFICATION ( #93, ( #31 ) ) ;
#193 = ORIENTED_EDGE ( 'NONE', *, *, #120, .T. ) ;
#194 = EDGE_LOOP ( 'NONE', ( #122 ) ) ;
#195 = AXIS2_PLACEMENT_3D ( 'NONE', #198, #11, #291 ) ;
#196 = EDGE_LOOP ( 'NONE', ( #296 ) ) ;
#197 = COORDINATED_UNIVERSAL_TIME_OFFSET ( 1, 0, .AHEAD. ) ;
#198 = CARTESIAN_POINT ( 'NONE',  ( 8.728703347107825500E-16, -3.061616997868380553E-17, 0.2499999999999997780 ) ) ;
#199 = CALENDAR_DATE ( 2021, 2, 12 ) ;
#200 = CALENDAR_DATE ( 2021, 2, 12 ) ;
#201 = CIRCLE ( 'NONE', #195, 1.939999999999989955 ) ;
#202 = EDGE_LOOP ( 'NONE', ( #7 ) ) ;
#203 = CIRCLE ( 'NONE', #145, 1.499999999999992895 ) ;
#204 = CARTESIAN_POINT ( 'NONE',  ( 2.433562493173664138E-13, -8.535788190057053710E-15, 69.70000000000001705 ) ) ;
#205 = PERSON_AND_ORGANIZATION ( #253, #50 ) ;
#206 = CARTESIAN_POINT ( 'NONE',  ( 2.444036937190193601E-13, -8.572527594031472993E-15, 70.00000000000000000 ) ) ;
#207 = APPROVAL_PERSON_ORGANIZATION ( #175, #229, #181 ) ;
#208 = DIRECTION ( 'NONE',  ( -3.491481338843133355E-15, 1.224646799147353207E-16, -1.000000000000000000 ) ) ;
#209 = DIRECTION ( 'NONE',  ( 0.0000000000000000000, 1.000000000000000000, 0.0000000000000000000 ) ) ;
#210 = ADVANCED_FACE ( 'NONE', ( #89, #48 ), #275, .T. ) ;
#211 = CARTESIAN_POINT ( 'NONE',  ( 3.491481338843133355E-14, -1.224646799147353256E-15, 10.00000000000000000 ) ) ;
#212 = DIRECTION ( 'NONE',  ( 0.0000000000000000000, 1.000000000000000000, 0.0000000000000000000 ) ) ;
#213 = LOCAL_TIME ( 10, 36, 9.000000000000000000, #197 ) ;
#214 = VERTEX_POINT ( 'NONE', #144 ) ;
#215 = ORIENTED_EDGE ( 'NONE', *, *, #120, .F. ) ;
#216 = DIRECTION ( 'NONE',  ( -3.491481338843133355E-15, 1.224646799147353207E-16, -1.000000000000000000 ) ) ;
#217 = EDGE_LOOP ( 'NONE', ( #84 ) ) ;
#218 = CIRCLE ( 'NONE', #58, 1.200000000000001510 ) ;
#219 = DIRECTION ( 'NONE',  ( -3.491481338843133355E-15, 1.224646799147353207E-16, -1.000000000000000000 ) ) ;
#220 = AXIS2_PLACEMENT_3D ( 'NONE', #150, #161, #246 ) ;
#221 = FACE_OUTER_BOUND ( 'NONE', #196, .T. ) ;
#222 = MECHANICAL_CONTEXT ( 'NONE', #265, 'mechanical' ) ;
#223 = CARTESIAN_POINT ( 'NONE',  ( 3.757567954035546794E-14, -1.317977420155144329E-15, 10.76210235533029902 ) ) ;
#224 = CC_DESIGN_PERSON_AND_ORGANIZATION_ASSIGNMENT ( #177, #184, ( #259 ) ) ;
#225 = CARTESIAN_POINT ( 'NONE',  ( 0.0000000000000000000, 0.0000000000000000000, 0.0000000000000000000 ) ) ;
#226 = LOCAL_TIME ( 10, 36, 9.000000000000000000, #14 ) ;
#227 = DIRECTION ( 'NONE',  ( -3.491481338843133355E-15, 1.224646799147353207E-16, -1.000000000000000000 ) ) ;
#228 = APPROVAL_ROLE ( '' ) ;
#229 = APPROVAL ( #153, 'UNSPECIFIED' ) ;
#230 = FACE_OUTER_BOUND ( 'NONE', #98, .T. ) ;
#231 = DESIGN_CONTEXT ( 'detailed design', #63, 'design' ) ;
#232 = PLANE ( 'NONE',  #88 ) ;
#233 = AXIS2_PLACEMENT_3D ( 'NONE', #244, #146, #37 ) ;
#234 = AXIS2_PLACEMENT_3D ( 'NONE', #76, #257, #51 ) ;
#235 = VERTEX_POINT ( 'NONE', #75 ) ;
#236 = VERTEX_POINT ( 'NONE', #118 ) ;
#237 = CC_DESIGN_APPROVAL ( #5, ( #31 ) ) ;
#238 = CARTESIAN_POINT ( 'NONE',  ( 3.757567954035546794E-14, 1.499999999999991562, 10.76210235533029902 ) ) ;
#239 = ADVANCED_FACE ( 'NONE', ( #65 ), #232, .T. ) ;
#240 = CIRCLE ( 'NONE', #283, 1.500000000000001110 ) ;
#241 = EDGE_LOOP ( 'NONE', ( #180 ) ) ;
#242 = APPROVAL ( #21, 'UNSPECIFIED' ) ;
#243 = PERSON_AND_ORGANIZATION ( #253, #50 ) ;
#244 = CARTESIAN_POINT ( 'NONE',  ( 2.444036937190193601E-13, -8.572527594031472993E-15, 70.00000000000000000 ) ) ;
#245 = EDGE_LOOP ( 'NONE', ( #193 ) ) ;
#246 = DIRECTION ( 'NONE',  ( 1.000000000000000000, 0.0000000000000000000, 0.0000000000000000000 ) ) ;
#247 = CYLINDRICAL_SURFACE ( 'NONE', #100, 1.499999999999996891 ) ;
#248 = DIRECTION ( 'NONE',  ( -3.491481338843133355E-15, 1.224646799147353207E-16, -1.000000000000000000 ) ) ;
#249 = CALENDAR_DATE ( 2021, 2, 12 ) ;
#250 = APPROVAL_DATE_TIME ( #179, #242 ) ;
#251 = PERSON_AND_ORGANIZATION ( #253, #50 ) ;
#252 = FACE_BOUND ( 'NONE', #82, .T. ) ;
#253 = PERSON ( 'UNSPECIFIED', 'UNSPECIFIED', 'UNSPECIFIED', ('UNSPECIFIED'), ('UNSPECIFIED'), ('UNSPECIFIED') ) ;
#254 = FACE_OUTER_BOUND ( 'NONE', #30, .T. ) ;
#255 = DIRECTION ( 'NONE',  ( 4.275831445896958607E-31, 1.000000000000000000, 1.224646799147353454E-16 ) ) ;
#256 = AXIS2_PLACEMENT_3D ( 'NONE', #225, #162, #255 ) ;
#257 = DIRECTION ( 'NONE',  ( -3.491481338843133355E-15, 1.224646799147353207E-16, -1.000000000000000000 ) ) ;
#258 = CARTESIAN_POINT ( 'NONE',  ( 8.728703347107833388E-16, 1.939999999999989955, 0.2500000000000000000 ) ) ;
#259 = PRODUCT ( '321614', '321614', '', ( #222 ) ) ;
#260 = CC_DESIGN_PERSON_AND_ORGANIZATION_ASSIGNMENT ( #251, #128, ( #93 ) ) ;
#261 = CONICAL_SURFACE ( 'NONE', #130, 1.939999999999989955, 0.5235987755983000369 ) ;
#262 = MANIFOLD_SOLID_BREP ( 'Corps-Déplacer/Copier1[2]', #34 ) ;
#263 = EDGE_CURVE ( 'NONE', #235, #235, #302, .T. ) ;
#264 = ORIENTED_EDGE ( 'NONE', *, *, #298, .T. ) ;
#265 = APPLICATION_CONTEXT ( 'configuration controlled 3d designs of mechanical parts and assemblies' ) ;
#266 = CLOSED_SHELL ( 'NONE', ( #156, #168, #78, #87, #91 ) ) ;
#267 = AXIS2_PLACEMENT_3D ( 'NONE', #211, #188, #209 ) ;
#268 = DIRECTION ( 'NONE',  ( -3.491481338843133355E-15, 1.224646799147353207E-16, -1.000000000000000000 ) ) ;
#269 = EDGE_LOOP ( 'NONE', ( #3 ) ) ;
#270 = DATE_AND_TIME ( #199, #226 ) ;
#271 = FACE_OUTER_BOUND ( 'NONE', #36, .T. ) ;
#272 = EDGE_CURVE ( 'NONE', #214, #214, #54, .T. ) ;
#273 = AXIS2_PLACEMENT_3D ( 'NONE', #301, #186, #281 ) ;
#274 = PERSON_AND_ORGANIZATION ( #253, #50 ) ;
#275 = CYLINDRICAL_SURFACE ( 'NONE', #289, 1.939999999999989955 ) ;
#276 = EDGE_CURVE ( 'NONE', #169, #169, #152, .T. ) ;
#277 = DIRECTION ( 'NONE',  ( -4.275831445896957731E-31, -1.000000000000000000, -1.224646799147353207E-16 ) ) ;
#278 = FACE_BOUND ( 'NONE', #245, .T. ) ;
#279 = AXIS2_PLACEMENT_3D ( 'NONE', #105, #219, #107 ) ;
#280 = LOCAL_TIME ( 10, 36, 9.000000000000000000, #142 ) ;
#281 = DIRECTION ( 'NONE',  ( -4.275831445896958607E-31, -1.000000000000000000, -1.224646799147353207E-16 ) ) ;
#282 =( NAMED_UNIT ( * ) PLANE_ANGLE_UNIT ( ) SI_UNIT ( $, .RADIAN. ) );
#283 = AXIS2_PLACEMENT_3D ( 'NONE', #29, #288, #9 ) ;
#284 = SHAPE_DEFINITION_REPRESENTATION ( #81, #74 ) ;
#285 = EDGE_LOOP ( 'NONE', ( #215 ) ) ;
#286 = CARTESIAN_POINT ( 'NONE',  ( 2.444036937190193601E-13, 1.199999999999992628, 70.00000000000000000 ) ) ;
#287 = CC_DESIGN_DATE_AND_TIME_ASSIGNMENT ( #133, #13, ( #93 ) ) ;
#288 = DIRECTION ( 'NONE',  ( -3.491481338843133355E-15, 1.224646799147353207E-16, -1.000000000000000000 ) ) ;
#289 = AXIS2_PLACEMENT_3D ( 'NONE', #42, #44, #139 ) ;
#290 = EDGE_LOOP ( 'NONE', ( #10 ) ) ;
#291 = DIRECTION ( 'NONE',  ( 3.970989576056176885E-31, 1.000000000000000000, 1.117734198438670131E-16 ) ) ;
#292 = AXIS2_PLACEMENT_3D ( 'NONE', #206, #138, #24 ) ;
#293 = DIRECTION ( 'NONE',  ( 4.275831445896958607E-31, 1.000000000000000000, 1.224646799147353207E-16 ) ) ;
#294 = DIRECTION ( 'NONE',  ( -3.491481338843133355E-15, 1.224646799147353207E-16, -1.000000000000000000 ) ) ;
#295 = EDGE_CURVE ( 'NONE', #32, #32, #160, .T. ) ;
#296 = ORIENTED_EDGE ( 'NONE', *, *, #103, .F. ) ;
#297 = CONICAL_SURFACE ( 'NONE', #267, 1.939999999999989955, 0.5235987755983000369 ) ;
#298 = EDGE_CURVE ( 'NONE', #121, #121, #240, .T. ) ;
#299 = DIRECTION ( 'NONE',  ( 0.0000000000000000000, 1.000000000000000000, 0.0000000000000000000 ) ) ;
#300 = FACE_OUTER_BOUND ( 'NONE', #57, .T. ) ;
#301 = CARTESIAN_POINT ( 'NONE',  ( 3.491481338843133355E-14, 1.454766989181992246E-32, 10.00000000000000000 ) ) ;
#302 = CIRCLE ( 'NONE', #140, 1.939999999999989955 ) ;
#303 = CARTESIAN_POINT ( 'NONE',  ( 3.491481338843133355E-14, -1.224646799147353256E-15, 10.00000000000000000 ) ) ;
ENDSEC;
END-ISO-10303-21;
