ISO-10303-21;
HEADER;
FILE_DESCRIPTION (( 'STEP AP203' ),
    '1' );
FILE_NAME ('321613.step',
    '2021-12-02T09:36:08',
    ( '' ),
    ( '' ),
    'SwSTEP 2.0',
    'SolidWorks 2019',
    '' );
FILE_SCHEMA (( 'CONFIG_CONTROL_DESIGN' ));
ENDSEC;

DATA;
#1 = ORIENTED_EDGE ( 'NONE', *, *, #124, .F. ) ;
#2 = FACE_BOUND ( 'NONE', #78, .T. ) ;
#3 = DIRECTION ( 'NONE',  ( -3.491481338843133355E-15, 1.224646799147353207E-16, -1.000000000000000000 ) ) ;
#4 = CARTESIAN_POINT ( 'NONE',  ( 3.754544242499269290E-14, -1.316916844916419088E-15, 10.75344210129245326 ) ) ;
#5 = CC_DESIGN_PERSON_AND_ORGANIZATION_ASSIGNMENT ( #295, #270, ( #286 ) ) ;
#6 = DIRECTION ( 'NONE',  ( 4.275831445896958607E-31, 1.000000000000000000, 1.224646799147353207E-16 ) ) ;
#7 = DIRECTION ( 'NONE',  ( -3.491481338843133355E-15, 1.224646799147353207E-16, -1.000000000000000000 ) ) ;
#8 = DIRECTION ( 'NONE',  ( -3.491481338843133355E-15, 1.224646799147353207E-16, -1.000000000000000000 ) ) ;
#9 = EDGE_CURVE ( 'NONE', #49, #49, #238, .T. ) ;
#10 = DIRECTION ( 'NONE',  ( -3.491481338843133355E-15, 1.224646799147353207E-16, -1.000000000000000000 ) ) ;
#11 = COORDINATED_UNIVERSAL_TIME_OFFSET ( 1, 0, .AHEAD. ) ;
#12 = AXIS2_PLACEMENT_3D ( 'NONE', #52, #8, #31 ) ;
#13 = CARTESIAN_POINT ( 'NONE',  ( 3.754544242499269290E-14, 1.499999999999991562, 10.75344210129245326 ) ) ;
#14 = EDGE_LOOP ( 'NONE', ( #128 ) ) ;
#15 = AXIS2_PLACEMENT_3D ( 'NONE', #178, #7, #6 ) ;
#16 = AXIS2_PLACEMENT_3D ( 'NONE', #292, #74, #207 ) ;
#17 = SECURITY_CLASSIFICATION_LEVEL ( 'unclassified' ) ;
#18 = PERSON_AND_ORGANIZATION_ROLE ( 'design_owner' ) ;
#19 = EDGE_LOOP ( 'NONE', ( #279 ) ) ;
#20 = MANIFOLD_SOLID_BREP ( 'Corps-Déplacer/Copier1[1]', #222 ) ;
#21 = LOCAL_TIME ( 10, 36, 8.000000000000000000, #139 ) ;
#22 = EDGE_CURVE ( 'NONE', #290, #290, #229, .T. ) ;
#23 = ORIENTED_EDGE ( 'NONE', *, *, #9, .F. ) ;
#24 = DATE_AND_TIME ( #121, #291 ) ;
#25 = PLANE ( 'NONE',  #199 ) ;
#26 = CARTESIAN_POINT ( 'NONE',  ( 8.728703347107825500E-16, -3.061616997868380553E-17, 0.2499999999999997780 ) ) ;
#27 = CARTESIAN_POINT ( 'NONE',  ( 0.0000000000000000000, 0.0000000000000000000, 0.0000000000000000000 ) ) ;
#28 = EDGE_CURVE ( 'NONE', #209, #209, #187, .T. ) ;
#29 = CYLINDRICAL_SURFACE ( 'NONE', #51, 1.499999999999996891 ) ;
#30 = FACE_OUTER_BOUND ( 'NONE', #14, .T. ) ;
#31 = DIRECTION ( 'NONE',  ( 0.0000000000000000000, 1.000000000000000000, 0.0000000000000000000 ) ) ;
#32 = AXIS2_PLACEMENT_3D ( 'NONE', #43, #129, #226 ) ;
#33 = VERTEX_POINT ( 'NONE', #160 ) ;
#34 = FACE_BOUND ( 'NONE', #220, .T. ) ;
#35 = VERTEX_POINT ( 'NONE', #13 ) ;
#36 = AXIS2_PLACEMENT_3D ( 'NONE', #147, #248, #271 ) ;
#37 = PERSON_AND_ORGANIZATION ( #61, #103 ) ;
#38 = EDGE_LOOP ( 'NONE', ( #23 ) ) ;
#39 = ORIENTED_EDGE ( 'NONE', *, *, #54, .T. ) ;
#40 = ORIENTED_EDGE ( 'NONE', *, *, #241, .T. ) ;
#41 = AXIS2_PLACEMENT_3D ( 'NONE', #232, #177, #180 ) ;
#42 = ORIENTED_EDGE ( 'NONE', *, *, #194, .F. ) ;
#43 = CARTESIAN_POINT ( 'NONE',  ( 2.444036937190193601E-13, -8.572527594031472993E-15, 70.00000000000000000 ) ) ;
#44 = FACE_OUTER_BOUND ( 'NONE', #193, .T. ) ;
#45 = DIRECTION ( 'NONE',  ( -3.491481338843133355E-15, 1.224646799147353207E-16, -1.000000000000000000 ) ) ;
#46 = AXIS2_PLACEMENT_3D ( 'NONE', #116, #10, #214 ) ;
#47 = DIRECTION ( 'NONE',  ( 0.0000000000000000000, 1.000000000000000000, 0.0000000000000000000 ) ) ;
#48 = DIRECTION ( 'NONE',  ( -3.491481338843133355E-15, 1.224646799147353207E-16, -1.000000000000000000 ) ) ;
#49 = VERTEX_POINT ( 'NONE', #183 ) ;
#50 = CIRCLE ( 'NONE', #302, 1.934999999999990061 ) ;
#51 = AXIS2_PLACEMENT_3D ( 'NONE', #254, #204, #236 ) ;
#52 = CARTESIAN_POINT ( 'NONE',  ( 2.433562493173664138E-13, -8.535788190057053710E-15, 69.70000000000001705 ) ) ;
#53 = DIRECTION ( 'NONE',  ( -3.491481338843133355E-15, 1.224646799147353207E-16, -1.000000000000000000 ) ) ;
#54 = EDGE_CURVE ( 'NONE', #33, #33, #50, .T. ) ;
#55 = COORDINATED_UNIVERSAL_TIME_OFFSET ( 1, 0, .AHEAD. ) ;
#56 = PERSON_AND_ORGANIZATION ( #61, #103 ) ;
#57 = ADVANCED_FACE ( 'NONE', ( #91, #87 ), #274, .T. ) ;
#58 = ORIENTED_EDGE ( 'NONE', *, *, #28, .F. ) ;
#59 = APPROVAL_ROLE ( '' ) ;
#60 = EDGE_LOOP ( 'NONE', ( #42 ) ) ;
#61 = PERSON ( 'UNSPECIFIED', 'UNSPECIFIED', 'UNSPECIFIED', ('UNSPECIFIED'), ('UNSPECIFIED'), ('UNSPECIFIED') ) ;
#62 = ORIENTED_EDGE ( 'NONE', *, *, #278, .F. ) ;
#63 = FACE_OUTER_BOUND ( 'NONE', #165, .T. ) ;
#64 = FACE_OUTER_BOUND ( 'NONE', #101, .T. ) ;
#65 = DIRECTION ( 'NONE',  ( -3.491481338843133355E-15, 1.224646799147353207E-16, -1.000000000000000000 ) ) ;
#66 = DIRECTION ( 'NONE',  ( 4.275831445896958607E-31, 1.000000000000000000, 1.224646799147353454E-16 ) ) ;
#67 = DIRECTION ( 'NONE',  ( -3.491481338843133355E-15, 1.224646799147353207E-16, -1.000000000000000000 ) ) ;
#68 = CARTESIAN_POINT ( 'NONE',  ( 2.444036937190193601E-13, 1.199999999999992628, 70.00000000000000000 ) ) ;
#69 = VERTEX_POINT ( 'NONE', #189 ) ;
#70 = CIRCLE ( 'NONE', #243, 1.500000000000001110 ) ;
#71 = APPROVAL_PERSON_ORGANIZATION ( #196, #227, #59 ) ;
#72 = VERTEX_POINT ( 'NONE', #261 ) ;
#73 = EDGE_CURVE ( 'NONE', #94, #94, #131, .T. ) ;
#74 = DIRECTION ( 'NONE',  ( -3.491481338843133355E-15, 1.224646799147353207E-16, -1.000000000000000000 ) ) ;
#75 = ADVANCED_FACE ( 'NONE', ( #86 ), #150, .T. ) ;
#76 = APPROVAL_STATUS ( 'not_yet_approved' ) ;
#77 = ORIENTED_EDGE ( 'NONE', *, *, #289, .T. ) ;
#78 = EDGE_LOOP ( 'NONE', ( #223 ) ) ;
#79 = EDGE_LOOP ( 'NONE', ( #149 ) ) ;
#80 = AXIS2_PLACEMENT_3D ( 'NONE', #145, #65, #155 ) ;
#81 = EDGE_LOOP ( 'NONE', ( #104 ) ) ;
#82 = ORIENTED_EDGE ( 'NONE', *, *, #54, .F. ) ;
#83 = DIRECTION ( 'NONE',  ( 0.0000000000000000000, 1.000000000000000000, 0.0000000000000000000 ) ) ;
#84 = ADVANCED_FACE ( 'NONE', ( #44, #260 ), #117, .T. ) ;
#85 = DIRECTION ( 'NONE',  ( -4.275831445896958607E-31, -1.000000000000000000, -1.224646799147353207E-16 ) ) ;
#86 = FACE_OUTER_BOUND ( 'NONE', #197, .T. ) ;
#87 = FACE_OUTER_BOUND ( 'NONE', #172, .T. ) ;
#88 = SHAPE_DEFINITION_REPRESENTATION ( #246, #181 ) ;
#89 = CIRCLE ( 'NONE', #162, 1.200000000000001510 ) ;
#90 = CC_DESIGN_APPROVAL ( #227, ( #206 ) ) ;
#91 = FACE_BOUND ( 'NONE', #123, .T. ) ;
#92 = PERSON_AND_ORGANIZATION_ROLE ( 'classification_officer' ) ;
#93 = CC_DESIGN_SECURITY_CLASSIFICATION ( #179, ( #286 ) ) ;
#94 = VERTEX_POINT ( 'NONE', #190 ) ;
#95 = PERSON_AND_ORGANIZATION_ROLE ( 'creator' ) ;
#96 = APPROVAL ( #264, 'UNSPECIFIED' ) ;
#97 = PERSON_AND_ORGANIZATION ( #61, #103 ) ;
#98 = EDGE_LOOP ( 'NONE', ( #298 ) ) ;
#99 = APPLICATION_PROTOCOL_DEFINITION ( 'international standard', 'config_control_design', 1994, #216 ) ;
#100 = EDGE_LOOP ( 'NONE', ( #62 ) ) ;
#101 = EDGE_LOOP ( 'NONE', ( #277 ) ) ;
#102 = APPROVAL ( #76, 'UNSPECIFIED' ) ;
#103 = ORGANIZATION ( 'UNSPECIFIED', 'UNSPECIFIED', '' ) ;
#104 = ORIENTED_EDGE ( 'NONE', *, *, #289, .F. ) ;
#105 = DIRECTION ( 'NONE',  ( -3.491481338843133355E-15, 1.224646799147353207E-16, -1.000000000000000000 ) ) ;
#106 = DIRECTION ( 'NONE',  ( -3.491481338843133355E-15, 1.224646799147353207E-16, -1.000000000000000000 ) ) ;
#107 =( GEOMETRIC_REPRESENTATION_CONTEXT ( 3 ) GLOBAL_UNCERTAINTY_ASSIGNED_CONTEXT ( ( #135 ) ) GLOBAL_UNIT_ASSIGNED_CONTEXT ( ( #213, #293, #294 ) ) REPRESENTATION_CONTEXT ( 'NONE', 'WORKASPACE' ) );
#108 = FACE_OUTER_BOUND ( 'NONE', #81, .T. ) ;
#109 = MANIFOLD_SOLID_BREP ( 'Corps-Déplacer/Copier1[2]', #280 ) ;
#110 = DIRECTION ( 'NONE',  ( 0.0000000000000000000, 1.000000000000000000, 0.0000000000000000000 ) ) ;
#111 = FACE_OUTER_BOUND ( 'NONE', #296, .T. ) ;
#112 = AXIS2_PLACEMENT_3D ( 'NONE', #26, #106, #231 ) ;
#113 = FACE_OUTER_BOUND ( 'NONE', #272, .T. ) ;
#114 = CC_DESIGN_DATE_AND_TIME_ASSIGNMENT ( #161, #158, ( #179 ) ) ;
#115 = DATE_AND_TIME ( #235, #122 ) ;
#116 = CARTESIAN_POINT ( 'NONE',  ( 2.444036937190193601E-13, 8.998558695971026591E-33, 70.00000000000000000 ) ) ;
#117 = CONICAL_SURFACE ( 'NONE', #217, 1.684999999999989173, 0.7853981633974500554 ) ;
#118 = DIRECTION ( 'NONE',  ( 0.0000000000000000000, 1.000000000000000000, 0.0000000000000000000 ) ) ;
#119 = ADVANCED_FACE ( 'NONE', ( #108, #30 ), #283, .T. ) ;
#120 = PLANE ( 'NONE',  #46 ) ;
#121 = CALENDAR_DATE ( 2021, 2, 12 ) ;
#122 = LOCAL_TIME ( 10, 36, 8.000000000000000000, #184 ) ;
#123 = EDGE_LOOP ( 'NONE', ( #77 ) ) ;
#124 = EDGE_CURVE ( 'NONE', #69, #69, #70, .T. ) ;
#125 = PERSON_AND_ORGANIZATION ( #61, #103 ) ;
#126 = ORIENTED_EDGE ( 'NONE', *, *, #9, .T. ) ;
#127 = AXIS2_PLACEMENT_3D ( 'NONE', #281, #228, #47 ) ;
#128 = ORIENTED_EDGE ( 'NONE', *, *, #124, .T. ) ;
#129 = DIRECTION ( 'NONE',  ( -3.491481338843133355E-15, 1.224646799147353207E-16, -1.000000000000000000 ) ) ;
#130 = DIRECTION ( 'NONE',  ( 4.275831445896958607E-31, 1.000000000000000000, 1.224646799147353207E-16 ) ) ;
#131 = CIRCLE ( 'NONE', #138, 1.499999999999992895 ) ;
#132 = DIRECTION ( 'NONE',  ( 4.275831445896958607E-31, 1.000000000000000000, 1.224646799147353207E-16 ) ) ;
#133 = CYLINDRICAL_SURFACE ( 'NONE', #250, 1.934999999999990061 ) ;
#134 = PLANE ( 'NONE',  #212 ) ;
#135 = UNCERTAINTY_MEASURE_WITH_UNIT (LENGTH_MEASURE( 1.000000000000000082E-05 ), #213, 'distance_accuracy_value', 'NONE');
#136 = FACE_OUTER_BOUND ( 'NONE', #19, .T. ) ;
#137 = DIRECTION ( 'NONE',  ( 3.491481338843133355E-15, -1.224646799147353207E-16, 1.000000000000000000 ) ) ;
#138 = AXIS2_PLACEMENT_3D ( 'NONE', #4, #3, #110 ) ;
#139 = COORDINATED_UNIVERSAL_TIME_OFFSET ( 1, 0, .AHEAD. ) ;
#140 = CARTESIAN_POINT ( 'NONE',  ( 3.491481338843133355E-14, 1.934999999999988729, 10.00000000000000000 ) ) ;
#141 = APPROVAL_PERSON_ORGANIZATION ( #125, #102, #269 ) ;
#142 = DATE_AND_TIME ( #240, #21 ) ;
#143 = CARTESIAN_POINT ( 'NONE',  ( -7.204775986336329421E-31, 2.527095233785214031E-32, -2.063529856563276833E-16 ) ) ;
#144 = PRODUCT ( '321613', '321613', '', ( #244 ) ) ;
#145 = CARTESIAN_POINT ( 'NONE',  ( 2.444036937190193601E-13, -8.572527594031472993E-15, 70.00000000000000000 ) ) ;
#146 = DATE_AND_TIME ( #169, #188 ) ;
#147 = CARTESIAN_POINT ( 'NONE',  ( 0.0000000000000000000, 0.0000000000000000000, 0.0000000000000000000 ) ) ;
#148 = ADVANCED_FACE ( 'NONE', ( #225 ), #25, .F. ) ;
#149 = ORIENTED_EDGE ( 'NONE', *, *, #73, .F. ) ;
#150 = PLANE ( 'NONE',  #15 ) ;
#151 = FACE_OUTER_BOUND ( 'NONE', #251, .T. ) ;
#152 = APPROVAL_DATE_TIME ( #24, #227 ) ;
#153 = CARTESIAN_POINT ( 'NONE',  ( 2.444036937190193601E-13, -8.572527594031472993E-15, 70.00000000000000000 ) ) ;
#154 = CC_DESIGN_PERSON_AND_ORGANIZATION_ASSIGNMENT ( #97, #164, ( #286 ) ) ;
#155 = DIRECTION ( 'NONE',  ( 0.0000000000000000000, 1.000000000000000000, 0.0000000000000000000 ) ) ;
#156 = FACE_OUTER_BOUND ( 'NONE', #100, .T. ) ;
#157 = DIRECTION ( 'NONE',  ( -4.275831445896958607E-31, -1.000000000000000000, -1.224646799147353207E-16 ) ) ;
#158 = DATE_TIME_ROLE ( 'classification_date' ) ;
#159 = DATE_TIME_ROLE ( 'creation_date' ) ;
#160 = CARTESIAN_POINT ( 'NONE',  ( 3.491481338843133355E-14, 1.934999999999988729, 10.00000000000000000 ) ) ;
#161 = DATE_AND_TIME ( #191, #224 ) ;
#162 = AXIS2_PLACEMENT_3D ( 'NONE', #153, #175, #83 ) ;
#163 = FACE_OUTER_BOUND ( 'NONE', #60, .T. ) ;
#164 = PERSON_AND_ORGANIZATION_ROLE ( 'creator' ) ;
#165 = EDGE_LOOP ( 'NONE', ( #1 ) ) ;
#166 = CC_DESIGN_PERSON_AND_ORGANIZATION_ASSIGNMENT ( #192, #95, ( #206 ) ) ;
#167 = PERSON_AND_ORGANIZATION ( #61, #103 ) ;
#168 = DIRECTION ( 'NONE',  ( -3.491481338843133355E-15, 1.224646799147353207E-16, -1.000000000000000000 ) ) ;
#169 = CALENDAR_DATE ( 2021, 2, 12 ) ;
#170 = ORIENTED_EDGE ( 'NONE', *, *, #22, .F. ) ;
#171 = AXIS2_PLACEMENT_3D ( 'NONE', #210, #53, #118 ) ;
#172 = EDGE_LOOP ( 'NONE', ( #170 ) ) ;
#173 = DIRECTION ( 'NONE',  ( 0.0000000000000000000, 1.000000000000000000, 0.0000000000000000000 ) ) ;
#174 = AXIS2_PLACEMENT_3D ( 'NONE', #202, #67, #66 ) ;
#175 = DIRECTION ( 'NONE',  ( -3.491481338843133355E-15, 1.224646799147353207E-16, -1.000000000000000000 ) ) ;
#176 = ADVANCED_FACE ( 'NONE', ( #156, #2 ), #267, .T. ) ;
#177 = DIRECTION ( 'NONE',  ( -3.491481338843133355E-15, 1.224646799147353207E-16, -1.000000000000000000 ) ) ;
#178 = CARTESIAN_POINT ( 'NONE',  ( -3.602387993168164710E-31, 1.263547616892607015E-32, -1.031764928281638417E-16 ) ) ;
#179 = SECURITY_CLASSIFICATION ( '', '', #17 ) ;
#180 = DIRECTION ( 'NONE',  ( 0.0000000000000000000, 1.000000000000000000, 0.0000000000000000000 ) ) ;
#181 = ADVANCED_BREP_SHAPE_REPRESENTATION ( '321613', ( #20, #109, #36 ), #107 ) ;
#182 = PRODUCT_RELATED_PRODUCT_CATEGORY ( 'detail', '', ( #144 ) ) ;
#183 = CARTESIAN_POINT ( 'NONE',  ( 0.0000000000000000000, 1.684999999999989173, 0.0000000000000000000 ) ) ;
#184 = COORDINATED_UNIVERSAL_TIME_OFFSET ( 1, 0, .AHEAD. ) ;
#185 = CARTESIAN_POINT ( 'NONE',  ( 2.433562493173664138E-13, 1.499999999999992673, 69.70000000000001705 ) ) ;
#186 = APPROVAL_DATE_TIME ( #115, #96 ) ;
#187 = CIRCLE ( 'NONE', #80, 1.200000000000001510 ) ;
#188 = LOCAL_TIME ( 10, 36, 8.000000000000000000, #55 ) ;
#189 = CARTESIAN_POINT ( 'NONE',  ( 2.433562493173664138E-13, 1.499999999999992673, 69.70000000000001705 ) ) ;
#190 = CARTESIAN_POINT ( 'NONE',  ( 3.754544242499269290E-14, 1.499999999999991562, 10.75344210129245326 ) ) ;
#191 = CALENDAR_DATE ( 2021, 2, 12 ) ;
#192 = PERSON_AND_ORGANIZATION ( #61, #103 ) ;
#193 = EDGE_LOOP ( 'NONE', ( #40 ) ) ;
#194 = EDGE_CURVE ( 'NONE', #237, #237, #89, .T. ) ;
#195 = CARTESIAN_POINT ( 'NONE',  ( 3.491481338843133355E-14, -1.224646799147353256E-15, 10.00000000000000000 ) ) ;
#196 = PERSON_AND_ORGANIZATION ( #61, #103 ) ;
#197 = EDGE_LOOP ( 'NONE', ( #126 ) ) ;
#198 = ADVANCED_FACE ( 'NONE', ( #111, #64 ), #133, .T. ) ;
#199 = AXIS2_PLACEMENT_3D ( 'NONE', #259, #48, #130 ) ;
#200 = CARTESIAN_POINT ( 'NONE',  ( 2.433562493173664138E-13, -8.535788190057053710E-15, 69.70000000000001705 ) ) ;
#201 = APPLICATION_CONTEXT ( 'configuration controlled 3d designs of mechanical parts and assemblies' ) ;
#202 = CARTESIAN_POINT ( 'NONE',  ( 0.0000000000000000000, 0.0000000000000000000, 0.0000000000000000000 ) ) ;
#203 = CARTESIAN_POINT ( 'NONE',  ( 3.491481338843133355E-14, -1.224646799147353256E-15, 10.00000000000000000 ) ) ;
#204 = DIRECTION ( 'NONE',  ( -3.491481338843133355E-15, 1.224646799147353207E-16, -1.000000000000000000 ) ) ;
#205 = DIRECTION ( 'NONE',  ( 0.0000000000000000000, 1.000000000000000000, 0.0000000000000000000 ) ) ;
#206 = PRODUCT_DEFINITION ( 'UNKNOWN', '', #286, #208 ) ;
#207 = DIRECTION ( 'NONE',  ( 0.0000000000000000000, 1.000000000000000000, 0.0000000000000000000 ) ) ;
#208 = DESIGN_CONTEXT ( 'detailed design', #216, 'design' ) ;
#209 = VERTEX_POINT ( 'NONE', #68 ) ;
#210 = CARTESIAN_POINT ( 'NONE',  ( 3.491481338843133355E-14, -1.224646799147353256E-15, 10.00000000000000000 ) ) ;
#211 = CC_DESIGN_DATE_AND_TIME_ASSIGNMENT ( #146, #159, ( #206 ) ) ;
#212 = AXIS2_PLACEMENT_3D ( 'NONE', #288, #137, #157 ) ;
#213 =( LENGTH_UNIT ( ) NAMED_UNIT ( * ) SI_UNIT ( .MILLI., .METRE. ) );
#214 = DIRECTION ( 'NONE',  ( 4.275831445896958607E-31, 1.000000000000000000, 1.224646799147353207E-16 ) ) ;
#215 = APPROVAL_DATE_TIME ( #142, #102 ) ;
#216 = APPLICATION_CONTEXT ( 'configuration controlled 3d designs of mechanical parts and assemblies' ) ;
#217 = AXIS2_PLACEMENT_3D ( 'NONE', #287, #284, #85 ) ;
#218 = CC_DESIGN_APPROVAL ( #102, ( #286 ) ) ;
#219 = DIRECTION ( 'NONE',  ( -3.491481338843133355E-15, 1.224646799147353207E-16, -1.000000000000000000 ) ) ;
#220 = EDGE_LOOP ( 'NONE', ( #249 ) ) ;
#221 = ADVANCED_FACE ( 'NONE', ( #63, #253 ), #276, .T. ) ;
#222 = CLOSED_SHELL ( 'NONE', ( #266, #57, #119, #221, #299 ) ) ;
#223 = ORIENTED_EDGE ( 'NONE', *, *, #28, .T. ) ;
#224 = LOCAL_TIME ( 10, 36, 8.000000000000000000, #11 ) ;
#225 = FACE_OUTER_BOUND ( 'NONE', #301, .T. ) ;
#226 = DIRECTION ( 'NONE',  ( 0.0000000000000000000, 1.000000000000000000, 0.0000000000000000000 ) ) ;
#227 = APPROVAL ( #300, 'UNSPECIFIED' ) ;
#228 = DIRECTION ( 'NONE',  ( -3.491481338843133355E-15, 1.224646799147353207E-16, -1.000000000000000000 ) ) ;
#229 = CIRCLE ( 'NONE', #233, 1.934999999999990061 ) ;
#230 = CC_DESIGN_APPROVAL ( #96, ( #179 ) ) ;
#231 = DIRECTION ( 'NONE',  ( 3.981250531033066192E-31, 1.000000000000000000, 1.120622400501819139E-16 ) ) ;
#232 = CARTESIAN_POINT ( 'NONE',  ( 3.491481338843133355E-14, -1.224646799147353256E-15, 10.00000000000000000 ) ) ;
#233 = AXIS2_PLACEMENT_3D ( 'NONE', #195, #168, #273 ) ;
#234 = CIRCLE ( 'NONE', #112, 1.934999999999990061 ) ;
#235 = CALENDAR_DATE ( 2021, 2, 12 ) ;
#236 = DIRECTION ( 'NONE',  ( 4.275831445896958607E-31, 1.000000000000000000, 1.224646799147353454E-16 ) ) ;
#237 = VERTEX_POINT ( 'NONE', #265 ) ;
#238 = CIRCLE ( 'NONE', #256, 1.684999999999989173 ) ;
#239 = CIRCLE ( 'NONE', #12, 1.500000000000001110 ) ;
#240 = CALENDAR_DATE ( 2021, 2, 12 ) ;
#241 = EDGE_CURVE ( 'NONE', #72, #72, #234, .T. ) ;
#242 = APPROVAL_ROLE ( '' ) ;
#243 = AXIS2_PLACEMENT_3D ( 'NONE', #200, #105, #173 ) ;
#244 = MECHANICAL_CONTEXT ( 'NONE', #201, 'mechanical' ) ;
#245 = DIRECTION ( 'NONE',  ( 4.275831445896958607E-31, 1.000000000000000000, 1.224646799147353207E-16 ) ) ;
#246 = PRODUCT_DEFINITION_SHAPE ( 'NONE', 'NONE',  #206 ) ;
#247 = CC_DESIGN_PERSON_AND_ORGANIZATION_ASSIGNMENT ( #167, #92, ( #179 ) ) ;
#248 = DIRECTION ( 'NONE',  ( 0.0000000000000000000, 0.0000000000000000000, 1.000000000000000000 ) ) ;
#249 = ORIENTED_EDGE ( 'NONE', *, *, #73, .T. ) ;
#250 = AXIS2_PLACEMENT_3D ( 'NONE', #27, #255, #132 ) ;
#251 = EDGE_LOOP ( 'NONE', ( #303 ) ) ;
#252 = CC_DESIGN_PERSON_AND_ORGANIZATION_ASSIGNMENT ( #37, #18, ( #144 ) ) ;
#253 = FACE_BOUND ( 'NONE', #98, .T. ) ;
#254 = CARTESIAN_POINT ( 'NONE',  ( 0.0000000000000000000, 0.0000000000000000000, 0.0000000000000000000 ) ) ;
#255 = DIRECTION ( 'NONE',  ( -3.491481338843133355E-15, 1.224646799147353207E-16, -1.000000000000000000 ) ) ;
#256 = AXIS2_PLACEMENT_3D ( 'NONE', #143, #219, #245 ) ;
#257 = ADVANCED_FACE ( 'NONE', ( #282, #151 ), #29, .T. ) ;
#258 = CONICAL_SURFACE ( 'NONE', #171, 1.934999999999990061, 0.5235987755983007030 ) ;
#259 = CARTESIAN_POINT ( 'NONE',  ( 2.444036937190193601E-13, -8.572527594031472993E-15, 70.00000000000000000 ) ) ;
#260 = FACE_BOUND ( 'NONE', #38, .T. ) ;
#261 = CARTESIAN_POINT ( 'NONE',  ( 8.728703347107833388E-16, 1.934999999999990061, 0.2500000000000000000 ) ) ;
#262 = CIRCLE ( 'NONE', #16, 1.499999999999992895 ) ;
#263 = VERTEX_POINT ( 'NONE', #185 ) ;
#264 = APPROVAL_STATUS ( 'not_yet_approved' ) ;
#265 = CARTESIAN_POINT ( 'NONE',  ( 2.444036937190193601E-13, 1.199999999999992628, 70.00000000000000000 ) ) ;
#266 = ADVANCED_FACE ( 'NONE', ( #136 ), #134, .F. ) ;
#267 = CONICAL_SURFACE ( 'NONE', #127, 1.200000000000001510, 0.7853981633974566057 ) ;
#268 = APPROVAL_PERSON_ORGANIZATION ( #56, #96, #242 ) ;
#269 = APPROVAL_ROLE ( '' ) ;
#270 = PERSON_AND_ORGANIZATION_ROLE ( 'design_supplier' ) ;
#271 = DIRECTION ( 'NONE',  ( 1.000000000000000000, 0.0000000000000000000, 0.0000000000000000000 ) ) ;
#272 = EDGE_LOOP ( 'NONE', ( #82 ) ) ;
#273 = DIRECTION ( 'NONE',  ( 0.0000000000000000000, 1.000000000000000000, 0.0000000000000000000 ) ) ;
#274 = CONICAL_SURFACE ( 'NONE', #41, 1.934999999999990061, 0.5235987755983007030 ) ;
#275 = COORDINATED_UNIVERSAL_TIME_OFFSET ( 1, 0, .AHEAD. ) ;
#276 = CONICAL_SURFACE ( 'NONE', #32, 1.200000000000001510, 0.7853981633974566057 ) ;
#277 = ORIENTED_EDGE ( 'NONE', *, *, #241, .F. ) ;
#278 = EDGE_CURVE ( 'NONE', #263, #263, #239, .T. ) ;
#279 = ORIENTED_EDGE ( 'NONE', *, *, #22, .T. ) ;
#280 = CLOSED_SHELL ( 'NONE', ( #285, #198, #84, #75, #148, #176, #257 ) ) ;
#281 = CARTESIAN_POINT ( 'NONE',  ( 2.444036937190193601E-13, -8.572527594031472993E-15, 70.00000000000000000 ) ) ;
#282 = FACE_OUTER_BOUND ( 'NONE', #79, .T. ) ;
#283 = CYLINDRICAL_SURFACE ( 'NONE', #174, 1.499999999999996891 ) ;
#284 = DIRECTION ( 'NONE',  ( 3.491481338843133355E-15, -1.224646799147353207E-16, 1.000000000000000000 ) ) ;
#285 = ADVANCED_FACE ( 'NONE', ( #34, #113 ), #258, .T. ) ;
#286 = PRODUCT_DEFINITION_FORMATION_WITH_SPECIFIED_SOURCE ( 'ANY', '', #144, .NOT_KNOWN. ) ;
#287 = CARTESIAN_POINT ( 'NONE',  ( -7.204775986336329421E-31, 2.527095233785214031E-32, -2.063529856563276833E-16 ) ) ;
#288 = CARTESIAN_POINT ( 'NONE',  ( 3.491481338843133355E-14, 1.451017589725338122E-32, 10.00000000000000000 ) ) ;
#289 = EDGE_CURVE ( 'NONE', #35, #35, #262, .T. ) ;
#290 = VERTEX_POINT ( 'NONE', #140 ) ;
#291 = LOCAL_TIME ( 10, 36, 8.000000000000000000, #275 ) ;
#292 = CARTESIAN_POINT ( 'NONE',  ( 3.754544242499269290E-14, -1.316916844916419088E-15, 10.75344210129245326 ) ) ;
#293 =( NAMED_UNIT ( * ) PLANE_ANGLE_UNIT ( ) SI_UNIT ( $, .RADIAN. ) );
#294 =( NAMED_UNIT ( * ) SI_UNIT ( $, .STERADIAN. ) SOLID_ANGLE_UNIT ( ) );
#295 = PERSON_AND_ORGANIZATION ( #61, #103 ) ;
#296 = EDGE_LOOP ( 'NONE', ( #39 ) ) ;
#297 = APPLICATION_PROTOCOL_DEFINITION ( 'international standard', 'config_control_design', 1994, #201 ) ;
#298 = ORIENTED_EDGE ( 'NONE', *, *, #194, .T. ) ;
#299 = ADVANCED_FACE ( 'NONE', ( #163 ), #120, .F. ) ;
#300 = APPROVAL_STATUS ( 'not_yet_approved' ) ;
#301 = EDGE_LOOP ( 'NONE', ( #58 ) ) ;
#302 = AXIS2_PLACEMENT_3D ( 'NONE', #203, #45, #205 ) ;
#303 = ORIENTED_EDGE ( 'NONE', *, *, #278, .T. ) ;
ENDSEC;
END-ISO-10303-21;
