ISO-10303-21;
HEADER;
FILE_DESCRIPTION (( 'STEP AP203' ),
    '1' );
FILE_NAME ('321612.step',
    '2021-12-02T09:36:08',
    ( '' ),
    ( '' ),
    'SwSTEP 2.0',
    'SolidWorks 2019',
    '' );
FILE_SCHEMA (( 'CONFIG_CONTROL_DESIGN' ));
ENDSEC;

DATA;
#1 = DIRECTION ( 'NONE',  ( 0.0000000000000000000, 1.000000000000000000, 0.0000000000000000000 ) ) ;
#2 = EDGE_LOOP ( 'NONE', ( #240 ) ) ;
#3 = EDGE_CURVE ( 'NONE', #152, #152, #138, .T. ) ;
#4 =( NAMED_UNIT ( * ) SI_UNIT ( $, .STERADIAN. ) SOLID_ANGLE_UNIT ( ) );
#5 = LOCAL_TIME ( 10, 36, 8.000000000000000000, #224 ) ;
#6 = CALENDAR_DATE ( 2021, 2, 12 ) ;
#7 = EDGE_CURVE ( 'NONE', #37, #37, #187, .T. ) ;
#8 = FACE_BOUND ( 'NONE', #282, .T. ) ;
#9 = AXIS2_PLACEMENT_3D ( 'NONE', #175, #172, #271 ) ;
#10 = APPROVAL_ROLE ( '' ) ;
#11 = ADVANCED_FACE ( 'NONE', ( #52 ), #266, .T. ) ;
#12 = DIRECTION ( 'NONE',  ( 0.0000000000000000000, 1.000000000000000000, 0.0000000000000000000 ) ) ;
#13 = CARTESIAN_POINT ( 'NONE',  ( 3.491481338843133355E-14, -1.224646799147353256E-15, 10.00000000000000000 ) ) ;
#14 = FACE_OUTER_BOUND ( 'NONE', #17, .T. ) ;
#15 = DIRECTION ( 'NONE',  ( -4.275831445896958607E-31, -1.000000000000000000, -1.224646799147353207E-16 ) ) ;
#16 = DIRECTION ( 'NONE',  ( 0.0000000000000000000, 1.000000000000000000, 0.0000000000000000000 ) ) ;
#17 = EDGE_LOOP ( 'NONE', ( #67 ) ) ;
#18 = AXIS2_PLACEMENT_3D ( 'NONE', #238, #253, #108 ) ;
#19 = CARTESIAN_POINT ( 'NONE',  ( 2.444036937190193601E-13, 8.998558695971026591E-33, 70.00000000000000000 ) ) ;
#20 = EDGE_LOOP ( 'NONE', ( #140 ) ) ;
#21 = ORIENTED_EDGE ( 'NONE', *, *, #298, .F. ) ;
#22 = CIRCLE ( 'NONE', #217, 1.500000000000001110 ) ;
#23 = DATE_AND_TIME ( #6, #5 ) ;
#24 = APPROVAL_PERSON_ORGANIZATION ( #174, #122, #10 ) ;
#25 = ORIENTED_EDGE ( 'NONE', *, *, #182, .T. ) ;
#26 = DIRECTION ( 'NONE',  ( 0.0000000000000000000, 1.000000000000000000, 0.0000000000000000000 ) ) ;
#27 = CARTESIAN_POINT ( 'NONE',  ( 2.433562493173664138E-13, -8.535788190057053710E-15, 69.70000000000001705 ) ) ;
#28 = AXIS2_PLACEMENT_3D ( 'NONE', #202, #50, #265 ) ;
#29 = FACE_BOUND ( 'NONE', #31, .T. ) ;
#30 = AXIS2_PLACEMENT_3D ( 'NONE', #256, #103, #127 ) ;
#31 = EDGE_LOOP ( 'NONE', ( #87 ) ) ;
#32 = DIRECTION ( 'NONE',  ( -3.491481338843133355E-15, 1.224646799147353207E-16, -1.000000000000000000 ) ) ;
#33 = DIRECTION ( 'NONE',  ( 0.0000000000000000000, 1.000000000000000000, 0.0000000000000000000 ) ) ;
#34 = CARTESIAN_POINT ( 'NONE',  ( 3.751520530962992416E-14, 1.499999999999991562, 10.74478184725461105 ) ) ;
#35 = PERSON ( 'UNSPECIFIED', 'UNSPECIFIED', 'UNSPECIFIED', ('UNSPECIFIED'), ('UNSPECIFIED'), ('UNSPECIFIED') ) ;
#36 = ORIENTED_EDGE ( 'NONE', *, *, #279, .T. ) ;
#37 = VERTEX_POINT ( 'NONE', #34 ) ;
#38 = EDGE_LOOP ( 'NONE', ( #222 ) ) ;
#39 = AXIS2_PLACEMENT_3D ( 'NONE', #161, #210, #260 ) ;
#40 = CYLINDRICAL_SURFACE ( 'NONE', #39, 1.499999999999996891 ) ;
#41 = EDGE_LOOP ( 'NONE', ( #113 ) ) ;
#42 = EDGE_CURVE ( 'NONE', #79, #79, #22, .T. ) ;
#43 = CARTESIAN_POINT ( 'NONE',  ( 3.491481338843133355E-14, 1.929999999999988614, 10.00000000000000000 ) ) ;
#44 = ORIENTED_EDGE ( 'NONE', *, *, #7, .T. ) ;
#45 = AXIS2_PLACEMENT_3D ( 'NONE', #19, #57, #209 ) ;
#46 = ADVANCED_FACE ( 'NONE', ( #74, #142 ), #114, .T. ) ;
#47 = EDGE_CURVE ( 'NONE', #278, #278, #226, .T. ) ;
#48 = DIRECTION ( 'NONE',  ( 4.275831445896958607E-31, 1.000000000000000000, 1.224646799147353207E-16 ) ) ;
#49 = DIRECTION ( 'NONE',  ( 0.0000000000000000000, 1.000000000000000000, 0.0000000000000000000 ) ) ;
#50 = DIRECTION ( 'NONE',  ( -3.491481338843133355E-15, 1.224646799147353207E-16, -1.000000000000000000 ) ) ;
#51 = PERSON_AND_ORGANIZATION_ROLE ( 'design_owner' ) ;
#52 = FACE_OUTER_BOUND ( 'NONE', #41, .T. ) ;
#53 = AXIS2_PLACEMENT_3D ( 'NONE', #96, #118, #15 ) ;
#54 = CC_DESIGN_DATE_AND_TIME_ASSIGNMENT ( #244, #196, ( #302 ) ) ;
#55 = FACE_OUTER_BOUND ( 'NONE', #20, .T. ) ;
#56 = PERSON_AND_ORGANIZATION ( #35, #93 ) ;
#57 = DIRECTION ( 'NONE',  ( -3.491481338843133355E-15, 1.224646799147353207E-16, -1.000000000000000000 ) ) ;
#58 = ADVANCED_FACE ( 'NONE', ( #293, #230 ), #204, .T. ) ;
#59 = AXIS2_PLACEMENT_3D ( 'NONE', #133, #208, #16 ) ;
#60 = ORIENTED_EDGE ( 'NONE', *, *, #42, .F. ) ;
#61 = CC_DESIGN_APPROVAL ( #288, ( #193 ) ) ;
#62 = CC_DESIGN_PERSON_AND_ORGANIZATION_ASSIGNMENT ( #85, #135, ( #166 ) ) ;
#63 = EDGE_LOOP ( 'NONE', ( #25 ) ) ;
#64 = VERTEX_POINT ( 'NONE', #43 ) ;
#65 = ORIENTED_EDGE ( 'NONE', *, *, #7, .F. ) ;
#66 = ADVANCED_FACE ( 'NONE', ( #247, #29 ), #211, .T. ) ;
#67 = ORIENTED_EDGE ( 'NONE', *, *, #3, .F. ) ;
#68 = DATE_AND_TIME ( #97, #162 ) ;
#69 = DIRECTION ( 'NONE',  ( -3.491481338843133355E-15, 1.224646799147353207E-16, -1.000000000000000000 ) ) ;
#70 = APPLICATION_CONTEXT ( 'configuration controlled 3d designs of mechanical parts and assemblies' ) ;
#71 = PERSON_AND_ORGANIZATION_ROLE ( 'classification_officer' ) ;
#72 = DIRECTION ( 'NONE',  ( 4.275831445896958607E-31, 1.000000000000000000, 1.224646799147353454E-16 ) ) ;
#73 = PRODUCT_DEFINITION_SHAPE ( 'NONE', 'NONE',  #302 ) ;
#74 = FACE_OUTER_BOUND ( 'NONE', #163, .T. ) ;
#75 = DIRECTION ( 'NONE',  ( -3.491481338843133355E-15, 1.224646799147353207E-16, -1.000000000000000000 ) ) ;
#76 = APPROVAL_ROLE ( '' ) ;
#77 = FACE_BOUND ( 'NONE', #63, .T. ) ;
#78 = DIRECTION ( 'NONE',  ( 4.275831445896958607E-31, 1.000000000000000000, 1.224646799147353207E-16 ) ) ;
#79 = VERTEX_POINT ( 'NONE', #233 ) ;
#80 = CIRCLE ( 'NONE', #104, 1.929999999999989946 ) ;
#81 = CIRCLE ( 'NONE', #280, 1.679999999999989058 ) ;
#82 = CARTESIAN_POINT ( 'NONE',  ( 3.751520530962992416E-14, -1.315856269677694241E-15, 10.74478184725461105 ) ) ;
#83 = EDGE_LOOP ( 'NONE', ( #60 ) ) ;
#84 = VERTEX_POINT ( 'NONE', #216 ) ;
#85 = PERSON_AND_ORGANIZATION ( #35, #93 ) ;
#86 = CC_DESIGN_DATE_AND_TIME_ASSIGNMENT ( #68, #203, ( #193 ) ) ;
#87 = ORIENTED_EDGE ( 'NONE', *, *, #47, .T. ) ;
#88 = LOCAL_TIME ( 10, 36, 8.000000000000000000, #183 ) ;
#89 = ORIENTED_EDGE ( 'NONE', *, *, #279, .F. ) ;
#90 = SHAPE_DEFINITION_REPRESENTATION ( #73, #167 ) ;
#91 = COORDINATED_UNIVERSAL_TIME_OFFSET ( 1, 0, .AHEAD. ) ;
#92 = UNCERTAINTY_MEASURE_WITH_UNIT (LENGTH_MEASURE( 1.000000000000000082E-05 ), #242, 'distance_accuracy_value', 'NONE');
#93 = ORGANIZATION ( 'UNSPECIFIED', 'UNSPECIFIED', '' ) ;
#94 = CARTESIAN_POINT ( 'NONE',  ( 0.0000000000000000000, 1.679999999999989058, 0.0000000000000000000 ) ) ;
#95 = CALENDAR_DATE ( 2021, 2, 12 ) ;
#96 = CARTESIAN_POINT ( 'NONE',  ( 3.491481338843133355E-14, 1.447268190268683177E-32, 10.00000000000000000 ) ) ;
#97 = CALENDAR_DATE ( 2021, 2, 12 ) ;
#98 = CARTESIAN_POINT ( 'NONE',  ( 2.444036937190193601E-13, -8.572527594031472993E-15, 70.00000000000000000 ) ) ;
#99 = FACE_OUTER_BOUND ( 'NONE', #215, .T. ) ;
#100 = CARTESIAN_POINT ( 'NONE',  ( 3.491481338843133355E-14, -1.224646799147353256E-15, 10.00000000000000000 ) ) ;
#101 = MECHANICAL_CONTEXT ( 'NONE', #70, 'mechanical' ) ;
#102 = CARTESIAN_POINT ( 'NONE',  ( 0.0000000000000000000, 0.0000000000000000000, 0.0000000000000000000 ) ) ;
#103 = DIRECTION ( 'NONE',  ( -3.491481338843133355E-15, 1.224646799147353207E-16, -1.000000000000000000 ) ) ;
#104 = AXIS2_PLACEMENT_3D ( 'NONE', #13, #32, #148 ) ;
#105 = EDGE_CURVE ( 'NONE', #107, #107, #165, .T. ) ;
#106 = DIRECTION ( 'NONE',  ( -3.491481338843133355E-15, 1.224646799147353207E-16, -1.000000000000000000 ) ) ;
#107 = VERTEX_POINT ( 'NONE', #214 ) ;
#108 = DIRECTION ( 'NONE',  ( 4.275831445896958607E-31, 1.000000000000000000, 1.224646799147353207E-16 ) ) ;
#109 = AXIS2_PLACEMENT_3D ( 'NONE', #27, #69, #12 ) ;
#110 = APPROVAL_PERSON_ORGANIZATION ( #272, #188, #76 ) ;
#111 = EDGE_LOOP ( 'NONE', ( #225 ) ) ;
#112 = CARTESIAN_POINT ( 'NONE',  ( 3.491481338843133355E-14, -1.224646799147353256E-15, 10.00000000000000000 ) ) ;
#113 = ORIENTED_EDGE ( 'NONE', *, *, #298, .T. ) ;
#114 = CONICAL_SURFACE ( 'NONE', #227, 1.679999999999989058, 0.7853981633974500554 ) ;
#115 = ADVANCED_FACE ( 'NONE', ( #8, #99 ), #190, .T. ) ;
#116 = CC_DESIGN_APPROVAL ( #188, ( #302 ) ) ;
#117 = CC_DESIGN_PERSON_AND_ORGANIZATION_ASSIGNMENT ( #56, #199, ( #302 ) ) ;
#118 = DIRECTION ( 'NONE',  ( 3.491481338843133355E-15, -1.224646799147353207E-16, 1.000000000000000000 ) ) ;
#119 = DATE_AND_TIME ( #95, #88 ) ;
#120 = EDGE_CURVE ( 'NONE', #84, #84, #80, .T. ) ;
#121 = ORIENTED_EDGE ( 'NONE', *, *, #120, .F. ) ;
#122 = APPROVAL ( #270, 'UNSPECIFIED' ) ;
#123 = LOCAL_TIME ( 10, 36, 8.000000000000000000, #252 ) ;
#124 = PERSON_AND_ORGANIZATION_ROLE ( 'design_supplier' ) ;
#125 = DIRECTION ( 'NONE',  ( 0.0000000000000000000, 1.000000000000000000, 0.0000000000000000000 ) ) ;
#126 = AXIS2_PLACEMENT_3D ( 'NONE', #112, #157, #33 ) ;
#127 = DIRECTION ( 'NONE',  ( 4.275831445896958607E-31, 1.000000000000000000, 1.224646799147353207E-16 ) ) ;
#128 = FACE_OUTER_BOUND ( 'NONE', #257, .T. ) ;
#129 = ORIENTED_EDGE ( 'NONE', *, *, #3, .T. ) ;
#130 = CARTESIAN_POINT ( 'NONE',  ( 2.444036937190193601E-13, 1.199999999999992628, 70.00000000000000000 ) ) ;
#131 = CIRCLE ( 'NONE', #59, 1.200000000000001510 ) ;
#132 = EDGE_LOOP ( 'NONE', ( #21 ) ) ;
#133 = CARTESIAN_POINT ( 'NONE',  ( 2.444036937190193601E-13, -8.572527594031472993E-15, 70.00000000000000000 ) ) ;
#134 = ORIENTED_EDGE ( 'NONE', *, *, #105, .T. ) ;
#135 = PERSON_AND_ORGANIZATION_ROLE ( 'creator' ) ;
#136 = DATE_AND_TIME ( #232, #285 ) ;
#137 = VERTEX_POINT ( 'NONE', #168 ) ;
#138 = CIRCLE ( 'NONE', #9, 1.929999999999989946 ) ;
#139 = ADVANCED_FACE ( 'NONE', ( #250, #294 ), #275, .T. ) ;
#140 = ORIENTED_EDGE ( 'NONE', *, *, #120, .T. ) ;
#141 = DIRECTION ( 'NONE',  ( 3.491481338843133355E-15, -1.224646799147353207E-16, 1.000000000000000000 ) ) ;
#142 = FACE_BOUND ( 'NONE', #132, .T. ) ;
#143 = COORDINATED_UNIVERSAL_TIME_OFFSET ( 1, 0, .AHEAD. ) ;
#144 = CARTESIAN_POINT ( 'NONE',  ( 2.433562493173664138E-13, -8.535788190057053710E-15, 69.70000000000001705 ) ) ;
#145 = APPROVAL_ROLE ( '' ) ;
#146 = CC_DESIGN_APPROVAL ( #122, ( #166 ) ) ;
#147 = APPLICATION_PROTOCOL_DEFINITION ( 'international standard', 'config_control_design', 1994, #267 ) ;
#148 = DIRECTION ( 'NONE',  ( 0.0000000000000000000, 1.000000000000000000, 0.0000000000000000000 ) ) ;
#149 = PERSON_AND_ORGANIZATION ( #35, #93 ) ;
#150 = PLANE ( 'NONE',  #53 ) ;
#151 = FACE_OUTER_BOUND ( 'NONE', #195, .T. ) ;
#152 = VERTEX_POINT ( 'NONE', #189 ) ;
#153 = AXIS2_PLACEMENT_3D ( 'NONE', #82, #255, #1 ) ;
#154 = MANIFOLD_SOLID_BREP ( 'Corps-Déplacer/Copier1[1]', #236 ) ;
#155 = MANIFOLD_SOLID_BREP ( 'Corps-Déplacer/Copier1[2]', #178 ) ;
#156 = DIRECTION ( 'NONE',  ( 0.0000000000000000000, 0.0000000000000000000, 1.000000000000000000 ) ) ;
#157 = DIRECTION ( 'NONE',  ( -3.491481338843133355E-15, 1.224646799147353207E-16, -1.000000000000000000 ) ) ;
#158 = ADVANCED_FACE ( 'NONE', ( #55 ), #150, .F. ) ;
#159 = EDGE_LOOP ( 'NONE', ( #89 ) ) ;
#160 = CARTESIAN_POINT ( 'NONE',  ( 2.444036937190193601E-13, -8.572527594031472993E-15, 70.00000000000000000 ) ) ;
#161 = CARTESIAN_POINT ( 'NONE',  ( 0.0000000000000000000, 0.0000000000000000000, 0.0000000000000000000 ) ) ;
#162 = LOCAL_TIME ( 10, 36, 8.000000000000000000, #143 ) ;
#163 = EDGE_LOOP ( 'NONE', ( #129 ) ) ;
#164 = VERTEX_POINT ( 'NONE', #94 ) ;
#165 = CIRCLE ( 'NONE', #109, 1.500000000000001110 ) ;
#166 = PRODUCT_DEFINITION_FORMATION_WITH_SPECIFIED_SOURCE ( 'ANY', '', #286, .NOT_KNOWN. ) ;
#167 = ADVANCED_BREP_SHAPE_REPRESENTATION ( '321612', ( #154, #155, #261 ), #262 ) ;
#168 = CARTESIAN_POINT ( 'NONE',  ( 3.751520530962992416E-14, 1.499999999999991562, 10.74478184725461105 ) ) ;
#169 = DIRECTION ( 'NONE',  ( -3.491481338843133355E-15, 1.224646799147353207E-16, -1.000000000000000000 ) ) ;
#170 = PERSON_AND_ORGANIZATION ( #35, #93 ) ;
#171 = AXIS2_PLACEMENT_3D ( 'NONE', #273, #75, #181 ) ;
#172 = DIRECTION ( 'NONE',  ( -3.491481338843133355E-15, 1.224646799147353207E-16, -1.000000000000000000 ) ) ;
#173 = ADVANCED_FACE ( 'NONE', ( #151 ), #276, .F. ) ;
#174 = PERSON_AND_ORGANIZATION ( #35, #93 ) ;
#175 = CARTESIAN_POINT ( 'NONE',  ( 8.728703347107825500E-16, -3.061616997868380553E-17, 0.2499999999999997780 ) ) ;
#176 = CALENDAR_DATE ( 2021, 2, 12 ) ;
#177 = ADVANCED_FACE ( 'NONE', ( #128, #300 ), #40, .T. ) ;
#178 = CLOSED_SHELL ( 'NONE', ( #139, #197, #46, #11, #254, #66, #58 ) ) ;
#179 = APPROVAL_DATE_TIME ( #23, #288 ) ;
#180 = CC_DESIGN_SECURITY_CLASSIFICATION ( #193, ( #166 ) ) ;
#181 = DIRECTION ( 'NONE',  ( 0.0000000000000000000, 1.000000000000000000, 0.0000000000000000000 ) ) ;
#182 = EDGE_CURVE ( 'NONE', #284, #284, #131, .T. ) ;
#183 = COORDINATED_UNIVERSAL_TIME_OFFSET ( 1, 0, .AHEAD. ) ;
#184 = DIRECTION ( 'NONE',  ( 0.0000000000000000000, 1.000000000000000000, 0.0000000000000000000 ) ) ;
#185 = APPLICATION_PROTOCOL_DEFINITION ( 'international standard', 'config_control_design', 1994, #70 ) ;
#186 = CARTESIAN_POINT ( 'NONE',  ( 0.0000000000000000000, 0.0000000000000000000, 0.0000000000000000000 ) ) ;
#187 = CIRCLE ( 'NONE', #28, 1.499999999999992895 ) ;
#188 = APPROVAL ( #296, 'UNSPECIFIED' ) ;
#189 = CARTESIAN_POINT ( 'NONE',  ( 8.728703347107833388E-16, 1.929999999999989946, 0.2500000000000000000 ) ) ;
#190 = CONICAL_SURFACE ( 'NONE', #221, 1.929999999999989946, 0.5235987755983000369 ) ;
#191 = EDGE_LOOP ( 'NONE', ( #134 ) ) ;
#192 =( NAMED_UNIT ( * ) PLANE_ANGLE_UNIT ( ) SI_UNIT ( $, .RADIAN. ) );
#193 = SECURITY_CLASSIFICATION ( '', '', #194 ) ;
#194 = SECURITY_CLASSIFICATION_LEVEL ( 'unclassified' ) ;
#195 = EDGE_LOOP ( 'NONE', ( #213 ) ) ;
#196 = DATE_TIME_ROLE ( 'creation_date' ) ;
#197 = ADVANCED_FACE ( 'NONE', ( #231, #14 ), #299, .T. ) ;
#198 = CARTESIAN_POINT ( 'NONE',  ( -3.591698414553421477E-31, 1.259798217435952070E-32, -1.028703311283769979E-16 ) ) ;
#199 = PERSON_AND_ORGANIZATION_ROLE ( 'creator' ) ;
#200 = AXIS2_PLACEMENT_3D ( 'NONE', #98, #229, #125 ) ;
#201 = APPROVAL_DATE_TIME ( #136, #122 ) ;
#202 = CARTESIAN_POINT ( 'NONE',  ( 3.751520530962992416E-14, -1.315856269677694241E-15, 10.74478184725461105 ) ) ;
#203 = DATE_TIME_ROLE ( 'classification_date' ) ;
#204 = CYLINDRICAL_SURFACE ( 'NONE', #258, 1.499999999999996891 ) ;
#205 = APPROVAL_DATE_TIME ( #119, #188 ) ;
#206 = DIRECTION ( 'NONE',  ( -3.491481338843133355E-15, 1.224646799147353207E-16, -1.000000000000000000 ) ) ;
#207 = APPROVAL_PERSON_ORGANIZATION ( #170, #288, #145 ) ;
#208 = DIRECTION ( 'NONE',  ( -3.491481338843133355E-15, 1.224646799147353207E-16, -1.000000000000000000 ) ) ;
#209 = DIRECTION ( 'NONE',  ( 4.275831445896958607E-31, 1.000000000000000000, 1.224646799147353207E-16 ) ) ;
#210 = DIRECTION ( 'NONE',  ( -3.491481338843133355E-15, 1.224646799147353207E-16, -1.000000000000000000 ) ) ;
#211 = CONICAL_SURFACE ( 'NONE', #248, 1.200000000000001510, 0.7853981633974566057 ) ;
#212 = PLANE ( 'NONE',  #18 ) ;
#213 = ORIENTED_EDGE ( 'NONE', *, *, #182, .F. ) ;
#214 = CARTESIAN_POINT ( 'NONE',  ( 2.433562493173664138E-13, 1.499999999999992673, 69.70000000000001705 ) ) ;
#215 = EDGE_LOOP ( 'NONE', ( #121 ) ) ;
#216 = CARTESIAN_POINT ( 'NONE',  ( 3.491481338843133355E-14, 1.929999999999988614, 10.00000000000000000 ) ) ;
#217 = AXIS2_PLACEMENT_3D ( 'NONE', #144, #251, #49 ) ;
#218 = AXIS2_PLACEMENT_3D ( 'NONE', #160, #301, #184 ) ;
#219 = CC_DESIGN_PERSON_AND_ORGANIZATION_ASSIGNMENT ( #287, #71, ( #193 ) ) ;
#220 = AXIS2_PLACEMENT_3D ( 'NONE', #198, #206, #48 ) ;
#221 = AXIS2_PLACEMENT_3D ( 'NONE', #100, #243, #26 ) ;
#222 = ORIENTED_EDGE ( 'NONE', *, *, #42, .T. ) ;
#223 = DIRECTION ( 'NONE',  ( -3.491481338843133355E-15, 1.224646799147353207E-16, -1.000000000000000000 ) ) ;
#224 = COORDINATED_UNIVERSAL_TIME_OFFSET ( 1, 0, .AHEAD. ) ;
#225 = ORIENTED_EDGE ( 'NONE', *, *, #283, .F. ) ;
#226 = CIRCLE ( 'NONE', #200, 1.200000000000001510 ) ;
#227 = AXIS2_PLACEMENT_3D ( 'NONE', #289, #141, #245 ) ;
#228 = DIRECTION ( 'NONE',  ( 0.0000000000000000000, 1.000000000000000000, 0.0000000000000000000 ) ) ;
#229 = DIRECTION ( 'NONE',  ( -3.491481338843133355E-15, 1.224646799147353207E-16, -1.000000000000000000 ) ) ;
#230 = FACE_OUTER_BOUND ( 'NONE', #38, .T. ) ;
#231 = FACE_OUTER_BOUND ( 'NONE', #2, .T. ) ;
#232 = CALENDAR_DATE ( 2021, 2, 12 ) ;
#233 = CARTESIAN_POINT ( 'NONE',  ( 2.433562493173664138E-13, 1.499999999999992673, 69.70000000000001705 ) ) ;
#234 = CARTESIAN_POINT ( 'NONE',  ( -7.183396829106842955E-31, 2.519596434871904141E-32, -2.057406622567539958E-16 ) ) ;
#235 = EDGE_LOOP ( 'NONE', ( #303 ) ) ;
#236 = CLOSED_SHELL ( 'NONE', ( #158, #115, #177, #241, #173 ) ) ;
#237 = CIRCLE ( 'NONE', #153, 1.499999999999992895 ) ;
#238 = CARTESIAN_POINT ( 'NONE',  ( 2.444036937190193601E-13, -8.572527594031472993E-15, 70.00000000000000000 ) ) ;
#239 = ORIENTED_EDGE ( 'NONE', *, *, #105, .F. ) ;
#240 = ORIENTED_EDGE ( 'NONE', *, *, #283, .T. ) ;
#241 = ADVANCED_FACE ( 'NONE', ( #297, #77 ), #295, .T. ) ;
#242 =( LENGTH_UNIT ( ) NAMED_UNIT ( * ) SI_UNIT ( .MILLI., .METRE. ) );
#243 = DIRECTION ( 'NONE',  ( -3.491481338843133355E-15, 1.224646799147353207E-16, -1.000000000000000000 ) ) ;
#244 = DATE_AND_TIME ( #176, #123 ) ;
#245 = DIRECTION ( 'NONE',  ( -4.275831445896958607E-31, -1.000000000000000000, -1.224646799147353207E-16 ) ) ;
#246 = APPROVAL_STATUS ( 'not_yet_approved' ) ;
#247 = FACE_OUTER_BOUND ( 'NONE', #83, .T. ) ;
#248 = AXIS2_PLACEMENT_3D ( 'NONE', #291, #223, #228 ) ;
#249 = DIRECTION ( 'NONE',  ( 1.000000000000000000, 0.0000000000000000000, 0.0000000000000000000 ) ) ;
#250 = FACE_BOUND ( 'NONE', #277, .T. ) ;
#251 = DIRECTION ( 'NONE',  ( -3.491481338843133355E-15, 1.224646799147353207E-16, -1.000000000000000000 ) ) ;
#252 = COORDINATED_UNIVERSAL_TIME_OFFSET ( 1, 0, .AHEAD. ) ;
#253 = DIRECTION ( 'NONE',  ( -3.491481338843133355E-15, 1.224646799147353207E-16, -1.000000000000000000 ) ) ;
#254 = ADVANCED_FACE ( 'NONE', ( #274 ), #212, .F. ) ;
#255 = DIRECTION ( 'NONE',  ( -3.491481338843133355E-15, 1.224646799147353207E-16, -1.000000000000000000 ) ) ;
#256 = CARTESIAN_POINT ( 'NONE',  ( 0.0000000000000000000, 0.0000000000000000000, 0.0000000000000000000 ) ) ;
#257 = EDGE_LOOP ( 'NONE', ( #65 ) ) ;
#258 = AXIS2_PLACEMENT_3D ( 'NONE', #102, #169, #72 ) ;
#259 = CIRCLE ( 'NONE', #126, 1.929999999999989946 ) ;
#260 = DIRECTION ( 'NONE',  ( 4.275831445896958607E-31, 1.000000000000000000, 1.224646799147353454E-16 ) ) ;
#261 = AXIS2_PLACEMENT_3D ( 'NONE', #186, #156, #249 ) ;
#262 =( GEOMETRIC_REPRESENTATION_CONTEXT ( 3 ) GLOBAL_UNCERTAINTY_ASSIGNED_CONTEXT ( ( #92 ) ) GLOBAL_UNIT_ASSIGNED_CONTEXT ( ( #242, #192, #4 ) ) REPRESENTATION_CONTEXT ( 'NONE', 'WORKASPACE' ) );
#263 = DESIGN_CONTEXT ( 'detailed design', #267, 'design' ) ;
#264 = PRODUCT_RELATED_PRODUCT_CATEGORY ( 'detail', '', ( #286 ) ) ;
#265 = DIRECTION ( 'NONE',  ( 0.0000000000000000000, 1.000000000000000000, 0.0000000000000000000 ) ) ;
#266 = PLANE ( 'NONE',  #220 ) ;
#267 = APPLICATION_CONTEXT ( 'configuration controlled 3d designs of mechanical parts and assemblies' ) ;
#268 = EDGE_LOOP ( 'NONE', ( #239 ) ) ;
#269 = CC_DESIGN_PERSON_AND_ORGANIZATION_ASSIGNMENT ( #290, #124, ( #166 ) ) ;
#270 = APPROVAL_STATUS ( 'not_yet_approved' ) ;
#271 = DIRECTION ( 'NONE',  ( 3.991564651579784613E-31, 1.000000000000000000, 1.123525567342497605E-16 ) ) ;
#272 = PERSON_AND_ORGANIZATION ( #35, #93 ) ;
#273 = CARTESIAN_POINT ( 'NONE',  ( 3.491481338843133355E-14, -1.224646799147353256E-15, 10.00000000000000000 ) ) ;
#274 = FACE_OUTER_BOUND ( 'NONE', #235, .T. ) ;
#275 = CONICAL_SURFACE ( 'NONE', #171, 1.929999999999989946, 0.5235987755983000369 ) ;
#276 = PLANE ( 'NONE',  #45 ) ;
#277 = EDGE_LOOP ( 'NONE', ( #36 ) ) ;
#278 = VERTEX_POINT ( 'NONE', #130 ) ;
#279 = EDGE_CURVE ( 'NONE', #137, #137, #237, .T. ) ;
#280 = AXIS2_PLACEMENT_3D ( 'NONE', #234, #106, #78 ) ;
#281 = CARTESIAN_POINT ( 'NONE',  ( 2.444036937190193601E-13, 1.199999999999992628, 70.00000000000000000 ) ) ;
#282 = EDGE_LOOP ( 'NONE', ( #44 ) ) ;
#283 = EDGE_CURVE ( 'NONE', #64, #64, #259, .T. ) ;
#284 = VERTEX_POINT ( 'NONE', #281 ) ;
#285 = LOCAL_TIME ( 10, 36, 8.000000000000000000, #91 ) ;
#286 = PRODUCT ( '321612', '321612', '', ( #101 ) ) ;
#287 = PERSON_AND_ORGANIZATION ( #35, #93 ) ;
#288 = APPROVAL ( #246, 'UNSPECIFIED' ) ;
#289 = CARTESIAN_POINT ( 'NONE',  ( -7.183396829106842955E-31, 2.519596434871904141E-32, -2.057406622567539958E-16 ) ) ;
#290 = PERSON_AND_ORGANIZATION ( #35, #93 ) ;
#291 = CARTESIAN_POINT ( 'NONE',  ( 2.444036937190193601E-13, -8.572527594031472993E-15, 70.00000000000000000 ) ) ;
#292 = CC_DESIGN_PERSON_AND_ORGANIZATION_ASSIGNMENT ( #149, #51, ( #286 ) ) ;
#293 = FACE_OUTER_BOUND ( 'NONE', #159, .T. ) ;
#294 = FACE_OUTER_BOUND ( 'NONE', #111, .T. ) ;
#295 = CONICAL_SURFACE ( 'NONE', #218, 1.200000000000001510, 0.7853981633974566057 ) ;
#296 = APPROVAL_STATUS ( 'not_yet_approved' ) ;
#297 = FACE_OUTER_BOUND ( 'NONE', #268, .T. ) ;
#298 = EDGE_CURVE ( 'NONE', #164, #164, #81, .T. ) ;
#299 = CYLINDRICAL_SURFACE ( 'NONE', #30, 1.929999999999989946 ) ;
#300 = FACE_OUTER_BOUND ( 'NONE', #191, .T. ) ;
#301 = DIRECTION ( 'NONE',  ( -3.491481338843133355E-15, 1.224646799147353207E-16, -1.000000000000000000 ) ) ;
#302 = PRODUCT_DEFINITION ( 'UNKNOWN', '', #166, #263 ) ;
#303 = ORIENTED_EDGE ( 'NONE', *, *, #47, .F. ) ;
ENDSEC;
END-ISO-10303-21;
