ISO-10303-21;
HEADER;
FILE_DESCRIPTION (( 'STEP AP203' ),
    '1' );
FILE_NAME ('321611.step',
    '2021-12-02T09:36:07',
    ( '' ),
    ( '' ),
    'SwSTEP 2.0',
    'SolidWorks 2019',
    '' );
FILE_SCHEMA (( 'CONFIG_CONTROL_DESIGN' ));
ENDSEC;

DATA;
#1 = DIRECTION ( 'NONE',  ( -4.275831445896958607E-31, -1.000000000000000000, -1.224646799147353207E-16 ) ) ;
#2 = CIRCLE ( 'NONE', #277, 1.500000000000001110 ) ;
#3 = AXIS2_PLACEMENT_3D ( 'NONE', #196, #143, #25 ) ;
#4 = FACE_OUTER_BOUND ( 'NONE', #183, .T. ) ;
#5 = EDGE_CURVE ( 'NONE', #36, #36, #267, .T. ) ;
#6 = CIRCLE ( 'NONE', #151, 1.200000000000001510 ) ;
#7 = CARTESIAN_POINT ( 'NONE',  ( 2.433562493173664138E-13, -8.535788190057053710E-15, 69.70000000000001705 ) ) ;
#8 = CC_DESIGN_SECURITY_CLASSIFICATION ( #280, ( #217 ) ) ;
#9 = PERSON_AND_ORGANIZATION ( #23, #176 ) ;
#10 = FACE_OUTER_BOUND ( 'NONE', #128, .T. ) ;
#11 = EDGE_LOOP ( 'NONE', ( #109 ) ) ;
#12 = VERTEX_POINT ( 'NONE', #122 ) ;
#13 = EDGE_LOOP ( 'NONE', ( #18 ) ) ;
#14 = AXIS2_PLACEMENT_3D ( 'NONE', #269, #270, #58 ) ;
#15 = ORIENTED_EDGE ( 'NONE', *, *, #5, .T. ) ;
#16 = EDGE_CURVE ( 'NONE', #12, #12, #102, .T. ) ;
#17 = DIRECTION ( 'NONE',  ( -3.491481338843133355E-15, 1.224646799147353207E-16, -1.000000000000000000 ) ) ;
#18 = ORIENTED_EDGE ( 'NONE', *, *, #87, .T. ) ;
#19 = DIRECTION ( 'NONE',  ( -3.491481338843133355E-15, 1.224646799147353207E-16, -1.000000000000000000 ) ) ;
#20 = MANIFOLD_SOLID_BREP ( 'Corps-Déplacer/Copier1[2]', #94 ) ;
#21 = ORIENTED_EDGE ( 'NONE', *, *, #16, .F. ) ;
#22 = CONICAL_SURFACE ( 'NONE', #90, 1.924999999999990052, 0.5235987755983007030 ) ;
#23 = PERSON ( 'UNSPECIFIED', 'UNSPECIFIED', 'UNSPECIFIED', ('UNSPECIFIED'), ('UNSPECIFIED'), ('UNSPECIFIED') ) ;
#24 = VERTEX_POINT ( 'NONE', #171 ) ;
#25 = DIRECTION ( 'NONE',  ( 0.0000000000000000000, 1.000000000000000000, 0.0000000000000000000 ) ) ;
#26 = COORDINATED_UNIVERSAL_TIME_OFFSET ( 1, 0, .AHEAD. ) ;
#27 = FACE_OUTER_BOUND ( 'NONE', #298, .T. ) ;
#28 = CC_DESIGN_PERSON_AND_ORGANIZATION_ASSIGNMENT ( #155, #43, ( #280 ) ) ;
#29 = EDGE_CURVE ( 'NONE', #104, #104, #2, .T. ) ;
#30 = FACE_BOUND ( 'NONE', #11, .T. ) ;
#31 = DIRECTION ( 'NONE',  ( -3.491481338843133355E-15, 1.224646799147353207E-16, -1.000000000000000000 ) ) ;
#32 = DATE_AND_TIME ( #66, #108 ) ;
#33 = EDGE_CURVE ( 'NONE', #184, #184, #300, .T. ) ;
#34 = FACE_OUTER_BOUND ( 'NONE', #182, .T. ) ;
#35 = DIRECTION ( 'NONE',  ( 0.0000000000000000000, 1.000000000000000000, 0.0000000000000000000 ) ) ;
#36 = VERTEX_POINT ( 'NONE', #227 ) ;
#37 = CARTESIAN_POINT ( 'NONE',  ( 2.444036937190193601E-13, -8.572527594031472993E-15, 70.00000000000000000 ) ) ;
#38 = ORIENTED_EDGE ( 'NONE', *, *, #74, .T. ) ;
#39 = DATE_TIME_ROLE ( 'creation_date' ) ;
#40 = ORIENTED_EDGE ( 'NONE', *, *, #29, .F. ) ;
#41 = ORIENTED_EDGE ( 'NONE', *, *, #91, .T. ) ;
#42 = CIRCLE ( 'NONE', #213, 1.499999999999992895 ) ;
#43 = PERSON_AND_ORGANIZATION_ROLE ( 'classification_officer' ) ;
#44 = CONICAL_SURFACE ( 'NONE', #3, 1.200000000000001510, 0.7853981633974566057 ) ;
#45 = DIRECTION ( 'NONE',  ( -3.491481338843133355E-15, 1.224646799147353207E-16, -1.000000000000000000 ) ) ;
#46 = EDGE_LOOP ( 'NONE', ( #65 ) ) ;
#47 = CALENDAR_DATE ( 2021, 2, 12 ) ;
#48 = DIRECTION ( 'NONE',  ( 4.275831445896958607E-31, 1.000000000000000000, 1.224646799147353207E-16 ) ) ;
#49 = ORIENTED_EDGE ( 'NONE', *, *, #279, .F. ) ;
#50 = PRODUCT_RELATED_PRODUCT_CATEGORY ( 'detail', '', ( #221 ) ) ;
#51 = EDGE_CURVE ( 'NONE', #158, #158, #126, .T. ) ;
#52 = DIRECTION ( 'NONE',  ( 4.275831445896958607E-31, 1.000000000000000000, 1.224646799147353207E-16 ) ) ;
#53 = DIRECTION ( 'NONE',  ( 3.491481338843133355E-15, -1.224646799147353207E-16, 1.000000000000000000 ) ) ;
#54 = EDGE_CURVE ( 'NONE', #175, #175, #42, .T. ) ;
#55 = VERTEX_POINT ( 'NONE', #222 ) ;
#56 = CYLINDRICAL_SURFACE ( 'NONE', #262, 1.924999999999990052 ) ;
#57 = ADVANCED_FACE ( 'NONE', ( #189, #272 ), #192, .T. ) ;
#58 = DIRECTION ( 'NONE',  ( 4.275831445896958607E-31, 1.000000000000000000, 1.224646799147353454E-16 ) ) ;
#59 = DIRECTION ( 'NONE',  ( 4.275831445896958607E-31, 1.000000000000000000, 1.224646799147353454E-16 ) ) ;
#60 =( GEOMETRIC_REPRESENTATION_CONTEXT ( 3 ) GLOBAL_UNCERTAINTY_ASSIGNED_CONTEXT ( ( #266 ) ) GLOBAL_UNIT_ASSIGNED_CONTEXT ( ( #157, #140, #247 ) ) REPRESENTATION_CONTEXT ( 'NONE', 'WORKASPACE' ) );
#61 = CYLINDRICAL_SURFACE ( 'NONE', #14, 1.499999999999996891 ) ;
#62 = PERSON_AND_ORGANIZATION ( #23, #176 ) ;
#63 = FACE_OUTER_BOUND ( 'NONE', #85, .T. ) ;
#64 = CARTESIAN_POINT ( 'NONE',  ( 3.491481338843133355E-14, 1.924999999999988720, 10.00000000000000000 ) ) ;
#65 = ORIENTED_EDGE ( 'NONE', *, *, #91, .F. ) ;
#66 = CALENDAR_DATE ( 2021, 2, 12 ) ;
#67 = CARTESIAN_POINT ( 'NONE',  ( 8.728703347107825500E-16, -3.061616997868380553E-17, 0.2499999999999997780 ) ) ;
#68 = CLOSED_SHELL ( 'NONE', ( #223, #209, #237, #107, #273 ) ) ;
#69 = APPROVAL_PERSON_ORGANIZATION ( #99, #188, #146 ) ;
#70 = EDGE_LOOP ( 'NONE', ( #41 ) ) ;
#71 = APPROVAL_STATUS ( 'not_yet_approved' ) ;
#72 = CARTESIAN_POINT ( 'NONE',  ( 0.0000000000000000000, 0.0000000000000000000, 0.0000000000000000000 ) ) ;
#73 = ORIENTED_EDGE ( 'NONE', *, *, #5, .F. ) ;
#74 = EDGE_CURVE ( 'NONE', #24, #24, #116, .T. ) ;
#75 = PLANE ( 'NONE',  #76 ) ;
#76 = AXIS2_PLACEMENT_3D ( 'NONE', #195, #263, #52 ) ;
#77 = DIRECTION ( 'NONE',  ( 4.275831445896958607E-31, 1.000000000000000000, 1.224646799147353454E-16 ) ) ;
#78 = FACE_BOUND ( 'NONE', #70, .T. ) ;
#79 = CC_DESIGN_PERSON_AND_ORGANIZATION_ASSIGNMENT ( #62, #178, ( #217 ) ) ;
#80 = PERSON_AND_ORGANIZATION_ROLE ( 'creator' ) ;
#81 = COORDINATED_UNIVERSAL_TIME_OFFSET ( 1, 0, .AHEAD. ) ;
#82 = CARTESIAN_POINT ( 'NONE',  ( 2.444036937190193601E-13, -8.572527594031472993E-15, 70.00000000000000000 ) ) ;
#83 = EDGE_LOOP ( 'NONE', ( #261 ) ) ;
#84 = CARTESIAN_POINT ( 'NONE',  ( -3.581008835938679996E-31, 1.256048817979297946E-32, -1.025641694285901787E-16 ) ) ;
#85 = EDGE_LOOP ( 'NONE', ( #49 ) ) ;
#86 = ORIENTED_EDGE ( 'NONE', *, *, #54, .T. ) ;
#87 = EDGE_CURVE ( 'NONE', #55, #55, #283, .T. ) ;
#88 = CARTESIAN_POINT ( 'NONE',  ( 3.748496819426714281E-14, -1.314795694438969394E-15, 10.73612159321676529 ) ) ;
#89 = DIRECTION ( 'NONE',  ( -3.491481338843133355E-15, 1.224646799147353207E-16, -1.000000000000000000 ) ) ;
#90 = AXIS2_PLACEMENT_3D ( 'NONE', #236, #214, #239 ) ;
#91 = EDGE_CURVE ( 'NONE', #98, #98, #6, .T. ) ;
#92 = CALENDAR_DATE ( 2021, 2, 12 ) ;
#93 = FACE_OUTER_BOUND ( 'NONE', #299, .T. ) ;
#94 = CLOSED_SHELL ( 'NONE', ( #57, #293, #245, #288, #120, #131, #284 ) ) ;
#95 = AXIS2_PLACEMENT_3D ( 'NONE', #197, #287, #48 ) ;
#96 = FACE_OUTER_BOUND ( 'NONE', #134, .T. ) ;
#97 = PLANE ( 'NONE',  #95 ) ;
#98 = VERTEX_POINT ( 'NONE', #191 ) ;
#99 = PERSON_AND_ORGANIZATION ( #23, #176 ) ;
#100 = APPROVAL_PERSON_ORGANIZATION ( #252, #170, #133 ) ;
#101 = CC_DESIGN_DATE_AND_TIME_ASSIGNMENT ( #159, #39, ( #211 ) ) ;
#102 = CIRCLE ( 'NONE', #216, 1.499999999999992895 ) ;
#103 = CC_DESIGN_APPROVAL ( #170, ( #217 ) ) ;
#104 = VERTEX_POINT ( 'NONE', #294 ) ;
#105 = PERSON_AND_ORGANIZATION_ROLE ( 'creator' ) ;
#106 = DIRECTION ( 'NONE',  ( -3.491481338843133355E-15, 1.224646799147353207E-16, -1.000000000000000000 ) ) ;
#107 = ADVANCED_FACE ( 'NONE', ( #63, #249 ), #208, .T. ) ;
#108 = LOCAL_TIME ( 10, 36, 7.000000000000000000, #81 ) ;
#109 = ORIENTED_EDGE ( 'NONE', *, *, #16, .T. ) ;
#110 = DIRECTION ( 'NONE',  ( 4.001932351973497753E-31, 1.000000000000000000, 1.126443815569361070E-16 ) ) ;
#111 = CARTESIAN_POINT ( 'NONE',  ( 2.433562493173664138E-13, -8.535788190057053710E-15, 69.70000000000001705 ) ) ;
#112 = ORIENTED_EDGE ( 'NONE', *, *, #279, .T. ) ;
#113 = CARTESIAN_POINT ( 'NONE',  ( 3.491481338843133355E-14, 1.443518790812028505E-32, 10.00000000000000000 ) ) ;
#114 = ADVANCED_BREP_SHAPE_REPRESENTATION ( '321611', ( #115, #20, #136 ), #60 ) ;
#115 = MANIFOLD_SOLID_BREP ( 'Corps-Déplacer/Copier1[1]', #68 ) ;
#116 = CIRCLE ( 'NONE', #295, 1.200000000000001510 ) ;
#117 = AXIS2_PLACEMENT_3D ( 'NONE', #72, #168, #77 ) ;
#118 = FACE_BOUND ( 'NONE', #161, .T. ) ;
#119 = DATE_AND_TIME ( #218, #148 ) ;
#120 = ADVANCED_FACE ( 'NONE', ( #303 ), #75, .F. ) ;
#121 = AXIS2_PLACEMENT_3D ( 'NONE', #166, #139, #233 ) ;
#122 = CARTESIAN_POINT ( 'NONE',  ( 3.748496819426714281E-14, 1.499999999999991562, 10.73612159321676529 ) ) ;
#123 = PERSON_AND_ORGANIZATION ( #23, #176 ) ;
#124 = CC_DESIGN_PERSON_AND_ORGANIZATION_ASSIGNMENT ( #129, #105, ( #211 ) ) ;
#125 = CALENDAR_DATE ( 2021, 2, 12 ) ;
#126 = CIRCLE ( 'NONE', #147, 1.924999999999990052 ) ;
#127 = CC_DESIGN_APPROVAL ( #188, ( #211 ) ) ;
#128 = EDGE_LOOP ( 'NONE', ( #228 ) ) ;
#129 = PERSON_AND_ORGANIZATION ( #23, #176 ) ;
#130 = CARTESIAN_POINT ( 'NONE',  ( 3.748496819426714281E-14, 1.499999999999991562, 10.73612159321676529 ) ) ;
#131 = ADVANCED_FACE ( 'NONE', ( #215, #78 ), #44, .T. ) ;
#132 = ORIENTED_EDGE ( 'NONE', *, *, #74, .F. ) ;
#133 = APPROVAL_ROLE ( '' ) ;
#134 = EDGE_LOOP ( 'NONE', ( #112 ) ) ;
#135 = AXIS2_PLACEMENT_3D ( 'NONE', #67, #226, #110 ) ;
#136 = AXIS2_PLACEMENT_3D ( 'NONE', #179, #205, #243 ) ;
#137 = COORDINATED_UNIVERSAL_TIME_OFFSET ( 1, 0, .AHEAD. ) ;
#138 = DIRECTION ( 'NONE',  ( -3.491481338843133355E-15, 1.224646799147353207E-16, -1.000000000000000000 ) ) ;
#139 = DIRECTION ( 'NONE',  ( -3.491481338843133355E-15, 1.224646799147353207E-16, -1.000000000000000000 ) ) ;
#140 =( NAMED_UNIT ( * ) PLANE_ANGLE_UNIT ( ) SI_UNIT ( $, .RADIAN. ) );
#141 = DIRECTION ( 'NONE',  ( 0.0000000000000000000, 1.000000000000000000, 0.0000000000000000000 ) ) ;
#142 = CC_DESIGN_APPROVAL ( #199, ( #280 ) ) ;
#143 = DIRECTION ( 'NONE',  ( -3.491481338843133355E-15, 1.224646799147353207E-16, -1.000000000000000000 ) ) ;
#144 = DIRECTION ( 'NONE',  ( 0.0000000000000000000, 1.000000000000000000, 0.0000000000000000000 ) ) ;
#145 = DATE_AND_TIME ( #92, #173 ) ;
#146 = APPROVAL_ROLE ( '' ) ;
#147 = AXIS2_PLACEMENT_3D ( 'NONE', #278, #138, #302 ) ;
#148 = LOCAL_TIME ( 10, 36, 7.000000000000000000, #26 ) ;
#149 = PRODUCT_DEFINITION_SHAPE ( 'NONE', 'NONE',  #211 ) ;
#150 = DIRECTION ( 'NONE',  ( 3.491481338843133355E-15, -1.224646799147353207E-16, 1.000000000000000000 ) ) ;
#151 = AXIS2_PLACEMENT_3D ( 'NONE', #37, #152, #35 ) ;
#152 = DIRECTION ( 'NONE',  ( -3.491481338843133355E-15, 1.224646799147353207E-16, -1.000000000000000000 ) ) ;
#153 = AXIS2_PLACEMENT_3D ( 'NONE', #240, #150, #219 ) ;
#154 = FACE_OUTER_BOUND ( 'NONE', #186, .T. ) ;
#155 = PERSON_AND_ORGANIZATION ( #23, #176 ) ;
#156 = CARTESIAN_POINT ( 'NONE',  ( -7.162017671877359992E-31, 2.512097635958595893E-32, -2.051283388571803575E-16 ) ) ;
#157 =( LENGTH_UNIT ( ) NAMED_UNIT ( * ) SI_UNIT ( .MILLI., .METRE. ) );
#158 = VERTEX_POINT ( 'NONE', #251 ) ;
#159 = DATE_AND_TIME ( #125, #241 ) ;
#160 = ORIENTED_EDGE ( 'NONE', *, *, #33, .T. ) ;
#161 = EDGE_LOOP ( 'NONE', ( #190 ) ) ;
#162 = APPROVAL_DATE_TIME ( #32, #170 ) ;
#163 = DIRECTION ( 'NONE',  ( 0.0000000000000000000, 1.000000000000000000, 0.0000000000000000000 ) ) ;
#164 = ORIENTED_EDGE ( 'NONE', *, *, #51, .T. ) ;
#165 = AXIS2_PLACEMENT_3D ( 'NONE', #113, #53, #1 ) ;
#166 = CARTESIAN_POINT ( 'NONE',  ( 3.491481338843133355E-14, -1.224646799147353256E-15, 10.00000000000000000 ) ) ;
#167 = DATE_TIME_ROLE ( 'classification_date' ) ;
#168 = DIRECTION ( 'NONE',  ( -3.491481338843133355E-15, 1.224646799147353207E-16, -1.000000000000000000 ) ) ;
#169 = ORIENTED_EDGE ( 'NONE', *, *, #51, .F. ) ;
#170 = APPROVAL ( #276, 'UNSPECIFIED' ) ;
#171 = CARTESIAN_POINT ( 'NONE',  ( 2.444036937190193601E-13, 1.199999999999992628, 70.00000000000000000 ) ) ;
#172 = FACE_OUTER_BOUND ( 'NONE', #274, .T. ) ;
#173 = LOCAL_TIME ( 10, 36, 7.000000000000000000, #201 ) ;
#174 = SHAPE_DEFINITION_REPRESENTATION ( #149, #114 ) ;
#175 = VERTEX_POINT ( 'NONE', #130 ) ;
#176 = ORGANIZATION ( 'UNSPECIFIED', 'UNSPECIFIED', '' ) ;
#177 = CC_DESIGN_PERSON_AND_ORGANIZATION_ASSIGNMENT ( #9, #80, ( #217 ) ) ;
#178 = PERSON_AND_ORGANIZATION_ROLE ( 'design_supplier' ) ;
#179 = CARTESIAN_POINT ( 'NONE',  ( 0.0000000000000000000, 0.0000000000000000000, 0.0000000000000000000 ) ) ;
#180 = CARTESIAN_POINT ( 'NONE',  ( 2.433562493173664138E-13, 1.499999999999992673, 69.70000000000001705 ) ) ;
#181 = MECHANICAL_CONTEXT ( 'NONE', #203, 'mechanical' ) ;
#182 = EDGE_LOOP ( 'NONE', ( #160 ) ) ;
#183 = EDGE_LOOP ( 'NONE', ( #132 ) ) ;
#184 = VERTEX_POINT ( 'NONE', #64 ) ;
#185 = COORDINATED_UNIVERSAL_TIME_OFFSET ( 1, 0, .AHEAD. ) ;
#186 = EDGE_LOOP ( 'NONE', ( #73 ) ) ;
#187 = DIRECTION ( 'NONE',  ( 0.0000000000000000000, 1.000000000000000000, 0.0000000000000000000 ) ) ;
#188 = APPROVAL ( #232, 'UNSPECIFIED' ) ;
#189 = FACE_BOUND ( 'NONE', #250, .T. ) ;
#190 = ORIENTED_EDGE ( 'NONE', *, *, #87, .F. ) ;
#191 = CARTESIAN_POINT ( 'NONE',  ( 2.444036937190193601E-13, 1.199999999999992628, 70.00000000000000000 ) ) ;
#192 = CONICAL_SURFACE ( 'NONE', #121, 1.924999999999990052, 0.5235987755983007030 ) ;
#193 = FACE_OUTER_BOUND ( 'NONE', #210, .T. ) ;
#194 = APPROVAL_ROLE ( '' ) ;
#195 = CARTESIAN_POINT ( 'NONE',  ( 2.444036937190193601E-13, -8.572527594031472993E-15, 70.00000000000000000 ) ) ;
#196 = CARTESIAN_POINT ( 'NONE',  ( 2.444036937190193601E-13, -8.572527594031472993E-15, 70.00000000000000000 ) ) ;
#197 = CARTESIAN_POINT ( 'NONE',  ( 2.444036937190193601E-13, 8.998558695971026591E-33, 70.00000000000000000 ) ) ;
#198 = AXIS2_PLACEMENT_3D ( 'NONE', #156, #271, #59 ) ;
#199 = APPROVAL ( #71, 'UNSPECIFIED' ) ;
#200 = APPLICATION_PROTOCOL_DEFINITION ( 'international standard', 'config_control_design', 1994, #289 ) ;
#201 = COORDINATED_UNIVERSAL_TIME_OFFSET ( 1, 0, .AHEAD. ) ;
#202 = FACE_OUTER_BOUND ( 'NONE', #281, .T. ) ;
#203 = APPLICATION_CONTEXT ( 'configuration controlled 3d designs of mechanical parts and assemblies' ) ;
#204 = PLANE ( 'NONE',  #224 ) ;
#205 = DIRECTION ( 'NONE',  ( 0.0000000000000000000, 0.0000000000000000000, 1.000000000000000000 ) ) ;
#206 = DIRECTION ( 'NONE',  ( -3.491481338843133355E-15, 1.224646799147353207E-16, -1.000000000000000000 ) ) ;
#207 = DIRECTION ( 'NONE',  ( 0.0000000000000000000, 1.000000000000000000, 0.0000000000000000000 ) ) ;
#208 = CONICAL_SURFACE ( 'NONE', #301, 1.200000000000001510, 0.7853981633974566057 ) ;
#209 = ADVANCED_FACE ( 'NONE', ( #30, #172 ), #22, .T. ) ;
#210 = EDGE_LOOP ( 'NONE', ( #164 ) ) ;
#211 = PRODUCT_DEFINITION ( 'UNKNOWN', '', #217, #220 ) ;
#212 = DIRECTION ( 'NONE',  ( 0.0000000000000000000, 1.000000000000000000, 0.0000000000000000000 ) ) ;
#213 = AXIS2_PLACEMENT_3D ( 'NONE', #230, #89, #207 ) ;
#214 = DIRECTION ( 'NONE',  ( -3.491481338843133355E-15, 1.224646799147353207E-16, -1.000000000000000000 ) ) ;
#215 = FACE_OUTER_BOUND ( 'NONE', #231, .T. ) ;
#216 = AXIS2_PLACEMENT_3D ( 'NONE', #88, #17, #258 ) ;
#217 = PRODUCT_DEFINITION_FORMATION_WITH_SPECIFIED_SOURCE ( 'ANY', '', #221, .NOT_KNOWN. ) ;
#218 = CALENDAR_DATE ( 2021, 2, 12 ) ;
#219 = DIRECTION ( 'NONE',  ( -4.275831445896958607E-31, -1.000000000000000000, -1.224646799147353454E-16 ) ) ;
#220 = DESIGN_CONTEXT ( 'detailed design', #289, 'design' ) ;
#221 = PRODUCT ( '321611', '321611', '', ( #181 ) ) ;
#222 = CARTESIAN_POINT ( 'NONE',  ( 0.0000000000000000000, 1.674999999999989164, 0.0000000000000000000 ) ) ;
#223 = ADVANCED_FACE ( 'NONE', ( #193 ), #264, .F. ) ;
#224 = AXIS2_PLACEMENT_3D ( 'NONE', #84, #206, #246 ) ;
#225 = FACE_OUTER_BOUND ( 'NONE', #13, .T. ) ;
#226 = DIRECTION ( 'NONE',  ( -3.491481338843133355E-15, 1.224646799147353207E-16, -1.000000000000000000 ) ) ;
#227 = CARTESIAN_POINT ( 'NONE',  ( 8.728703347107833388E-16, 1.924999999999990052, 0.2500000000000000000 ) ) ;
#228 = ORIENTED_EDGE ( 'NONE', *, *, #29, .T. ) ;
#229 = CONICAL_SURFACE ( 'NONE', #153, 1.674999999999989164, 0.7853981633974500554 ) ;
#230 = CARTESIAN_POINT ( 'NONE',  ( 3.748496819426714281E-14, -1.314795694438969394E-15, 10.73612159321676529 ) ) ;
#231 = EDGE_LOOP ( 'NONE', ( #40 ) ) ;
#232 = APPROVAL_STATUS ( 'not_yet_approved' ) ;
#233 = DIRECTION ( 'NONE',  ( 0.0000000000000000000, 1.000000000000000000, 0.0000000000000000000 ) ) ;
#234 = DIRECTION ( 'NONE',  ( -3.491481338843133355E-15, 1.224646799147353207E-16, -1.000000000000000000 ) ) ;
#235 = LOCAL_TIME ( 10, 36, 7.000000000000000000, #137 ) ;
#236 = CARTESIAN_POINT ( 'NONE',  ( 3.491481338843133355E-14, -1.224646799147353256E-15, 10.00000000000000000 ) ) ;
#237 = ADVANCED_FACE ( 'NONE', ( #93, #96 ), #286, .T. ) ;
#238 = PERSON_AND_ORGANIZATION ( #23, #176 ) ;
#239 = DIRECTION ( 'NONE',  ( 0.0000000000000000000, 1.000000000000000000, 0.0000000000000000000 ) ) ;
#240 = CARTESIAN_POINT ( 'NONE',  ( -7.162017671877359992E-31, 2.512097635958595893E-32, -2.051283388571803575E-16 ) ) ;
#241 = LOCAL_TIME ( 10, 36, 7.000000000000000000, #185 ) ;
#242 = DIRECTION ( 'NONE',  ( 4.275831445896958607E-31, 1.000000000000000000, 1.224646799147353207E-16 ) ) ;
#243 = DIRECTION ( 'NONE',  ( 1.000000000000000000, 0.0000000000000000000, 0.0000000000000000000 ) ) ;
#244 = CC_DESIGN_DATE_AND_TIME_ASSIGNMENT ( #285, #167, ( #280 ) ) ;
#245 = ADVANCED_FACE ( 'NONE', ( #27, #118 ), #229, .T. ) ;
#246 = DIRECTION ( 'NONE',  ( 4.275831445896958607E-31, 1.000000000000000000, 1.224646799147353207E-16 ) ) ;
#247 =( NAMED_UNIT ( * ) SI_UNIT ( $, .STERADIAN. ) SOLID_ANGLE_UNIT ( ) );
#248 = CARTESIAN_POINT ( 'NONE',  ( 0.0000000000000000000, 0.0000000000000000000, 0.0000000000000000000 ) ) ;
#249 = FACE_BOUND ( 'NONE', #256, .T. ) ;
#250 = EDGE_LOOP ( 'NONE', ( #86 ) ) ;
#251 = CARTESIAN_POINT ( 'NONE',  ( 3.491481338843133355E-14, 1.924999999999988720, 10.00000000000000000 ) ) ;
#252 = PERSON_AND_ORGANIZATION ( #23, #176 ) ;
#253 = PERSON_AND_ORGANIZATION_ROLE ( 'design_owner' ) ;
#254 = CC_DESIGN_PERSON_AND_ORGANIZATION_ASSIGNMENT ( #123, #253, ( #221 ) ) ;
#255 = ORIENTED_EDGE ( 'NONE', *, *, #54, .F. ) ;
#256 = EDGE_LOOP ( 'NONE', ( #38 ) ) ;
#257 = SECURITY_CLASSIFICATION_LEVEL ( 'unclassified' ) ;
#258 = DIRECTION ( 'NONE',  ( 0.0000000000000000000, 1.000000000000000000, 0.0000000000000000000 ) ) ;
#259 = AXIS2_PLACEMENT_3D ( 'NONE', #7, #260, #141 ) ;
#260 = DIRECTION ( 'NONE',  ( -3.491481338843133355E-15, 1.224646799147353207E-16, -1.000000000000000000 ) ) ;
#261 = ORIENTED_EDGE ( 'NONE', *, *, #33, .F. ) ;
#262 = AXIS2_PLACEMENT_3D ( 'NONE', #248, #31, #242 ) ;
#263 = DIRECTION ( 'NONE',  ( -3.491481338843133355E-15, 1.224646799147353207E-16, -1.000000000000000000 ) ) ;
#264 = PLANE ( 'NONE',  #165 ) ;
#265 = APPROVAL_PERSON_ORGANIZATION ( #238, #199, #194 ) ;
#266 = UNCERTAINTY_MEASURE_WITH_UNIT (LENGTH_MEASURE( 1.000000000000000082E-05 ), #157, 'distance_accuracy_value', 'NONE');
#267 = CIRCLE ( 'NONE', #135, 1.924999999999990052 ) ;
#268 = CIRCLE ( 'NONE', #259, 1.500000000000001110 ) ;
#269 = CARTESIAN_POINT ( 'NONE',  ( 0.0000000000000000000, 0.0000000000000000000, 0.0000000000000000000 ) ) ;
#270 = DIRECTION ( 'NONE',  ( -3.491481338843133355E-15, 1.224646799147353207E-16, -1.000000000000000000 ) ) ;
#271 = DIRECTION ( 'NONE',  ( -3.491481338843133355E-15, 1.224646799147353207E-16, -1.000000000000000000 ) ) ;
#272 = FACE_OUTER_BOUND ( 'NONE', #83, .T. ) ;
#273 = ADVANCED_FACE ( 'NONE', ( #4 ), #97, .F. ) ;
#274 = EDGE_LOOP ( 'NONE', ( #169 ) ) ;
#275 = APPLICATION_PROTOCOL_DEFINITION ( 'international standard', 'config_control_design', 1994, #203 ) ;
#276 = APPROVAL_STATUS ( 'not_yet_approved' ) ;
#277 = AXIS2_PLACEMENT_3D ( 'NONE', #111, #106, #187 ) ;
#278 = CARTESIAN_POINT ( 'NONE',  ( 3.491481338843133355E-14, -1.224646799147353256E-15, 10.00000000000000000 ) ) ;
#279 = EDGE_CURVE ( 'NONE', #297, #297, #268, .T. ) ;
#280 = SECURITY_CLASSIFICATION ( '', '', #257 ) ;
#281 = EDGE_LOOP ( 'NONE', ( #255 ) ) ;
#282 = CARTESIAN_POINT ( 'NONE',  ( 2.444036937190193601E-13, -8.572527594031472993E-15, 70.00000000000000000 ) ) ;
#283 = CIRCLE ( 'NONE', #198, 1.674999999999989164 ) ;
#284 = ADVANCED_FACE ( 'NONE', ( #202, #10 ), #61, .T. ) ;
#285 = DATE_AND_TIME ( #47, #235 ) ;
#286 = CYLINDRICAL_SURFACE ( 'NONE', #117, 1.499999999999996891 ) ;
#287 = DIRECTION ( 'NONE',  ( -3.491481338843133355E-15, 1.224646799147353207E-16, -1.000000000000000000 ) ) ;
#288 = ADVANCED_FACE ( 'NONE', ( #225 ), #204, .T. ) ;
#289 = APPLICATION_CONTEXT ( 'configuration controlled 3d designs of mechanical parts and assemblies' ) ;
#290 = APPROVAL_DATE_TIME ( #119, #199 ) ;
#291 = AXIS2_PLACEMENT_3D ( 'NONE', #296, #45, #163 ) ;
#292 = APPROVAL_DATE_TIME ( #145, #188 ) ;
#293 = ADVANCED_FACE ( 'NONE', ( #34, #154 ), #56, .T. ) ;
#294 = CARTESIAN_POINT ( 'NONE',  ( 2.433562493173664138E-13, 1.499999999999992673, 69.70000000000001705 ) ) ;
#295 = AXIS2_PLACEMENT_3D ( 'NONE', #82, #19, #212 ) ;
#296 = CARTESIAN_POINT ( 'NONE',  ( 3.491481338843133355E-14, -1.224646799147353256E-15, 10.00000000000000000 ) ) ;
#297 = VERTEX_POINT ( 'NONE', #180 ) ;
#298 = EDGE_LOOP ( 'NONE', ( #15 ) ) ;
#299 = EDGE_LOOP ( 'NONE', ( #21 ) ) ;
#300 = CIRCLE ( 'NONE', #291, 1.924999999999990052 ) ;
#301 = AXIS2_PLACEMENT_3D ( 'NONE', #282, #234, #144 ) ;
#302 = DIRECTION ( 'NONE',  ( 0.0000000000000000000, 1.000000000000000000, 0.0000000000000000000 ) ) ;
#303 = FACE_OUTER_BOUND ( 'NONE', #46, .T. ) ;
ENDSEC;
END-ISO-10303-21;
