ISO-10303-21;
HEADER;
FILE_DESCRIPTION (( 'STEP AP203' ),
    '1' );
FILE_NAME ('321610.step',
    '2021-12-02T09:36:06',
    ( '' ),
    ( '' ),
    'SwSTEP 2.0',
    'SolidWorks 2019',
    '' );
FILE_SCHEMA (( 'CONFIG_CONTROL_DESIGN' ));
ENDSEC;

DATA;
#1 = CARTESIAN_POINT ( 'NONE',  ( 2.444036937190193601E-13, -8.572527594031472993E-15, 70.00000000000000000 ) ) ;
#2 = EDGE_LOOP ( 'NONE', ( #69 ) ) ;
#3 = ORIENTED_EDGE ( 'NONE', *, *, #302, .T. ) ;
#4 = EDGE_LOOP ( 'NONE', ( #3 ) ) ;
#5 = EDGE_LOOP ( 'NONE', ( #166 ) ) ;
#6 = DIRECTION ( 'NONE',  ( -3.491481338843133355E-15, 1.224646799147353207E-16, -1.000000000000000000 ) ) ;
#7 = FACE_OUTER_BOUND ( 'NONE', #269, .T. ) ;
#8 = PERSON_AND_ORGANIZATION ( #197, #231 ) ;
#9 = CONICAL_SURFACE ( 'NONE', #121, 1.919999999999989937, 0.5235987755982999259 ) ;
#10 = CC_DESIGN_APPROVAL ( #118, ( #204 ) ) ;
#11 = DIRECTION ( 'NONE',  ( -3.491481338843133355E-15, 1.224646799147353207E-16, -1.000000000000000000 ) ) ;
#12 = PERSON_AND_ORGANIZATION_ROLE ( 'design_owner' ) ;
#13 = DIRECTION ( 'NONE',  ( 0.0000000000000000000, 1.000000000000000000, 0.0000000000000000000 ) ) ;
#14 = PRODUCT_RELATED_PRODUCT_CATEGORY ( 'detail', '', ( #64 ) ) ;
#15 = DIRECTION ( 'NONE',  ( 4.275831445896958607E-31, 1.000000000000000000, 1.224646799147353454E-16 ) ) ;
#16 = LOCAL_TIME ( 10, 36, 6.000000000000000000, #187 ) ;
#17 = ADVANCED_FACE ( 'NONE', ( #67 ), #243, .F. ) ;
#18 = CARTESIAN_POINT ( 'NONE',  ( 2.433562493173664138E-13, 1.499999999999992673, 69.70000000000001705 ) ) ;
#19 = PRODUCT_DEFINITION_SHAPE ( 'NONE', 'NONE',  #204 ) ;
#20 = CARTESIAN_POINT ( 'NONE',  ( 8.728703347107833388E-16, 1.919999999999989937, 0.2500000000000000000 ) ) ;
#21 = ADVANCED_FACE ( 'NONE', ( #22, #222 ), #68, .T. ) ;
#22 = FACE_OUTER_BOUND ( 'NONE', #102, .T. ) ;
#23 = CONICAL_SURFACE ( 'NONE', #265, 1.919999999999989937, 0.5235987755982999259 ) ;
#24 = APPROVAL_PERSON_ORGANIZATION ( #8, #301, #29 ) ;
#25 = DIRECTION ( 'NONE',  ( 4.275831445896958607E-31, 1.000000000000000000, 1.224646799147353207E-16 ) ) ;
#26 = CC_DESIGN_DATE_AND_TIME_ASSIGNMENT ( #130, #281, ( #254 ) ) ;
#27 = EDGE_LOOP ( 'NONE', ( #74 ) ) ;
#28 = CARTESIAN_POINT ( 'NONE',  ( 2.433562493173664138E-13, -8.535788190057053710E-15, 69.70000000000001705 ) ) ;
#29 = APPROVAL_ROLE ( '' ) ;
#30 = CLOSED_SHELL ( 'NONE', ( #160, #51, #271, #21, #202 ) ) ;
#31 = EDGE_LOOP ( 'NONE', ( #249 ) ) ;
#32 = AXIS2_PLACEMENT_3D ( 'NONE', #65, #297, #84 ) ;
#33 = CC_DESIGN_PERSON_AND_ORGANIZATION_ASSIGNMENT ( #173, #101, ( #254 ) ) ;
#34 = DIRECTION ( 'NONE',  ( -4.275831445896958607E-31, -1.000000000000000000, -1.224646799147352961E-16 ) ) ;
#35 = ORIENTED_EDGE ( 'NONE', *, *, #73, .F. ) ;
#36 = CARTESIAN_POINT ( 'NONE',  ( 3.745473107890437408E-14, -1.313735119200244547E-15, 10.72746133917892131 ) ) ;
#37 = FACE_OUTER_BOUND ( 'NONE', #266, .T. ) ;
#38 = DIRECTION ( 'NONE',  ( 3.491481338843133355E-15, -1.224646799147353207E-16, 1.000000000000000000 ) ) ;
#39 = DIRECTION ( 'NONE',  ( -3.491481338843133355E-15, 1.224646799147353207E-16, -1.000000000000000000 ) ) ;
#40 = CARTESIAN_POINT ( 'NONE',  ( 3.491481338843133355E-14, 1.919999999999988605, 10.00000000000000000 ) ) ;
#41 = CARTESIAN_POINT ( 'NONE',  ( 0.0000000000000000000, 0.0000000000000000000, 0.0000000000000000000 ) ) ;
#42 = DIRECTION ( 'NONE',  ( -3.491481338843133355E-15, 1.224646799147353207E-16, -1.000000000000000000 ) ) ;
#43 = CYLINDRICAL_SURFACE ( 'NONE', #114, 1.499999999999996891 ) ;
#44 = EDGE_CURVE ( 'NONE', #137, #137, #155, .T. ) ;
#45 = CARTESIAN_POINT ( 'NONE',  ( 2.444036937190193601E-13, -8.572527594031472993E-15, 70.00000000000000000 ) ) ;
#46 = EDGE_LOOP ( 'NONE', ( #170 ) ) ;
#47 = AXIS2_PLACEMENT_3D ( 'NONE', #108, #227, #252 ) ;
#48 = CIRCLE ( 'NONE', #245, 1.200000000000001510 ) ;
#49 = CC_DESIGN_DATE_AND_TIME_ASSIGNMENT ( #251, #103, ( #204 ) ) ;
#50 = ORIENTED_EDGE ( 'NONE', *, *, #73, .T. ) ;
#51 = ADVANCED_FACE ( 'NONE', ( #290, #205 ), #23, .T. ) ;
#52 = DIRECTION ( 'NONE',  ( 0.0000000000000000000, 1.000000000000000000, 0.0000000000000000000 ) ) ;
#53 = EDGE_LOOP ( 'NONE', ( #125 ) ) ;
#54 = AXIS2_PLACEMENT_3D ( 'NONE', #168, #196, #25 ) ;
#55 = DIRECTION ( 'NONE',  ( -3.491481338843133355E-15, 1.224646799147353207E-16, -1.000000000000000000 ) ) ;
#56 = DIRECTION ( 'NONE',  ( -3.491481338843133355E-15, 1.224646799147353207E-16, -1.000000000000000000 ) ) ;
#57 = ADVANCED_FACE ( 'NONE', ( #203, #274 ), #216, .T. ) ;
#58 = CARTESIAN_POINT ( 'NONE',  ( 3.491481338843133355E-14, -1.224646799147353256E-15, 10.00000000000000000 ) ) ;
#59 = CYLINDRICAL_SURFACE ( 'NONE', #235, 1.499999999999996891 ) ;
#60 = MECHANICAL_CONTEXT ( 'NONE', #139, 'mechanical' ) ;
#61 = DIRECTION ( 'NONE',  ( 0.0000000000000000000, 1.000000000000000000, 0.0000000000000000000 ) ) ;
#62 = CIRCLE ( 'NONE', #230, 1.500000000000001110 ) ;
#63 = VERTEX_POINT ( 'NONE', #20 ) ;
#64 = PRODUCT ( '321610', '321610', '', ( #60 ) ) ;
#65 = CARTESIAN_POINT ( 'NONE',  ( 8.728703347107825500E-16, -3.061616997868380553E-17, 0.2499999999999997780 ) ) ;
#66 = CC_DESIGN_PERSON_AND_ORGANIZATION_ASSIGNMENT ( #291, #132, ( #204 ) ) ;
#67 = FACE_OUTER_BOUND ( 'NONE', #31, .T. ) ;
#68 = CONICAL_SURFACE ( 'NONE', #253, 1.200000000000001510, 0.7853981633974566057 ) ;
#69 = ORIENTED_EDGE ( 'NONE', *, *, #210, .T. ) ;
#70 = ORIENTED_EDGE ( 'NONE', *, *, #194, .T. ) ;
#71 = DIRECTION ( 'NONE',  ( 0.0000000000000000000, 1.000000000000000000, 0.0000000000000000000 ) ) ;
#72 = PRODUCT_DEFINITION_FORMATION_WITH_SPECIFIED_SOURCE ( 'ANY', '', #64, .NOT_KNOWN. ) ;
#73 = EDGE_CURVE ( 'NONE', #136, #136, #77, .T. ) ;
#74 = ORIENTED_EDGE ( 'NONE', *, *, #225, .T. ) ;
#75 = FACE_BOUND ( 'NONE', #223, .T. ) ;
#76 = APPROVAL_STATUS ( 'not_yet_approved' ) ;
#77 = CIRCLE ( 'NONE', #242, 1.499999999999992895 ) ;
#78 = CIRCLE ( 'NONE', #119, 1.919999999999989937 ) ;
#79 = FACE_BOUND ( 'NONE', #247, .T. ) ;
#80 = DATE_AND_TIME ( #211, #162 ) ;
#81 = ORIENTED_EDGE ( 'NONE', *, *, #96, .T. ) ;
#82 = COORDINATED_UNIVERSAL_TIME_OFFSET ( 1, 0, .AHEAD. ) ;
#83 = AXIS2_PLACEMENT_3D ( 'NONE', #270, #256, #122 ) ;
#84 = DIRECTION ( 'NONE',  ( 4.012354050806762672E-31, 1.000000000000000000, 1.129377263005739784E-16 ) ) ;
#85 = APPROVAL_PERSON_ORGANIZATION ( #276, #118, #239 ) ;
#86 = DIRECTION ( 'NONE',  ( -3.491481338843133355E-15, 1.224646799147353207E-16, -1.000000000000000000 ) ) ;
#87 = CARTESIAN_POINT ( 'NONE',  ( 3.745473107890437408E-14, -1.313735119200244547E-15, 10.72746133917892131 ) ) ;
#88 = EDGE_LOOP ( 'NONE', ( #152 ) ) ;
#89 = DIRECTION ( 'NONE',  ( 4.275831445896958607E-31, 1.000000000000000000, 1.224646799147353454E-16 ) ) ;
#90 = DIRECTION ( 'NONE',  ( -3.491481338843133355E-15, 1.224646799147353207E-16, -1.000000000000000000 ) ) ;
#91 = AXIS2_PLACEMENT_3D ( 'NONE', #178, #55, #275 ) ;
#92 = LOCAL_TIME ( 10, 36, 6.000000000000000000, #82 ) ;
#93 = ORIENTED_EDGE ( 'NONE', *, *, #277, .T. ) ;
#94 = ORIENTED_EDGE ( 'NONE', *, *, #302, .F. ) ;
#95 = DATE_AND_TIME ( #209, #267 ) ;
#96 = EDGE_CURVE ( 'NONE', #259, #259, #144, .T. ) ;
#97 = CC_DESIGN_SECURITY_CLASSIFICATION ( #254, ( #72 ) ) ;
#98 = DIRECTION ( 'NONE',  ( 0.0000000000000000000, 1.000000000000000000, 0.0000000000000000000 ) ) ;
#99 = SECURITY_CLASSIFICATION_LEVEL ( 'unclassified' ) ;
#100 = APPROVAL_STATUS ( 'not_yet_approved' ) ;
#101 = PERSON_AND_ORGANIZATION_ROLE ( 'classification_officer' ) ;
#102 = EDGE_LOOP ( 'NONE', ( #208 ) ) ;
#103 = DATE_TIME_ROLE ( 'creation_date' ) ;
#104 = EDGE_LOOP ( 'NONE', ( #94 ) ) ;
#105 = CARTESIAN_POINT ( 'NONE',  ( -7.140638514647873527E-31, 2.504598837045285455E-32, -2.045160154576066206E-16 ) ) ;
#106 = CIRCLE ( 'NONE', #279, 1.500000000000001110 ) ;
#107 = DIRECTION ( 'NONE',  ( 0.0000000000000000000, 1.000000000000000000, 0.0000000000000000000 ) ) ;
#108 = CARTESIAN_POINT ( 'NONE',  ( 3.491481338843133355E-14, 1.439769391355373834E-32, 10.00000000000000000 ) ) ;
#109 = FACE_OUTER_BOUND ( 'NONE', #224, .T. ) ;
#110 = VERTEX_POINT ( 'NONE', #192 ) ;
#111 = MANIFOLD_SOLID_BREP ( 'Corps-Déplacer/Copier1[1]', #30 ) ;
#112 = CARTESIAN_POINT ( 'NONE',  ( 2.433562493173664138E-13, -8.535788190057053710E-15, 69.70000000000001705 ) ) ;
#113 =( NAMED_UNIT ( * ) SI_UNIT ( $, .STERADIAN. ) SOLID_ANGLE_UNIT ( ) );
#114 = AXIS2_PLACEMENT_3D ( 'NONE', #298, #158, #15 ) ;
#115 = VERTEX_POINT ( 'NONE', #191 ) ;
#116 = EDGE_CURVE ( 'NONE', #219, #219, #299, .T. ) ;
#117 = VERTEX_POINT ( 'NONE', #195 ) ;
#118 = APPROVAL ( #100, 'UNSPECIFIED' ) ;
#119 = AXIS2_PLACEMENT_3D ( 'NONE', #167, #199, #71 ) ;
#120 = DIRECTION ( 'NONE',  ( -3.491481338843133355E-15, 1.224646799147353207E-16, -1.000000000000000000 ) ) ;
#121 = AXIS2_PLACEMENT_3D ( 'NONE', #214, #11, #13 ) ;
#122 = DIRECTION ( 'NONE',  ( 4.275831445896958607E-31, 1.000000000000000000, 1.224646799147352961E-16 ) ) ;
#123 = CC_DESIGN_PERSON_AND_ORGANIZATION_ASSIGNMENT ( #207, #12, ( #64 ) ) ;
#124 = PLANE ( 'NONE',  #47 ) ;
#125 = ORIENTED_EDGE ( 'NONE', *, *, #116, .T. ) ;
#126 = DIRECTION ( 'NONE',  ( 0.0000000000000000000, 1.000000000000000000, 0.0000000000000000000 ) ) ;
#127 = CC_DESIGN_APPROVAL ( #301, ( #72 ) ) ;
#128 = ADVANCED_FACE ( 'NONE', ( #37, #75 ), #263, .T. ) ;
#129 = DIRECTION ( 'NONE',  ( 0.0000000000000000000, 1.000000000000000000, 0.0000000000000000000 ) ) ;
#130 = DATE_AND_TIME ( #255, #92 ) ;
#131 = FACE_OUTER_BOUND ( 'NONE', #53, .T. ) ;
#132 = PERSON_AND_ORGANIZATION_ROLE ( 'creator' ) ;
#133 = ORIENTED_EDGE ( 'NONE', *, *, #116, .F. ) ;
#134 = CARTESIAN_POINT ( 'NONE',  ( 0.0000000000000000000, 0.0000000000000000000, 0.0000000000000000000 ) ) ;
#135 = APPROVAL_ROLE ( '' ) ;
#136 = VERTEX_POINT ( 'NONE', #159 ) ;
#137 = VERTEX_POINT ( 'NONE', #189 ) ;
#138 = AXIS2_PLACEMENT_3D ( 'NONE', #87, #185, #61 ) ;
#139 = APPLICATION_CONTEXT ( 'configuration controlled 3d designs of mechanical parts and assemblies' ) ;
#140 = APPROVAL_DATE_TIME ( #95, #118 ) ;
#141 = CC_DESIGN_PERSON_AND_ORGANIZATION_ASSIGNMENT ( #237, #182, ( #72 ) ) ;
#142 = COORDINATED_UNIVERSAL_TIME_OFFSET ( 1, 0, .AHEAD. ) ;
#143 = DATE_AND_TIME ( #282, #16 ) ;
#144 = CIRCLE ( 'NONE', #206, 1.919999999999989937 ) ;
#145 = CIRCLE ( 'NONE', #138, 1.499999999999992895 ) ;
#146 = ORIENTED_EDGE ( 'NONE', *, *, #96, .F. ) ;
#147 = ORIENTED_EDGE ( 'NONE', *, *, #277, .F. ) ;
#148 = FACE_OUTER_BOUND ( 'NONE', #46, .T. ) ;
#149 = APPROVAL_PERSON_ORGANIZATION ( #258, #172, #135 ) ;
#150 = CARTESIAN_POINT ( 'NONE',  ( 2.444036937190193601E-13, -8.572527594031472993E-15, 70.00000000000000000 ) ) ;
#151 = COORDINATED_UNIVERSAL_TIME_OFFSET ( 1, 0, .AHEAD. ) ;
#152 = ORIENTED_EDGE ( 'NONE', *, *, #210, .F. ) ;
#153 = CARTESIAN_POINT ( 'NONE',  ( 3.491481338843133355E-14, -1.224646799147353256E-15, 10.00000000000000000 ) ) ;
#154 = APPROVAL_DATE_TIME ( #80, #301 ) ;
#155 = CIRCLE ( 'NONE', #226, 1.200000000000001510 ) ;
#156 = FACE_OUTER_BOUND ( 'NONE', #27, .T. ) ;
#157 = DIRECTION ( 'NONE',  ( 0.0000000000000000000, 1.000000000000000000, 0.0000000000000000000 ) ) ;
#158 = DIRECTION ( 'NONE',  ( -3.491481338843133355E-15, 1.224646799147353207E-16, -1.000000000000000000 ) ) ;
#159 = CARTESIAN_POINT ( 'NONE',  ( 3.745473107890437408E-14, 1.499999999999991562, 10.72746133917892131 ) ) ;
#160 = ADVANCED_FACE ( 'NONE', ( #229 ), #124, .F. ) ;
#161 = DIRECTION ( 'NONE',  ( 0.0000000000000000000, 1.000000000000000000, 0.0000000000000000000 ) ) ;
#162 = LOCAL_TIME ( 10, 36, 6.000000000000000000, #176 ) ;
#163 =( NAMED_UNIT ( * ) PLANE_ANGLE_UNIT ( ) SI_UNIT ( $, .RADIAN. ) );
#164 = CYLINDRICAL_SURFACE ( 'NONE', #261, 1.919999999999989937 ) ;
#165 = ADVANCED_FACE ( 'NONE', ( #79, #7 ), #9, .T. ) ;
#166 = ORIENTED_EDGE ( 'NONE', *, *, #294, .T. ) ;
#167 = CARTESIAN_POINT ( 'NONE',  ( 3.491481338843133355E-14, -1.224646799147353256E-15, 10.00000000000000000 ) ) ;
#168 = CARTESIAN_POINT ( 'NONE',  ( 2.444036937190193601E-13, 8.998558695971026591E-33, 70.00000000000000000 ) ) ;
#169 = DIRECTION ( 'NONE',  ( -3.491481338843133355E-15, 1.224646799147353207E-16, -1.000000000000000000 ) ) ;
#170 = ORIENTED_EDGE ( 'NONE', *, *, #44, .F. ) ;
#171 = UNCERTAINTY_MEASURE_WITH_UNIT (LENGTH_MEASURE( 1.000000000000000082E-05 ), #190, 'distance_accuracy_value', 'NONE');
#172 = APPROVAL ( #193, 'UNSPECIFIED' ) ;
#173 = PERSON_AND_ORGANIZATION ( #197, #231 ) ;
#174 = EDGE_LOOP ( 'NONE', ( #147 ) ) ;
#175 = ORIENTED_EDGE ( 'NONE', *, *, #225, .F. ) ;
#176 = COORDINATED_UNIVERSAL_TIME_OFFSET ( 1, 0, .AHEAD. ) ;
#177 = CC_DESIGN_PERSON_AND_ORGANIZATION_ASSIGNMENT ( #200, #289, ( #72 ) ) ;
#178 = CARTESIAN_POINT ( 'NONE',  ( 2.444036937190193601E-13, -8.572527594031472993E-15, 70.00000000000000000 ) ) ;
#179 = DIRECTION ( 'NONE',  ( -3.491481338843133355E-15, 1.224646799147353207E-16, -1.000000000000000000 ) ) ;
#180 = APPLICATION_PROTOCOL_DEFINITION ( 'international standard', 'config_control_design', 1994, #283 ) ;
#181 = DIRECTION ( 'NONE',  ( 0.0000000000000000000, 0.0000000000000000000, 1.000000000000000000 ) ) ;
#182 = PERSON_AND_ORGANIZATION_ROLE ( 'design_supplier' ) ;
#183 = FACE_OUTER_BOUND ( 'NONE', #2, .T. ) ;
#184 = PLANE ( 'NONE',  #54 ) ;
#185 = DIRECTION ( 'NONE',  ( -3.491481338843133355E-15, 1.224646799147353207E-16, -1.000000000000000000 ) ) ;
#186 = APPLICATION_PROTOCOL_DEFINITION ( 'international standard', 'config_control_design', 1994, #139 ) ;
#187 = COORDINATED_UNIVERSAL_TIME_OFFSET ( 1, 0, .AHEAD. ) ;
#188 = ADVANCED_FACE ( 'NONE', ( #131 ), #212, .T. ) ;
#189 = CARTESIAN_POINT ( 'NONE',  ( 2.444036937190193601E-13, 1.199999999999992628, 70.00000000000000000 ) ) ;
#190 =( LENGTH_UNIT ( ) NAMED_UNIT ( * ) SI_UNIT ( .MILLI., .METRE. ) );
#191 = CARTESIAN_POINT ( 'NONE',  ( 2.433562493173664138E-13, 1.499999999999992673, 69.70000000000001705 ) ) ;
#192 = CARTESIAN_POINT ( 'NONE',  ( 3.745473107890437408E-14, 1.499999999999991562, 10.72746133917892131 ) ) ;
#193 = APPROVAL_STATUS ( 'not_yet_approved' ) ;
#194 = EDGE_CURVE ( 'NONE', #238, #238, #62, .T. ) ;
#195 = CARTESIAN_POINT ( 'NONE',  ( 2.444036937190193601E-13, 1.199999999999992628, 70.00000000000000000 ) ) ;
#196 = DIRECTION ( 'NONE',  ( -3.491481338843133355E-15, 1.224646799147353207E-16, -1.000000000000000000 ) ) ;
#197 = PERSON ( 'UNSPECIFIED', 'UNSPECIFIED', 'UNSPECIFIED', ('UNSPECIFIED'), ('UNSPECIFIED'), ('UNSPECIFIED') ) ;
#198 = CC_DESIGN_APPROVAL ( #172, ( #254 ) ) ;
#199 = DIRECTION ( 'NONE',  ( -3.491481338843133355E-15, 1.224646799147353207E-16, -1.000000000000000000 ) ) ;
#200 = PERSON_AND_ORGANIZATION ( #197, #231 ) ;
#201 = EDGE_LOOP ( 'NONE', ( #81 ) ) ;
#202 = ADVANCED_FACE ( 'NONE', ( #148 ), #184, .F. ) ;
#203 = FACE_OUTER_BOUND ( 'NONE', #88, .T. ) ;
#204 = PRODUCT_DEFINITION ( 'UNKNOWN', '', #72, #246 ) ;
#205 = FACE_OUTER_BOUND ( 'NONE', #303, .T. ) ;
#206 = AXIS2_PLACEMENT_3D ( 'NONE', #153, #233, #126 ) ;
#207 = PERSON_AND_ORGANIZATION ( #197, #231 ) ;
#208 = ORIENTED_EDGE ( 'NONE', *, *, #194, .F. ) ;
#209 = CALENDAR_DATE ( 2021, 2, 12 ) ;
#210 = EDGE_CURVE ( 'NONE', #115, #115, #106, .T. ) ;
#211 = CALENDAR_DATE ( 2021, 2, 12 ) ;
#212 = PLANE ( 'NONE',  #260 ) ;
#213 = CARTESIAN_POINT ( 'NONE',  ( 0.0000000000000000000, 0.0000000000000000000, 0.0000000000000000000 ) ) ;
#214 = CARTESIAN_POINT ( 'NONE',  ( 3.491481338843133355E-14, -1.224646799147353256E-15, 10.00000000000000000 ) ) ;
#215 = CLOSED_SHELL ( 'NONE', ( #165, #244, #128, #188, #17, #57, #292 ) ) ;
#216 = CONICAL_SURFACE ( 'NONE', #91, 1.200000000000001510, 0.7853981633974566057 ) ;
#217 = CIRCLE ( 'NONE', #32, 1.919999999999989937 ) ;
#218 = FACE_OUTER_BOUND ( 'NONE', #287, .T. ) ;
#219 = VERTEX_POINT ( 'NONE', #236 ) ;
#220 = AXIS2_PLACEMENT_3D ( 'NONE', #105, #38, #34 ) ;
#221 = MANIFOLD_SOLID_BREP ( 'Corps-Déplacer/Copier1[2]', #215 ) ;
#222 = FACE_BOUND ( 'NONE', #272, .T. ) ;
#223 = EDGE_LOOP ( 'NONE', ( #133 ) ) ;
#224 = EDGE_LOOP ( 'NONE', ( #35 ) ) ;
#225 = EDGE_CURVE ( 'NONE', #240, #240, #78, .T. ) ;
#226 = AXIS2_PLACEMENT_3D ( 'NONE', #150, #179, #278 ) ;
#227 = DIRECTION ( 'NONE',  ( 3.491481338843133355E-15, -1.224646799147353207E-16, 1.000000000000000000 ) ) ;
#228 = CALENDAR_DATE ( 2021, 2, 12 ) ;
#229 = FACE_OUTER_BOUND ( 'NONE', #201, .T. ) ;
#230 = AXIS2_PLACEMENT_3D ( 'NONE', #112, #86, #52 ) ;
#231 = ORGANIZATION ( 'UNSPECIFIED', 'UNSPECIFIED', '' ) ;
#232 = SHAPE_DEFINITION_REPRESENTATION ( #19, #280 ) ;
#233 = DIRECTION ( 'NONE',  ( -3.491481338843133355E-15, 1.224646799147353207E-16, -1.000000000000000000 ) ) ;
#234 = DIRECTION ( 'NONE',  ( 4.275831445896958607E-31, 1.000000000000000000, 1.224646799147353207E-16 ) ) ;
#235 = AXIS2_PLACEMENT_3D ( 'NONE', #134, #257, #89 ) ;
#236 = CARTESIAN_POINT ( 'NONE',  ( 0.0000000000000000000, 1.669999999999989049, 0.0000000000000000000 ) ) ;
#237 = PERSON_AND_ORGANIZATION ( #197, #231 ) ;
#238 = VERTEX_POINT ( 'NONE', #18 ) ;
#239 = APPROVAL_ROLE ( '' ) ;
#240 = VERTEX_POINT ( 'NONE', #284 ) ;
#241 = DIRECTION ( 'NONE',  ( 4.275831445896958607E-31, 1.000000000000000000, 1.224646799147353207E-16 ) ) ;
#242 = AXIS2_PLACEMENT_3D ( 'NONE', #36, #6, #157 ) ;
#243 = PLANE ( 'NONE',  #248 ) ;
#244 = ADVANCED_FACE ( 'NONE', ( #156, #273 ), #164, .T. ) ;
#245 = AXIS2_PLACEMENT_3D ( 'NONE', #285, #39, #161 ) ;
#246 = DESIGN_CONTEXT ( 'detailed design', #283, 'design' ) ;
#247 = EDGE_LOOP ( 'NONE', ( #50 ) ) ;
#248 = AXIS2_PLACEMENT_3D ( 'NONE', #45, #42, #241 ) ;
#249 = ORIENTED_EDGE ( 'NONE', *, *, #294, .F. ) ;
#250 = DIRECTION ( 'NONE',  ( 1.000000000000000000, 0.0000000000000000000, 0.0000000000000000000 ) ) ;
#251 = DATE_AND_TIME ( #228, #300 ) ;
#252 = DIRECTION ( 'NONE',  ( -4.275831445896958607E-31, -1.000000000000000000, -1.224646799147353207E-16 ) ) ;
#253 = AXIS2_PLACEMENT_3D ( 'NONE', #1, #169, #129 ) ;
#254 = SECURITY_CLASSIFICATION ( '', '', #99 ) ;
#255 = CALENDAR_DATE ( 2021, 2, 12 ) ;
#256 = DIRECTION ( 'NONE',  ( -3.491481338843133355E-15, 1.224646799147353207E-16, -1.000000000000000000 ) ) ;
#257 = DIRECTION ( 'NONE',  ( -3.491481338843133355E-15, 1.224646799147353207E-16, -1.000000000000000000 ) ) ;
#258 = PERSON_AND_ORGANIZATION ( #197, #231 ) ;
#259 = VERTEX_POINT ( 'NONE', #40 ) ;
#260 = AXIS2_PLACEMENT_3D ( 'NONE', #296, #293, #234 ) ;
#261 = AXIS2_PLACEMENT_3D ( 'NONE', #41, #90, #262 ) ;
#262 = DIRECTION ( 'NONE',  ( 4.275831445896958607E-31, 1.000000000000000000, 1.224646799147352961E-16 ) ) ;
#263 = CONICAL_SURFACE ( 'NONE', #220, 1.669999999999989049, 0.7853981633974500554 ) ;
#264 = AXIS2_PLACEMENT_3D ( 'NONE', #213, #181, #250 ) ;
#265 = AXIS2_PLACEMENT_3D ( 'NONE', #58, #56, #107 ) ;
#266 = EDGE_LOOP ( 'NONE', ( #93 ) ) ;
#267 = LOCAL_TIME ( 10, 36, 6.000000000000000000, #142 ) ;
#268 = APPROVAL_DATE_TIME ( #143, #172 ) ;
#269 = EDGE_LOOP ( 'NONE', ( #175 ) ) ;
#270 = CARTESIAN_POINT ( 'NONE',  ( -7.140638514647873527E-31, 2.504598837045285455E-32, -2.045160154576066206E-16 ) ) ;
#271 = ADVANCED_FACE ( 'NONE', ( #295, #218 ), #43, .T. ) ;
#272 = EDGE_LOOP ( 'NONE', ( #288 ) ) ;
#273 = FACE_OUTER_BOUND ( 'NONE', #174, .T. ) ;
#274 = FACE_BOUND ( 'NONE', #5, .T. ) ;
#275 = DIRECTION ( 'NONE',  ( 0.0000000000000000000, 1.000000000000000000, 0.0000000000000000000 ) ) ;
#276 = PERSON_AND_ORGANIZATION ( #197, #231 ) ;
#277 = EDGE_CURVE ( 'NONE', #63, #63, #217, .T. ) ;
#278 = DIRECTION ( 'NONE',  ( 0.0000000000000000000, 1.000000000000000000, 0.0000000000000000000 ) ) ;
#279 = AXIS2_PLACEMENT_3D ( 'NONE', #28, #120, #98 ) ;
#280 = ADVANCED_BREP_SHAPE_REPRESENTATION ( '321610', ( #111, #221, #264 ), #286 ) ;
#281 = DATE_TIME_ROLE ( 'classification_date' ) ;
#282 = CALENDAR_DATE ( 2021, 2, 12 ) ;
#283 = APPLICATION_CONTEXT ( 'configuration controlled 3d designs of mechanical parts and assemblies' ) ;
#284 = CARTESIAN_POINT ( 'NONE',  ( 3.491481338843133355E-14, 1.919999999999988605, 10.00000000000000000 ) ) ;
#285 = CARTESIAN_POINT ( 'NONE',  ( 2.444036937190193601E-13, -8.572527594031472993E-15, 70.00000000000000000 ) ) ;
#286 =( GEOMETRIC_REPRESENTATION_CONTEXT ( 3 ) GLOBAL_UNCERTAINTY_ASSIGNED_CONTEXT ( ( #171 ) ) GLOBAL_UNIT_ASSIGNED_CONTEXT ( ( #190, #163, #113 ) ) REPRESENTATION_CONTEXT ( 'NONE', 'WORKASPACE' ) );
#287 = EDGE_LOOP ( 'NONE', ( #70 ) ) ;
#288 = ORIENTED_EDGE ( 'NONE', *, *, #44, .T. ) ;
#289 = PERSON_AND_ORGANIZATION_ROLE ( 'creator' ) ;
#290 = FACE_BOUND ( 'NONE', #4, .T. ) ;
#291 = PERSON_AND_ORGANIZATION ( #197, #231 ) ;
#292 = ADVANCED_FACE ( 'NONE', ( #109, #183 ), #59, .T. ) ;
#293 = DIRECTION ( 'NONE',  ( -3.491481338843133355E-15, 1.224646799147353207E-16, -1.000000000000000000 ) ) ;
#294 = EDGE_CURVE ( 'NONE', #117, #117, #48, .T. ) ;
#295 = FACE_OUTER_BOUND ( 'NONE', #104, .T. ) ;
#296 = CARTESIAN_POINT ( 'NONE',  ( -3.570319257323936763E-31, 1.252299418522642728E-32, -1.022580077288033103E-16 ) ) ;
#297 = DIRECTION ( 'NONE',  ( -3.491481338843133355E-15, 1.224646799147353207E-16, -1.000000000000000000 ) ) ;
#298 = CARTESIAN_POINT ( 'NONE',  ( 0.0000000000000000000, 0.0000000000000000000, 0.0000000000000000000 ) ) ;
#299 = CIRCLE ( 'NONE', #83, 1.669999999999989049 ) ;
#300 = LOCAL_TIME ( 10, 36, 6.000000000000000000, #151 ) ;
#301 = APPROVAL ( #76, 'UNSPECIFIED' ) ;
#302 = EDGE_CURVE ( 'NONE', #110, #110, #145, .T. ) ;
#303 = EDGE_LOOP ( 'NONE', ( #146 ) ) ;
ENDSEC;
END-ISO-10303-21;
