ISO-10303-21;
HEADER;
FILE_DESCRIPTION (( 'STEP AP203' ),
    '1' );
FILE_NAME ('321609.step',
    '2021-12-02T09:36:06',
    ( '' ),
    ( '' ),
    'SwSTEP 2.0',
    'SolidWorks 2019',
    '' );
FILE_SCHEMA (( 'CONFIG_CONTROL_DESIGN' ));
ENDSEC;

DATA;
#1 = CARTESIAN_POINT ( 'NONE',  ( 2.444036937190193601E-13, -8.572527594031472993E-15, 70.00000000000000000 ) ) ;
#2 = PLANE ( 'NONE',  #232 ) ;
#3 =( GEOMETRIC_REPRESENTATION_CONTEXT ( 3 ) GLOBAL_UNCERTAINTY_ASSIGNED_CONTEXT ( ( #291 ) ) GLOBAL_UNIT_ASSIGNED_CONTEXT ( ( #293, #137, #163 ) ) REPRESENTATION_CONTEXT ( 'NONE', 'WORKASPACE' ) );
#4 = EDGE_LOOP ( 'NONE', ( #170 ) ) ;
#5 = FACE_BOUND ( 'NONE', #53, .T. ) ;
#6 = DIRECTION ( 'NONE',  ( 0.0000000000000000000, 1.000000000000000000, 0.0000000000000000000 ) ) ;
#7 = MANIFOLD_SOLID_BREP ( 'Corps-Déplacer/Copier1[2]', #31 ) ;
#8 = DIRECTION ( 'NONE',  ( -3.491481338843133355E-15, 1.224646799147353207E-16, -1.000000000000000000 ) ) ;
#9 = DIRECTION ( 'NONE',  ( -3.491481338843133355E-15, 1.224646799147353207E-16, -1.000000000000000000 ) ) ;
#10 = VERTEX_POINT ( 'NONE', #237 ) ;
#11 = CIRCLE ( 'NONE', #167, 1.500000000000001110 ) ;
#12 = CARTESIAN_POINT ( 'NONE',  ( 3.491481338843133355E-14, 1.436019991898719436E-32, 10.00000000000000000 ) ) ;
#13 = APPROVAL_STATUS ( 'not_yet_approved' ) ;
#14 = PERSON_AND_ORGANIZATION ( #269, #220 ) ;
#15 = CARTESIAN_POINT ( 'NONE',  ( 2.444036937190193601E-13, -8.572527594031472993E-15, 70.00000000000000000 ) ) ;
#16 = LOCAL_TIME ( 10, 36, 6.000000000000000000, #281 ) ;
#17 = ADVANCED_FACE ( 'NONE', ( #122, #5 ), #225, .T. ) ;
#18 = APPLICATION_PROTOCOL_DEFINITION ( 'international standard', 'config_control_design', 1994, #148 ) ;
#19 = PRODUCT ( '321609', '321609', '', ( #190 ) ) ;
#20 = CC_DESIGN_PERSON_AND_ORGANIZATION_ASSIGNMENT ( #85, #40, ( #212 ) ) ;
#21 = DIRECTION ( 'NONE',  ( -3.491481338843133355E-15, 1.224646799147353207E-16, -1.000000000000000000 ) ) ;
#22 = FACE_OUTER_BOUND ( 'NONE', #168, .T. ) ;
#23 = EDGE_LOOP ( 'NONE', ( #27 ) ) ;
#24 = DATE_TIME_ROLE ( 'classification_date' ) ;
#25 = AXIS2_PLACEMENT_3D ( 'NONE', #177, #210, #175 ) ;
#26 = CARTESIAN_POINT ( 'NONE',  ( 3.742449396354159272E-14, 1.499999999999991562, 10.71880108514107732 ) ) ;
#27 = ORIENTED_EDGE ( 'NONE', *, *, #94, .T. ) ;
#28 = EDGE_CURVE ( 'NONE', #133, #133, #259, .T. ) ;
#29 = DIRECTION ( 'NONE',  ( 4.275831445896958607E-31, 1.000000000000000000, 1.224646799147353207E-16 ) ) ;
#30 = CARTESIAN_POINT ( 'NONE',  ( 2.444036937190193601E-13, 1.199999999999992628, 70.00000000000000000 ) ) ;
#31 = CLOSED_SHELL ( 'NONE', ( #161, #193, #17, #99, #48, #273, #64 ) ) ;
#32 = CARTESIAN_POINT ( 'NONE',  ( -3.559629678709194406E-31, 1.248550019065988330E-32, -1.019518460290164912E-16 ) ) ;
#33 = CIRCLE ( 'NONE', #81, 1.914999999999990044 ) ;
#34 = DIRECTION ( 'NONE',  ( -4.275831445896958607E-31, -1.000000000000000000, -1.224646799147353207E-16 ) ) ;
#35 = DIRECTION ( 'NONE',  ( -3.491481338843133355E-15, 1.224646799147353207E-16, -1.000000000000000000 ) ) ;
#36 = CARTESIAN_POINT ( 'NONE',  ( 0.0000000000000000000, 0.0000000000000000000, 0.0000000000000000000 ) ) ;
#37 = DATE_TIME_ROLE ( 'creation_date' ) ;
#38 = CARTESIAN_POINT ( 'NONE',  ( 8.728703347107825500E-16, -3.061616997868380553E-17, 0.2499999999999997780 ) ) ;
#39 = DIRECTION ( 'NONE',  ( 0.0000000000000000000, 1.000000000000000000, 0.0000000000000000000 ) ) ;
#40 = PERSON_AND_ORGANIZATION_ROLE ( 'creator' ) ;
#41 = PRODUCT_DEFINITION_FORMATION_WITH_SPECIFIED_SOURCE ( 'ANY', '', #19, .NOT_KNOWN. ) ;
#42 = PERSON_AND_ORGANIZATION ( #269, #220 ) ;
#43 = CARTESIAN_POINT ( 'NONE',  ( 3.491481338843133355E-14, -1.224646799147353256E-15, 10.00000000000000000 ) ) ;
#44 = APPROVAL_ROLE ( '' ) ;
#45 = EDGE_LOOP ( 'NONE', ( #264 ) ) ;
#46 = CC_DESIGN_PERSON_AND_ORGANIZATION_ASSIGNMENT ( #158, #63, ( #41 ) ) ;
#47 = DIRECTION ( 'NONE',  ( 0.0000000000000000000, 1.000000000000000000, 0.0000000000000000000 ) ) ;
#48 = ADVANCED_FACE ( 'NONE', ( #102 ), #2, .F. ) ;
#49 = ORIENTED_EDGE ( 'NONE', *, *, #69, .F. ) ;
#50 = EDGE_LOOP ( 'NONE', ( #49 ) ) ;
#51 = AXIS2_PLACEMENT_3D ( 'NONE', #43, #241, #47 ) ;
#52 = AXIS2_PLACEMENT_3D ( 'NONE', #108, #216, #256 ) ;
#53 = EDGE_LOOP ( 'NONE', ( #141 ) ) ;
#54 = CYLINDRICAL_SURFACE ( 'NONE', #208, 1.499999999999996891 ) ;
#55 = CARTESIAN_POINT ( 'NONE',  ( 3.491481338843133355E-14, -1.224646799147353256E-15, 10.00000000000000000 ) ) ;
#56 = DIRECTION ( 'NONE',  ( 0.0000000000000000000, 1.000000000000000000, 0.0000000000000000000 ) ) ;
#57 = CC_DESIGN_APPROVAL ( #96, ( #115 ) ) ;
#58 = DIRECTION ( 'NONE',  ( -3.491481338843133355E-15, 1.224646799147353207E-16, -1.000000000000000000 ) ) ;
#59 = FACE_OUTER_BOUND ( 'NONE', #221, .T. ) ;
#60 = DIRECTION ( 'NONE',  ( -3.491481338843133355E-15, 1.224646799147353207E-16, -1.000000000000000000 ) ) ;
#61 = DATE_AND_TIME ( #257, #16 ) ;
#62 = PERSON_AND_ORGANIZATION_ROLE ( 'design_owner' ) ;
#63 = PERSON_AND_ORGANIZATION_ROLE ( 'creator' ) ;
#64 = ADVANCED_FACE ( 'NONE', ( #283, #71 ), #54, .T. ) ;
#65 = AXIS2_PLACEMENT_3D ( 'NONE', #202, #271, #56 ) ;
#66 = PRODUCT_DEFINITION_SHAPE ( 'NONE', 'NONE',  #212 ) ;
#67 = COORDINATED_UNIVERSAL_TIME_OFFSET ( 1, 0, .AHEAD. ) ;
#68 = FACE_BOUND ( 'NONE', #245, .T. ) ;
#69 = EDGE_CURVE ( 'NONE', #10, #10, #262, .T. ) ;
#70 = AXIS2_PLACEMENT_3D ( 'NONE', #287, #90, #134 ) ;
#71 = FACE_OUTER_BOUND ( 'NONE', #173, .T. ) ;
#72 = ORIENTED_EDGE ( 'NONE', *, *, #91, .T. ) ;
#73 = EDGE_LOOP ( 'NONE', ( #72 ) ) ;
#74 = VERTEX_POINT ( 'NONE', #275 ) ;
#75 = AXIS2_PLACEMENT_3D ( 'NONE', #184, #60, #272 ) ;
#76 = CARTESIAN_POINT ( 'NONE',  ( 2.444036937190193601E-13, -8.572527594031472993E-15, 70.00000000000000000 ) ) ;
#77 = PRODUCT_RELATED_PRODUCT_CATEGORY ( 'detail', '', ( #19 ) ) ;
#78 = DIRECTION ( 'NONE',  ( -3.491481338843133355E-15, 1.224646799147353207E-16, -1.000000000000000000 ) ) ;
#79 = DIRECTION ( 'NONE',  ( -3.491481338843133355E-15, 1.224646799147353207E-16, -1.000000000000000000 ) ) ;
#80 = AXIS2_PLACEMENT_3D ( 'NONE', #230, #249, #288 ) ;
#81 = AXIS2_PLACEMENT_3D ( 'NONE', #106, #112, #153 ) ;
#82 = DIRECTION ( 'NONE',  ( 0.0000000000000000000, 1.000000000000000000, 0.0000000000000000000 ) ) ;
#83 = CARTESIAN_POINT ( 'NONE',  ( -7.119259357418388812E-31, 2.497100038131976660E-32, -2.039036920580329824E-16 ) ) ;
#84 = PERSON_AND_ORGANIZATION_ROLE ( 'design_supplier' ) ;
#85 = PERSON_AND_ORGANIZATION ( #269, #220 ) ;
#86 = ADVANCED_BREP_SHAPE_REPRESENTATION ( '321609', ( #110, #7, #139 ), #3 ) ;
#87 = AXIS2_PLACEMENT_3D ( 'NONE', #55, #151, #181 ) ;
#88 = DIRECTION ( 'NONE',  ( 0.0000000000000000000, 1.000000000000000000, 0.0000000000000000000 ) ) ;
#89 = DIRECTION ( 'NONE',  ( 0.0000000000000000000, 0.0000000000000000000, 1.000000000000000000 ) ) ;
#90 = DIRECTION ( 'NONE',  ( -3.491481338843133355E-15, 1.224646799147353207E-16, -1.000000000000000000 ) ) ;
#91 = EDGE_CURVE ( 'NONE', #207, #207, #300, .T. ) ;
#92 = CONICAL_SURFACE ( 'NONE', #254, 1.200000000000001510, 0.7853981633974566057 ) ;
#93 = PLANE ( 'NONE',  #70 ) ;
#94 = EDGE_CURVE ( 'NONE', #169, #169, #197, .T. ) ;
#95 = CARTESIAN_POINT ( 'NONE',  ( 2.444036937190193601E-13, -8.572527594031472993E-15, 70.00000000000000000 ) ) ;
#96 = APPROVAL ( #227, 'UNSPECIFIED' ) ;
#97 = AXIS2_PLACEMENT_3D ( 'NONE', #12, #155, #34 ) ;
#98 = EDGE_LOOP ( 'NONE', ( #138 ) ) ;
#99 = ADVANCED_FACE ( 'NONE', ( #150 ), #105, .T. ) ;
#100 = ORIENTED_EDGE ( 'NONE', *, *, #301, .T. ) ;
#101 = CARTESIAN_POINT ( 'NONE',  ( 8.552847072295026068E-47, 1.664999999999989155, 0.0000000000000000000 ) ) ;
#102 = FACE_OUTER_BOUND ( 'NONE', #4, .T. ) ;
#103 = VERTEX_POINT ( 'NONE', #240 ) ;
#104 = DIRECTION ( 'NONE',  ( 4.275831445896958607E-31, 1.000000000000000000, 1.224646799147353207E-16 ) ) ;
#105 = PLANE ( 'NONE',  #174 ) ;
#106 = CARTESIAN_POINT ( 'NONE',  ( 3.491481338843133355E-14, -1.224646799147353256E-15, 10.00000000000000000 ) ) ;
#107 = LOCAL_TIME ( 10, 36, 6.000000000000000000, #194 ) ;
#108 = CARTESIAN_POINT ( 'NONE',  ( 3.491481338843133355E-14, -1.224646799147353256E-15, 10.00000000000000000 ) ) ;
#109 = PLANE ( 'NONE',  #97 ) ;
#110 = MANIFOLD_SOLID_BREP ( 'Corps-Déplacer/Copier1[1]', #217 ) ;
#111 = EDGE_LOOP ( 'NONE', ( #146 ) ) ;
#112 = DIRECTION ( 'NONE',  ( -3.491481338843133355E-15, 1.224646799147353207E-16, -1.000000000000000000 ) ) ;
#113 = COORDINATED_UNIVERSAL_TIME_OFFSET ( 1, 0, .AHEAD. ) ;
#114 = CC_DESIGN_DATE_AND_TIME_ASSIGNMENT ( #164, #24, ( #115 ) ) ;
#115 = SECURITY_CLASSIFICATION ( '', '', #182 ) ;
#116 = ORIENTED_EDGE ( 'NONE', *, *, #302, .F. ) ;
#117 = ORIENTED_EDGE ( 'NONE', *, *, #69, .T. ) ;
#118 = EDGE_CURVE ( 'NONE', #171, #171, #218, .T. ) ;
#119 = CC_DESIGN_SECURITY_CLASSIFICATION ( #115, ( #41 ) ) ;
#120 = EDGE_LOOP ( 'NONE', ( #303 ) ) ;
#121 = VERTEX_POINT ( 'NONE', #200 ) ;
#122 = FACE_OUTER_BOUND ( 'NONE', #199, .T. ) ;
#123 = CALENDAR_DATE ( 2021, 2, 12 ) ;
#124 = AXIS2_PLACEMENT_3D ( 'NONE', #83, #154, #29 ) ;
#125 = DIRECTION ( 'NONE',  ( 4.022830171043855709E-31, 1.000000000000000000, 1.132326028705493579E-16 ) ) ;
#126 = CARTESIAN_POINT ( 'NONE',  ( 2.433562493173664138E-13, -8.535788190057053710E-15, 69.70000000000001705 ) ) ;
#127 = DATE_AND_TIME ( #185, #260 ) ;
#128 = DIRECTION ( 'NONE',  ( 4.275831445896958607E-31, 1.000000000000000000, 1.224646799147353454E-16 ) ) ;
#129 = DIRECTION ( 'NONE',  ( -3.491481338843133355E-15, 1.224646799147353207E-16, -1.000000000000000000 ) ) ;
#130 = APPROVAL_ROLE ( '' ) ;
#131 = APPROVAL ( #278, 'UNSPECIFIED' ) ;
#132 = FACE_OUTER_BOUND ( 'NONE', #228, .T. ) ;
#133 = VERTEX_POINT ( 'NONE', #234 ) ;
#134 = DIRECTION ( 'NONE',  ( 4.275831445896958607E-31, 1.000000000000000000, 1.224646799147353207E-16 ) ) ;
#135 = APPROVAL_DATE_TIME ( #61, #165 ) ;
#136 = PERSON_AND_ORGANIZATION_ROLE ( 'classification_officer' ) ;
#137 =( NAMED_UNIT ( * ) PLANE_ANGLE_UNIT ( ) SI_UNIT ( $, .RADIAN. ) );
#138 = ORIENTED_EDGE ( 'NONE', *, *, #244, .T. ) ;
#139 = AXIS2_PLACEMENT_3D ( 'NONE', #238, #89, #189 ) ;
#140 = ORIENTED_EDGE ( 'NONE', *, *, #206, .T. ) ;
#141 = ORIENTED_EDGE ( 'NONE', *, *, #94, .F. ) ;
#142 = VERTEX_POINT ( 'NONE', #211 ) ;
#143 = ORIENTED_EDGE ( 'NONE', *, *, #91, .F. ) ;
#144 = AXIS2_PLACEMENT_3D ( 'NONE', #274, #8, #250 ) ;
#145 = APPROVAL_PERSON_ORGANIZATION ( #284, #96, #44 ) ;
#146 = ORIENTED_EDGE ( 'NONE', *, *, #28, .T. ) ;
#147 = CARTESIAN_POINT ( 'NONE',  ( 0.0000000000000000000, 0.0000000000000000000, 0.0000000000000000000 ) ) ;
#148 = APPLICATION_CONTEXT ( 'configuration controlled 3d designs of mechanical parts and assemblies' ) ;
#149 = ADVANCED_FACE ( 'NONE', ( #251 ), #93, .F. ) ;
#150 = FACE_OUTER_BOUND ( 'NONE', #23, .T. ) ;
#151 = DIRECTION ( 'NONE',  ( -3.491481338843133355E-15, 1.224646799147353207E-16, -1.000000000000000000 ) ) ;
#152 = AXIS2_PLACEMENT_3D ( 'NONE', #95, #21, #6 ) ;
#153 = DIRECTION ( 'NONE',  ( 0.0000000000000000000, 1.000000000000000000, 0.0000000000000000000 ) ) ;
#154 = DIRECTION ( 'NONE',  ( -3.491481338843133355E-15, 1.224646799147353207E-16, -1.000000000000000000 ) ) ;
#155 = DIRECTION ( 'NONE',  ( 3.491481338843133355E-15, -1.224646799147353207E-16, 1.000000000000000000 ) ) ;
#156 = AXIS2_PLACEMENT_3D ( 'NONE', #36, #58, #253 ) ;
#157 = DIRECTION ( 'NONE',  ( -3.491481338843133355E-15, 1.224646799147353207E-16, -1.000000000000000000 ) ) ;
#158 = PERSON_AND_ORGANIZATION ( #269, #220 ) ;
#159 = PERSON_AND_ORGANIZATION ( #269, #220 ) ;
#160 = DATE_AND_TIME ( #188, #162 ) ;
#161 = ADVANCED_FACE ( 'NONE', ( #68, #246 ), #191, .T. ) ;
#162 = LOCAL_TIME ( 10, 36, 6.000000000000000000, #113 ) ;
#163 =( NAMED_UNIT ( * ) SI_UNIT ( $, .STERADIAN. ) SOLID_ANGLE_UNIT ( ) );
#164 = DATE_AND_TIME ( #248, #198 ) ;
#165 = APPROVAL ( #13, 'UNSPECIFIED' ) ;
#166 = ORIENTED_EDGE ( 'NONE', *, *, #118, .T. ) ;
#167 = AXIS2_PLACEMENT_3D ( 'NONE', #126, #157, #39 ) ;
#168 = EDGE_LOOP ( 'NONE', ( #143 ) ) ;
#169 = VERTEX_POINT ( 'NONE', #101 ) ;
#170 = ORIENTED_EDGE ( 'NONE', *, *, #28, .F. ) ;
#171 = VERTEX_POINT ( 'NONE', #30 ) ;
#172 = DIRECTION ( 'NONE',  ( -3.491481338843133355E-15, 1.224646799147353207E-16, -1.000000000000000000 ) ) ;
#173 = EDGE_LOOP ( 'NONE', ( #100 ) ) ;
#174 = AXIS2_PLACEMENT_3D ( 'NONE', #32, #78, #104 ) ;
#175 = DIRECTION ( 'NONE',  ( 0.0000000000000000000, 1.000000000000000000, 0.0000000000000000000 ) ) ;
#176 = SHAPE_DEFINITION_REPRESENTATION ( #66, #86 ) ;
#177 = CARTESIAN_POINT ( 'NONE',  ( 2.433562493173664138E-13, -8.535788190057053710E-15, 69.70000000000001705 ) ) ;
#178 = CC_DESIGN_APPROVAL ( #131, ( #212 ) ) ;
#179 = DESIGN_CONTEXT ( 'detailed design', #299, 'design' ) ;
#180 = FACE_OUTER_BOUND ( 'NONE', #247, .T. ) ;
#181 = DIRECTION ( 'NONE',  ( 0.0000000000000000000, 1.000000000000000000, 0.0000000000000000000 ) ) ;
#182 = SECURITY_CLASSIFICATION_LEVEL ( 'unclassified' ) ;
#183 = PERSON_AND_ORGANIZATION ( #269, #220 ) ;
#184 = CARTESIAN_POINT ( 'NONE',  ( 0.0000000000000000000, 0.0000000000000000000, 0.0000000000000000000 ) ) ;
#185 = CALENDAR_DATE ( 2021, 2, 12 ) ;
#186 = ADVANCED_FACE ( 'NONE', ( #22, #222 ), #92, .T. ) ;
#187 = CARTESIAN_POINT ( 'NONE',  ( 2.433562493173664138E-13, 1.499999999999992673, 69.70000000000001705 ) ) ;
#188 = CALENDAR_DATE ( 2021, 2, 12 ) ;
#189 = DIRECTION ( 'NONE',  ( 1.000000000000000000, 0.0000000000000000000, 0.0000000000000000000 ) ) ;
#190 = MECHANICAL_CONTEXT ( 'NONE', #148, 'mechanical' ) ;
#191 = CONICAL_SURFACE ( 'NONE', #51, 1.914999999999990044, 0.5235987755983005920 ) ;
#192 = APPROVAL_PERSON_ORGANIZATION ( #159, #165, #130 ) ;
#193 = ADVANCED_FACE ( 'NONE', ( #132, #59 ), #297, .T. ) ;
#194 = COORDINATED_UNIVERSAL_TIME_OFFSET ( 1, 0, .AHEAD. ) ;
#195 = DIRECTION ( 'NONE',  ( 4.275831445896958607E-31, 1.000000000000000000, 1.224646799147353207E-16 ) ) ;
#196 = VERTEX_POINT ( 'NONE', #26 ) ;
#197 = CIRCLE ( 'NONE', #124, 1.664999999999989155 ) ;
#198 = LOCAL_TIME ( 10, 36, 6.000000000000000000, #67 ) ;
#199 = EDGE_LOOP ( 'NONE', ( #268 ) ) ;
#200 = CARTESIAN_POINT ( 'NONE',  ( 3.491481338843133355E-14, 1.914999999999988711, 10.00000000000000000 ) ) ;
#201 = EDGE_LOOP ( 'NONE', ( #116 ) ) ;
#202 = CARTESIAN_POINT ( 'NONE',  ( 2.444036937190193601E-13, -8.572527594031472993E-15, 70.00000000000000000 ) ) ;
#203 = CC_DESIGN_PERSON_AND_ORGANIZATION_ASSIGNMENT ( #42, #136, ( #115 ) ) ;
#204 = FACE_OUTER_BOUND ( 'NONE', #261, .T. ) ;
#205 = APPLICATION_PROTOCOL_DEFINITION ( 'international standard', 'config_control_design', 1994, #299 ) ;
#206 = EDGE_CURVE ( 'NONE', #196, #196, #219, .T. ) ;
#207 = VERTEX_POINT ( 'NONE', #187 ) ;
#208 = AXIS2_PLACEMENT_3D ( 'NONE', #147, #35, #128 ) ;
#209 = APPROVAL_DATE_TIME ( #127, #131 ) ;
#210 = DIRECTION ( 'NONE',  ( -3.491481338843133355E-15, 1.224646799147353207E-16, -1.000000000000000000 ) ) ;
#211 = CARTESIAN_POINT ( 'NONE',  ( 3.491481338843133355E-14, 1.914999999999988711, 10.00000000000000000 ) ) ;
#212 = PRODUCT_DEFINITION ( 'UNKNOWN', '', #41, #179 ) ;
#213 = FACE_OUTER_BOUND ( 'NONE', #73, .T. ) ;
#214 = COORDINATED_UNIVERSAL_TIME_OFFSET ( 1, 0, .AHEAD. ) ;
#215 = ADVANCED_FACE ( 'NONE', ( #236, #180 ), #233, .T. ) ;
#216 = DIRECTION ( 'NONE',  ( -3.491481338843133355E-15, 1.224646799147353207E-16, -1.000000000000000000 ) ) ;
#217 = CLOSED_SHELL ( 'NONE', ( #294, #215, #298, #186, #149 ) ) ;
#218 = CIRCLE ( 'NONE', #65, 1.200000000000001510 ) ;
#219 = CIRCLE ( 'NONE', #242, 1.499999999999992895 ) ;
#220 = ORGANIZATION ( 'UNSPECIFIED', 'UNSPECIFIED', '' ) ;
#221 = EDGE_LOOP ( 'NONE', ( #285 ) ) ;
#222 = FACE_BOUND ( 'NONE', #223, .T. ) ;
#223 = EDGE_LOOP ( 'NONE', ( #166 ) ) ;
#224 = ORIENTED_EDGE ( 'NONE', *, *, #301, .F. ) ;
#225 = CONICAL_SURFACE ( 'NONE', #80, 1.664999999999989155, 0.7853981633974500554 ) ;
#226 = CC_DESIGN_APPROVAL ( #165, ( #41 ) ) ;
#227 = APPROVAL_STATUS ( 'not_yet_approved' ) ;
#228 = EDGE_LOOP ( 'NONE', ( #286 ) ) ;
#229 = DATE_AND_TIME ( #123, #107 ) ;
#230 = CARTESIAN_POINT ( 'NONE',  ( -7.119259357418388812E-31, 2.497100038131976660E-32, -2.039036920580329824E-16 ) ) ;
#231 = CC_DESIGN_PERSON_AND_ORGANIZATION_ASSIGNMENT ( #14, #62, ( #19 ) ) ;
#232 = AXIS2_PLACEMENT_3D ( 'NONE', #76, #243, #195 ) ;
#233 = CONICAL_SURFACE ( 'NONE', #52, 1.914999999999990044, 0.5235987755983005920 ) ;
#234 = CARTESIAN_POINT ( 'NONE',  ( 2.444036937190193601E-13, 1.199999999999992628, 70.00000000000000000 ) ) ;
#235 = DIRECTION ( 'NONE',  ( 0.0000000000000000000, 1.000000000000000000, 0.0000000000000000000 ) ) ;
#236 = FACE_BOUND ( 'NONE', #266, .T. ) ;
#237 = CARTESIAN_POINT ( 'NONE',  ( 3.742449396354159272E-14, 1.499999999999991562, 10.71880108514107732 ) ) ;
#238 = CARTESIAN_POINT ( 'NONE',  ( 0.0000000000000000000, 0.0000000000000000000, 0.0000000000000000000 ) ) ;
#239 = CONICAL_SURFACE ( 'NONE', #267, 1.200000000000001510, 0.7853981633974566057 ) ;
#240 = CARTESIAN_POINT ( 'NONE',  ( 2.433562493173664138E-13, 1.499999999999992673, 69.70000000000001705 ) ) ;
#241 = DIRECTION ( 'NONE',  ( -3.491481338843133355E-15, 1.224646799147353207E-16, -1.000000000000000000 ) ) ;
#242 = AXIS2_PLACEMENT_3D ( 'NONE', #280, #9, #88 ) ;
#243 = DIRECTION ( 'NONE',  ( -3.491481338843133355E-15, 1.224646799147353207E-16, -1.000000000000000000 ) ) ;
#244 = EDGE_CURVE ( 'NONE', #121, #121, #292, .T. ) ;
#245 = EDGE_LOOP ( 'NONE', ( #117 ) ) ;
#246 = FACE_OUTER_BOUND ( 'NONE', #201, .T. ) ;
#247 = EDGE_LOOP ( 'NONE', ( #265 ) ) ;
#248 = CALENDAR_DATE ( 2021, 2, 12 ) ;
#249 = DIRECTION ( 'NONE',  ( 3.491481338843133355E-15, -1.224646799147353207E-16, 1.000000000000000000 ) ) ;
#250 = DIRECTION ( 'NONE',  ( 0.0000000000000000000, 1.000000000000000000, 0.0000000000000000000 ) ) ;
#251 = FACE_OUTER_BOUND ( 'NONE', #45, .T. ) ;
#252 = APPROVAL_ROLE ( '' ) ;
#253 = DIRECTION ( 'NONE',  ( 4.275831445896958607E-31, 1.000000000000000000, 1.224646799147353207E-16 ) ) ;
#254 = AXIS2_PLACEMENT_3D ( 'NONE', #1, #172, #82 ) ;
#255 = AXIS2_PLACEMENT_3D ( 'NONE', #38, #79, #125 ) ;
#256 = DIRECTION ( 'NONE',  ( 0.0000000000000000000, 1.000000000000000000, 0.0000000000000000000 ) ) ;
#257 = CALENDAR_DATE ( 2021, 2, 12 ) ;
#258 = PERSON_AND_ORGANIZATION ( #269, #220 ) ;
#259 = CIRCLE ( 'NONE', #152, 1.200000000000001510 ) ;
#260 = LOCAL_TIME ( 10, 36, 6.000000000000000000, #214 ) ;
#261 = EDGE_LOOP ( 'NONE', ( #224 ) ) ;
#262 = CIRCLE ( 'NONE', #144, 1.499999999999992895 ) ;
#263 = CIRCLE ( 'NONE', #255, 1.914999999999990044 ) ;
#264 = ORIENTED_EDGE ( 'NONE', *, *, #118, .F. ) ;
#265 = ORIENTED_EDGE ( 'NONE', *, *, #244, .F. ) ;
#266 = EDGE_LOOP ( 'NONE', ( #140 ) ) ;
#267 = AXIS2_PLACEMENT_3D ( 'NONE', #15, #129, #235 ) ;
#268 = ORIENTED_EDGE ( 'NONE', *, *, #270, .T. ) ;
#269 = PERSON ( 'UNSPECIFIED', 'UNSPECIFIED', 'UNSPECIFIED', ('UNSPECIFIED'), ('UNSPECIFIED'), ('UNSPECIFIED') ) ;
#270 = EDGE_CURVE ( 'NONE', #74, #74, #263, .T. ) ;
#271 = DIRECTION ( 'NONE',  ( -3.491481338843133355E-15, 1.224646799147353207E-16, -1.000000000000000000 ) ) ;
#272 = DIRECTION ( 'NONE',  ( 4.275831445896958607E-31, 1.000000000000000000, 1.224646799147353454E-16 ) ) ;
#273 = ADVANCED_FACE ( 'NONE', ( #204, #276 ), #239, .T. ) ;
#274 = CARTESIAN_POINT ( 'NONE',  ( 3.742449396354159272E-14, -1.312674543961519503E-15, 10.71880108514107732 ) ) ;
#275 = CARTESIAN_POINT ( 'NONE',  ( 8.728703347107833388E-16, 1.914999999999990044, 0.2500000000000000000 ) ) ;
#276 = FACE_BOUND ( 'NONE', #111, .T. ) ;
#277 = FACE_OUTER_BOUND ( 'NONE', #98, .T. ) ;
#278 = APPROVAL_STATUS ( 'not_yet_approved' ) ;
#279 = CC_DESIGN_DATE_AND_TIME_ASSIGNMENT ( #160, #37, ( #212 ) ) ;
#280 = CARTESIAN_POINT ( 'NONE',  ( 3.742449396354159272E-14, -1.312674543961519503E-15, 10.71880108514107732 ) ) ;
#281 = COORDINATED_UNIVERSAL_TIME_OFFSET ( 1, 0, .AHEAD. ) ;
#282 = APPROVAL_PERSON_ORGANIZATION ( #183, #131, #252 ) ;
#283 = FACE_OUTER_BOUND ( 'NONE', #50, .T. ) ;
#284 = PERSON_AND_ORGANIZATION ( #269, #220 ) ;
#285 = ORIENTED_EDGE ( 'NONE', *, *, #270, .F. ) ;
#286 = ORIENTED_EDGE ( 'NONE', *, *, #302, .T. ) ;
#287 = CARTESIAN_POINT ( 'NONE',  ( 2.444036937190193601E-13, 8.998558695971026591E-33, 70.00000000000000000 ) ) ;
#288 = DIRECTION ( 'NONE',  ( -4.275831445896957731E-31, -1.000000000000000000, -1.224646799147353207E-16 ) ) ;
#289 = APPROVAL_DATE_TIME ( #229, #96 ) ;
#290 = FACE_OUTER_BOUND ( 'NONE', #120, .T. ) ;
#291 = UNCERTAINTY_MEASURE_WITH_UNIT (LENGTH_MEASURE( 1.000000000000000082E-05 ), #293, 'distance_accuracy_value', 'NONE');
#292 = CIRCLE ( 'NONE', #87, 1.914999999999990044 ) ;
#293 =( LENGTH_UNIT ( ) NAMED_UNIT ( * ) SI_UNIT ( .MILLI., .METRE. ) );
#294 = ADVANCED_FACE ( 'NONE', ( #277 ), #109, .F. ) ;
#295 = CYLINDRICAL_SURFACE ( 'NONE', #75, 1.499999999999996891 ) ;
#296 = CC_DESIGN_PERSON_AND_ORGANIZATION_ASSIGNMENT ( #258, #84, ( #41 ) ) ;
#297 = CYLINDRICAL_SURFACE ( 'NONE', #156, 1.914999999999990044 ) ;
#298 = ADVANCED_FACE ( 'NONE', ( #290, #213 ), #295, .T. ) ;
#299 = APPLICATION_CONTEXT ( 'configuration controlled 3d designs of mechanical parts and assemblies' ) ;
#300 = CIRCLE ( 'NONE', #25, 1.500000000000001110 ) ;
#301 = EDGE_CURVE ( 'NONE', #103, #103, #11, .T. ) ;
#302 = EDGE_CURVE ( 'NONE', #142, #142, #33, .T. ) ;
#303 = ORIENTED_EDGE ( 'NONE', *, *, #206, .F. ) ;
ENDSEC;
END-ISO-10303-21;
