ISO-10303-21;
HEADER;
FILE_DESCRIPTION (( 'STEP AP203' ),
    '1' );
FILE_NAME ('321608.step',
    '2021-12-02T09:36:05',
    ( '' ),
    ( '' ),
    'SwSTEP 2.0',
    'SolidWorks 2019',
    '' );
FILE_SCHEMA (( 'CONFIG_CONTROL_DESIGN' ));
ENDSEC;

DATA;
#1 =( NAMED_UNIT ( * ) PLANE_ANGLE_UNIT ( ) SI_UNIT ( $, .RADIAN. ) );
#2 = CARTESIAN_POINT ( 'NONE',  ( 3.491481338843133355E-14, 1.432270592442068596E-32, 10.00000000000000000 ) ) ;
#3 = ORGANIZATION ( 'UNSPECIFIED', 'UNSPECIFIED', '' ) ;
#4 = DIRECTION ( 'NONE',  ( 4.275831445896958607E-31, 1.000000000000000000, 1.224646799147353454E-16 ) ) ;
#5 = DIRECTION ( 'NONE',  ( 0.0000000000000000000, 1.000000000000000000, 0.0000000000000000000 ) ) ;
#6 = PLANE ( 'NONE',  #219 ) ;
#7 = CIRCLE ( 'NONE', #243, 1.909999999999995035 ) ;
#8 = VERTEX_POINT ( 'NONE', #147 ) ;
#9 =( NAMED_UNIT ( * ) SI_UNIT ( $, .STERADIAN. ) SOLID_ANGLE_UNIT ( ) );
#10 = ORIENTED_EDGE ( 'NONE', *, *, #218, .T. ) ;
#11 = PERSON_AND_ORGANIZATION_ROLE ( 'design_supplier' ) ;
#12 = CONICAL_SURFACE ( 'NONE', #270, 1.909999999999995035, 0.5235987755983000369 ) ;
#13 = PERSON_AND_ORGANIZATION_ROLE ( 'design_owner' ) ;
#14 = CC_DESIGN_DATE_AND_TIME_ASSIGNMENT ( #168, #124, ( #55 ) ) ;
#15 = ORIENTED_EDGE ( 'NONE', *, *, #240, .F. ) ;
#16 = FACE_OUTER_BOUND ( 'NONE', #301, .T. ) ;
#17 = AXIS2_PLACEMENT_3D ( 'NONE', #99, #141, #142 ) ;
#18 = EDGE_CURVE ( 'NONE', #37, #37, #290, .T. ) ;
#19 = CARTESIAN_POINT ( 'NONE',  ( 2.444036937190193601E-13, -8.572527594031472993E-15, 70.00000000000000000 ) ) ;
#20 = EDGE_LOOP ( 'NONE', ( #138 ) ) ;
#21 = ORIENTED_EDGE ( 'NONE', *, *, #302, .F. ) ;
#22 = ADVANCED_FACE ( 'NONE', ( #117, #64 ), #85, .T. ) ;
#23 = AXIS2_PLACEMENT_3D ( 'NONE', #251, #185, #179 ) ;
#24 = DIRECTION ( 'NONE',  ( -4.275831445896958607E-31, -1.000000000000000000, -1.224646799147353207E-16 ) ) ;
#25 = FACE_OUTER_BOUND ( 'NONE', #221, .T. ) ;
#26 = AXIS2_PLACEMENT_3D ( 'NONE', #144, #146, #72 ) ;
#27 = CARTESIAN_POINT ( 'NONE',  ( 2.444036937190193601E-13, -8.572527594031472993E-15, 70.00000000000000000 ) ) ;
#28 = PRODUCT_DEFINITION_SHAPE ( 'NONE', 'NONE',  #51 ) ;
#29 = DIRECTION ( 'NONE',  ( 0.0000000000000000000, 1.000000000000000000, 0.0000000000000000000 ) ) ;
#30 = APPROVAL ( #130, 'UNSPECIFIED' ) ;
#31 = UNCERTAINTY_MEASURE_WITH_UNIT (LENGTH_MEASURE( 1.000000000000000082E-05 ), #211, 'distance_accuracy_value', 'NONE');
#32 = CARTESIAN_POINT ( 'NONE',  ( 2.433562493173664138E-13, 1.499999999999992673, 69.70000000000001705 ) ) ;
#33 = APPROVAL_PERSON_ORGANIZATION ( #109, #68, #222 ) ;
#34 = VERTEX_POINT ( 'NONE', #244 ) ;
#35 = PRODUCT_RELATED_PRODUCT_CATEGORY ( 'detail', '', ( #259 ) ) ;
#36 = PERSON_AND_ORGANIZATION_ROLE ( 'creator' ) ;
#37 = VERTEX_POINT ( 'NONE', #265 ) ;
#38 = PERSON_AND_ORGANIZATION ( #187, #3 ) ;
#39 = COORDINATED_UNIVERSAL_TIME_OFFSET ( 1, 0, .AHEAD. ) ;
#40 = CARTESIAN_POINT ( 'NONE',  ( 0.0000000000000000000, 0.0000000000000000000, 0.0000000000000000000 ) ) ;
#41 = DIRECTION ( 'NONE',  ( 3.491481338843133355E-15, -1.224646799147353207E-16, 1.000000000000000000 ) ) ;
#42 = CLOSED_SHELL ( 'NONE', ( #292, #97, #22, #127, #162, #294, #264 ) ) ;
#43 = EDGE_LOOP ( 'NONE', ( #91 ) ) ;
#44 = FACE_OUTER_BOUND ( 'NONE', #298, .T. ) ;
#45 = EDGE_CURVE ( 'NONE', #103, #103, #145, .T. ) ;
#46 =( GEOMETRIC_REPRESENTATION_CONTEXT ( 3 ) GLOBAL_UNCERTAINTY_ASSIGNED_CONTEXT ( ( #31 ) ) GLOBAL_UNIT_ASSIGNED_CONTEXT ( ( #211, #1, #9 ) ) REPRESENTATION_CONTEXT ( 'NONE', 'WORKASPACE' ) );
#47 = DIRECTION ( 'NONE',  ( -3.491481338843133355E-15, 1.224646799147353207E-16, -1.000000000000000000 ) ) ;
#48 = DIRECTION ( 'NONE',  ( -3.491481338843133355E-15, 1.224646799147353207E-16, -1.000000000000000000 ) ) ;
#49 = AXIS2_PLACEMENT_3D ( 'NONE', #163, #47, #189 ) ;
#50 = CARTESIAN_POINT ( 'NONE',  ( 2.444036937190193601E-13, 8.998558695971026591E-33, 70.00000000000000000 ) ) ;
#51 = PRODUCT_DEFINITION ( 'UNKNOWN', '', #299, #102 ) ;
#52 = VERTEX_POINT ( 'NONE', #129 ) ;
#53 = EDGE_CURVE ( 'NONE', #52, #52, #7, .T. ) ;
#54 = APPROVAL_STATUS ( 'not_yet_approved' ) ;
#55 = SECURITY_CLASSIFICATION ( '', '', #107 ) ;
#56 = DIRECTION ( 'NONE',  ( -3.491481338843133355E-15, 1.224646799147353207E-16, -1.000000000000000000 ) ) ;
#57 = DATE_AND_TIME ( #82, #131 ) ;
#58 = COORDINATED_UNIVERSAL_TIME_OFFSET ( 1, 0, .AHEAD. ) ;
#59 = APPLICATION_CONTEXT ( 'configuration controlled 3d designs of mechanical parts and assemblies' ) ;
#60 = CC_DESIGN_PERSON_AND_ORGANIZATION_ASSIGNMENT ( #267, #13, ( #259 ) ) ;
#61 = AXIS2_PLACEMENT_3D ( 'NONE', #27, #237, #29 ) ;
#62 = ORIENTED_EDGE ( 'NONE', *, *, #45, .F. ) ;
#63 = CARTESIAN_POINT ( 'NONE',  ( -7.097880200188926869E-31, 2.489601239218674980E-32, -2.032913686584599357E-16 ) ) ;
#64 = FACE_BOUND ( 'NONE', #289, .T. ) ;
#65 = CIRCLE ( 'NONE', #61, 1.200000000000001510 ) ;
#66 = ORIENTED_EDGE ( 'NONE', *, *, #45, .T. ) ;
#67 = CARTESIAN_POINT ( 'NONE',  ( 8.728703347107825500E-16, -3.061616997868380553E-17, 0.2499999999999997780 ) ) ;
#68 = APPROVAL ( #54, 'UNSPECIFIED' ) ;
#69 = CARTESIAN_POINT ( 'NONE',  ( 3.739425684817884924E-14, 1.499999999999991562, 10.71014083110324222 ) ) ;
#70 = DIRECTION ( 'NONE',  ( -3.491481338843133355E-15, 1.224646799147353207E-16, -1.000000000000000000 ) ) ;
#71 = FACE_BOUND ( 'NONE', #43, .T. ) ;
#72 = DIRECTION ( 'NONE',  ( 0.0000000000000000000, 1.000000000000000000, 0.0000000000000000000 ) ) ;
#73 = AXIS2_PLACEMENT_3D ( 'NONE', #297, #181, #255 ) ;
#74 = LOCAL_TIME ( 10, 36, 5.000000000000000000, #58 ) ;
#75 = DIRECTION ( 'NONE',  ( -3.491481338843133355E-15, 1.224646799147353207E-16, -1.000000000000000000 ) ) ;
#76 = EDGE_CURVE ( 'NONE', #34, #34, #158, .T. ) ;
#77 = DIRECTION ( 'NONE',  ( 0.0000000000000000000, 1.000000000000000000, 0.0000000000000000000 ) ) ;
#78 = EDGE_LOOP ( 'NONE', ( #197 ) ) ;
#79 = COORDINATED_UNIVERSAL_TIME_OFFSET ( 1, 0, .AHEAD. ) ;
#80 = COORDINATED_UNIVERSAL_TIME_OFFSET ( 1, 0, .AHEAD. ) ;
#81 = AXIS2_PLACEMENT_3D ( 'NONE', #213, #75, #4 ) ;
#82 = CALENDAR_DATE ( 2021, 2, 12 ) ;
#83 = APPROVAL_STATUS ( 'not_yet_approved' ) ;
#84 = CARTESIAN_POINT ( 'NONE',  ( 2.444036937190193601E-13, -8.572527594031472993E-15, 70.00000000000000000 ) ) ;
#85 = CONICAL_SURFACE ( 'NONE', #254, 1.659999999999994147, 0.7853981633974500554 ) ;
#86 = ORIENTED_EDGE ( 'NONE', *, *, #18, .F. ) ;
#87 = FACE_OUTER_BOUND ( 'NONE', #93, .T. ) ;
#88 = VERTEX_POINT ( 'NONE', #69 ) ;
#89 = APPROVAL ( #83, 'UNSPECIFIED' ) ;
#90 = CARTESIAN_POINT ( 'NONE',  ( 3.491481338843133355E-14, -1.224646799147353256E-15, 10.00000000000000000 ) ) ;
#91 = ORIENTED_EDGE ( 'NONE', *, *, #240, .T. ) ;
#92 = CC_DESIGN_APPROVAL ( #68, ( #51 ) ) ;
#93 = EDGE_LOOP ( 'NONE', ( #249 ) ) ;
#94 = VERTEX_POINT ( 'NONE', #284 ) ;
#95 = DIRECTION ( 'NONE',  ( -3.491481338843133355E-15, 1.224646799147353207E-16, -1.000000000000000000 ) ) ;
#96 = CONICAL_SURFACE ( 'NONE', #101, 1.909999999999995035, 0.5235987755983000369 ) ;
#97 = ADVANCED_FACE ( 'NONE', ( #161, #44 ), #248, .T. ) ;
#98 = DIRECTION ( 'NONE',  ( -3.491481338843133355E-15, 1.224646799147353207E-16, -1.000000000000000000 ) ) ;
#99 = CARTESIAN_POINT ( 'NONE',  ( 3.491481338843133355E-14, -1.224646799147353256E-15, 10.00000000000000000 ) ) ;
#100 = CARTESIAN_POINT ( 'NONE',  ( 3.739425684817884924E-14, -1.311613968722795839E-15, 10.71014083110324222 ) ) ;
#101 = AXIS2_PLACEMENT_3D ( 'NONE', #303, #95, #5 ) ;
#102 = DESIGN_CONTEXT ( 'detailed design', #282, 'design' ) ;
#103 = VERTEX_POINT ( 'NONE', #193 ) ;
#104 = APPROVAL_ROLE ( '' ) ;
#105 = FACE_OUTER_BOUND ( 'NONE', #156, .T. ) ;
#106 = EDGE_LOOP ( 'NONE', ( #208 ) ) ;
#107 = SECURITY_CLASSIFICATION_LEVEL ( 'unclassified' ) ;
#108 = AXIS2_PLACEMENT_3D ( 'NONE', #2, #236, #24 ) ;
#109 = PERSON_AND_ORGANIZATION ( #187, #3 ) ;
#110 = ORIENTED_EDGE ( 'NONE', *, *, #76, .T. ) ;
#111 = CARTESIAN_POINT ( 'NONE',  ( 0.0000000000000000000, 0.0000000000000000000, 0.0000000000000000000 ) ) ;
#112 = FACE_BOUND ( 'NONE', #252, .T. ) ;
#113 = CC_DESIGN_SECURITY_CLASSIFICATION ( #55, ( #299 ) ) ;
#114 = CARTESIAN_POINT ( 'NONE',  ( 2.444036937190193601E-13, -8.572527594031472993E-15, 70.00000000000000000 ) ) ;
#115 = EDGE_LOOP ( 'NONE', ( #66 ) ) ;
#116 = ADVANCED_FACE ( 'NONE', ( #16, #112 ), #246, .T. ) ;
#117 = FACE_OUTER_BOUND ( 'NONE', #220, .T. ) ;
#118 = AXIS2_PLACEMENT_3D ( 'NONE', #19, #234, #207 ) ;
#119 = CC_DESIGN_PERSON_AND_ORGANIZATION_ASSIGNMENT ( #266, #11, ( #299 ) ) ;
#120 = CARTESIAN_POINT ( 'NONE',  ( 3.491481338843133355E-14, -1.224646799147353256E-15, 10.00000000000000000 ) ) ;
#121 = CYLINDRICAL_SURFACE ( 'NONE', #81, 1.499999999999996891 ) ;
#122 = FACE_OUTER_BOUND ( 'NONE', #115, .T. ) ;
#123 = DIRECTION ( 'NONE',  ( -3.491481338843133355E-15, 1.224646799147353207E-16, -1.000000000000000000 ) ) ;
#124 = DATE_TIME_ROLE ( 'classification_date' ) ;
#125 = AXIS2_PLACEMENT_3D ( 'NONE', #100, #98, #191 ) ;
#126 = CALENDAR_DATE ( 2021, 2, 12 ) ;
#127 = ADVANCED_FACE ( 'NONE', ( #87 ), #273, .T. ) ;
#128 = DIRECTION ( 'NONE',  ( 1.000000000000000000, 0.0000000000000000000, 0.0000000000000000000 ) ) ;
#129 = CARTESIAN_POINT ( 'NONE',  ( 3.491481338843133355E-14, 1.909999999999993703, 10.00000000000000000 ) ) ;
#130 = APPROVAL_STATUS ( 'not_yet_approved' ) ;
#131 = LOCAL_TIME ( 10, 36, 5.000000000000000000, #79 ) ;
#132 = ADVANCED_FACE ( 'NONE', ( #280, #122 ), #167, .T. ) ;
#133 = APPLICATION_PROTOCOL_DEFINITION ( 'international standard', 'config_control_design', 1994, #282 ) ;
#134 = CARTESIAN_POINT ( 'NONE',  ( -8.552847072295026068E-47, 1.659999999999994147, 0.0000000000000000000 ) ) ;
#135 = ADVANCED_BREP_SHAPE_REPRESENTATION ( '321608', ( #291, #190, #257 ), #46 ) ;
#136 = DIRECTION ( 'NONE',  ( -3.491481338843133355E-15, 1.224646799147353207E-16, -1.000000000000000000 ) ) ;
#137 = DIRECTION ( 'NONE',  ( 0.0000000000000000000, 1.000000000000000000, 0.0000000000000000000 ) ) ;
#138 = ORIENTED_EDGE ( 'NONE', *, *, #53, .F. ) ;
#139 = EDGE_LOOP ( 'NONE', ( #86 ) ) ;
#140 = PLANE ( 'NONE',  #108 ) ;
#141 = DIRECTION ( 'NONE',  ( -3.491481338843133355E-15, 1.224646799147353207E-16, -1.000000000000000000 ) ) ;
#142 = DIRECTION ( 'NONE',  ( 0.0000000000000000000, 1.000000000000000000, 0.0000000000000000000 ) ) ;
#143 = CC_DESIGN_PERSON_AND_ORGANIZATION_ASSIGNMENT ( #198, #176, ( #55 ) ) ;
#144 = CARTESIAN_POINT ( 'NONE',  ( 3.739425684817884924E-14, -1.311613968722795839E-15, 10.71014083110324222 ) ) ;
#145 = CIRCLE ( 'NONE', #23, 1.500000000000001110 ) ;
#146 = DIRECTION ( 'NONE',  ( -3.491481338843133355E-15, 1.224646799147353207E-16, -1.000000000000000000 ) ) ;
#147 = CARTESIAN_POINT ( 'NONE',  ( 3.491481338843133355E-14, 1.909999999999993703, 10.00000000000000000 ) ) ;
#148 = VERTEX_POINT ( 'NONE', #261 ) ;
#149 = DATE_AND_TIME ( #229, #275 ) ;
#150 = CIRCLE ( 'NONE', #17, 1.909999999999995035 ) ;
#151 = PERSON_AND_ORGANIZATION ( #187, #3 ) ;
#152 = CALENDAR_DATE ( 2021, 2, 12 ) ;
#153 = DIRECTION ( 'NONE',  ( 4.275831445896958607E-31, 1.000000000000000000, 1.224646799147353207E-16 ) ) ;
#154 = PERSON_AND_ORGANIZATION ( #187, #3 ) ;
#155 = DIRECTION ( 'NONE',  ( -4.275831445896957731E-31, -1.000000000000000000, -1.224646799147353207E-16 ) ) ;
#156 = EDGE_LOOP ( 'NONE', ( #277 ) ) ;
#157 = ADVANCED_FACE ( 'NONE', ( #256, #186 ), #12, .T. ) ;
#158 = CIRCLE ( 'NONE', #182, 1.909999999999995035 ) ;
#159 = DIRECTION ( 'NONE',  ( -3.491481338843133355E-15, 1.224646799147353207E-16, -1.000000000000000000 ) ) ;
#160 = EDGE_LOOP ( 'NONE', ( #15 ) ) ;
#161 = FACE_OUTER_BOUND ( 'NONE', #253, .T. ) ;
#162 = ADVANCED_FACE ( 'NONE', ( #241 ), #165, .F. ) ;
#163 = CARTESIAN_POINT ( 'NONE',  ( 2.444036937190193601E-13, -8.572527594031472993E-15, 70.00000000000000000 ) ) ;
#164 = CIRCLE ( 'NONE', #231, 1.500000000000001110 ) ;
#165 = PLANE ( 'NONE',  #49 ) ;
#166 = DIRECTION ( 'NONE',  ( 4.275831445896958607E-31, 1.000000000000000000, 1.224646799147353454E-16 ) ) ;
#167 = CYLINDRICAL_SURFACE ( 'NONE', #214, 1.499999999999996891 ) ;
#168 = DATE_AND_TIME ( #178, #74 ) ;
#169 = LOCAL_TIME ( 10, 36, 5.000000000000000000, #39 ) ;
#170 = CC_DESIGN_PERSON_AND_ORGANIZATION_ASSIGNMENT ( #151, #36, ( #299 ) ) ;
#171 = DIRECTION ( 'NONE',  ( -3.491481338843133355E-15, 1.224646799147353207E-16, -1.000000000000000000 ) ) ;
#172 = CARTESIAN_POINT ( 'NONE',  ( -7.097880200188926869E-31, 2.489601239218674980E-32, -2.032913686584599357E-16 ) ) ;
#173 = EDGE_LOOP ( 'NONE', ( #233 ) ) ;
#174 = CLOSED_SHELL ( 'NONE', ( #268, #157, #132, #116, #180 ) ) ;
#175 = DATE_AND_TIME ( #152, #226 ) ;
#176 = PERSON_AND_ORGANIZATION_ROLE ( 'classification_officer' ) ;
#177 = ORIENTED_EDGE ( 'NONE', *, *, #201, .F. ) ;
#178 = CALENDAR_DATE ( 2021, 2, 12 ) ;
#179 = DIRECTION ( 'NONE',  ( 0.0000000000000000000, 1.000000000000000000, 0.0000000000000000000 ) ) ;
#180 = ADVANCED_FACE ( 'NONE', ( #283 ), #6, .F. ) ;
#181 = DIRECTION ( 'NONE',  ( -3.491481338843133355E-15, 1.224646799147353207E-16, -1.000000000000000000 ) ) ;
#182 = AXIS2_PLACEMENT_3D ( 'NONE', #67, #159, #278 ) ;
#183 = EDGE_LOOP ( 'NONE', ( #177 ) ) ;
#184 = EDGE_CURVE ( 'NONE', #8, #8, #150, .T. ) ;
#185 = DIRECTION ( 'NONE',  ( -3.491481338843133355E-15, 1.224646799147353207E-16, -1.000000000000000000 ) ) ;
#186 = FACE_OUTER_BOUND ( 'NONE', #20, .T. ) ;
#187 = PERSON ( 'UNSPECIFIED', 'UNSPECIFIED', 'UNSPECIFIED', ('UNSPECIFIED'), ('UNSPECIFIED'), ('UNSPECIFIED') ) ;
#188 = CIRCLE ( 'NONE', #276, 1.659999999999994147 ) ;
#189 = DIRECTION ( 'NONE',  ( 4.275831445896958607E-31, 1.000000000000000000, 1.224646799147353207E-16 ) ) ;
#190 = MANIFOLD_SOLID_BREP ( 'Corps-Déplacer/Copier1[2]', #42 ) ;
#191 = DIRECTION ( 'NONE',  ( 0.0000000000000000000, 1.000000000000000000, 0.0000000000000000000 ) ) ;
#192 = PERSON_AND_ORGANIZATION ( #187, #3 ) ;
#193 = CARTESIAN_POINT ( 'NONE',  ( 2.433562493173664138E-13, 1.499999999999992673, 69.70000000000001705 ) ) ;
#194 = EDGE_CURVE ( 'NONE', #242, #242, #164, .T. ) ;
#195 = MECHANICAL_CONTEXT ( 'NONE', #59, 'mechanical' ) ;
#196 = CC_DESIGN_DATE_AND_TIME_ASSIGNMENT ( #57, #204, ( #51 ) ) ;
#197 = ORIENTED_EDGE ( 'NONE', *, *, #18, .T. ) ;
#198 = PERSON_AND_ORGANIZATION ( #187, #3 ) ;
#199 = AXIS2_PLACEMENT_3D ( 'NONE', #114, #206, #296 ) ;
#200 = FACE_BOUND ( 'NONE', #78, .T. ) ;
#201 = EDGE_CURVE ( 'NONE', #148, #148, #285, .T. ) ;
#202 = PERSON_AND_ORGANIZATION_ROLE ( 'creator' ) ;
#203 = EDGE_LOOP ( 'NONE', ( #272 ) ) ;
#204 = DATE_TIME_ROLE ( 'creation_date' ) ;
#205 = CC_DESIGN_APPROVAL ( #30, ( #299 ) ) ;
#206 = DIRECTION ( 'NONE',  ( -3.491481338843133355E-15, 1.224646799147353207E-16, -1.000000000000000000 ) ) ;
#207 = DIRECTION ( 'NONE',  ( 0.0000000000000000000, 1.000000000000000000, 0.0000000000000000000 ) ) ;
#208 = ORIENTED_EDGE ( 'NONE', *, *, #218, .F. ) ;
#209 = DIRECTION ( 'NONE',  ( -3.491481338843133355E-15, 1.224646799147353207E-16, -1.000000000000000000 ) ) ;
#210 = CARTESIAN_POINT ( 'NONE',  ( 0.0000000000000000000, 0.0000000000000000000, 0.0000000000000000000 ) ) ;
#211 =( LENGTH_UNIT ( ) NAMED_UNIT ( * ) SI_UNIT ( .MILLI., .METRE. ) );
#212 = DIRECTION ( 'NONE',  ( 4.275831445896958607E-31, 1.000000000000000000, 1.224646799147353207E-16 ) ) ;
#213 = CARTESIAN_POINT ( 'NONE',  ( 0.0000000000000000000, 0.0000000000000000000, 0.0000000000000000000 ) ) ;
#214 = AXIS2_PLACEMENT_3D ( 'NONE', #210, #70, #166 ) ;
#215 = CC_DESIGN_APPROVAL ( #89, ( #55 ) ) ;
#216 = FACE_OUTER_BOUND ( 'NONE', #203, .T. ) ;
#217 = DIRECTION ( 'NONE',  ( 0.0000000000000000000, 1.000000000000000000, 0.0000000000000000000 ) ) ;
#218 = EDGE_CURVE ( 'NONE', #94, #94, #65, .T. ) ;
#219 = AXIS2_PLACEMENT_3D ( 'NONE', #50, #48, #212 ) ;
#220 = EDGE_LOOP ( 'NONE', ( #110 ) ) ;
#221 = EDGE_LOOP ( 'NONE', ( #295 ) ) ;
#222 = APPROVAL_ROLE ( '' ) ;
#223 = SHAPE_DEFINITION_REPRESENTATION ( #28, #135 ) ;
#224 = APPROVAL_DATE_TIME ( #263, #30 ) ;
#225 = AXIS2_PLACEMENT_3D ( 'NONE', #40, #136, #230 ) ;
#226 = LOCAL_TIME ( 10, 36, 5.000000000000000000, #80 ) ;
#227 = APPLICATION_PROTOCOL_DEFINITION ( 'international standard', 'config_control_design', 1994, #59 ) ;
#228 = ORIENTED_EDGE ( 'NONE', *, *, #53, .T. ) ;
#229 = CALENDAR_DATE ( 2021, 2, 12 ) ;
#230 = DIRECTION ( 'NONE',  ( 4.275831445896958607E-31, 1.000000000000000000, 1.224646799147352961E-16 ) ) ;
#231 = AXIS2_PLACEMENT_3D ( 'NONE', #260, #239, #258 ) ;
#232 = ORIENTED_EDGE ( 'NONE', *, *, #184, .T. ) ;
#233 = ORIENTED_EDGE ( 'NONE', *, *, #201, .T. ) ;
#234 = DIRECTION ( 'NONE',  ( -3.491481338843133355E-15, 1.224646799147353207E-16, -1.000000000000000000 ) ) ;
#235 = CIRCLE ( 'NONE', #125, 1.499999999999992895 ) ;
#236 = DIRECTION ( 'NONE',  ( 3.491481338843133355E-15, -1.224646799147353207E-16, 1.000000000000000000 ) ) ;
#237 = DIRECTION ( 'NONE',  ( -3.491481338843133355E-15, 1.224646799147353207E-16, -1.000000000000000000 ) ) ;
#238 = VERTEX_POINT ( 'NONE', #134 ) ;
#239 = DIRECTION ( 'NONE',  ( -3.491481338843133355E-15, 1.224646799147353207E-16, -1.000000000000000000 ) ) ;
#240 = EDGE_CURVE ( 'NONE', #88, #88, #235, .T. ) ;
#241 = FACE_OUTER_BOUND ( 'NONE', #139, .T. ) ;
#242 = VERTEX_POINT ( 'NONE', #32 ) ;
#243 = AXIS2_PLACEMENT_3D ( 'NONE', #90, #209, #137 ) ;
#244 = CARTESIAN_POINT ( 'NONE',  ( 8.728703347107833388E-16, 1.909999999999995035, 0.2500000000000000000 ) ) ;
#245 = APPROVAL_DATE_TIME ( #149, #68 ) ;
#246 = CONICAL_SURFACE ( 'NONE', #199, 1.200000000000001510, 0.7853981633974566057 ) ;
#247 = APPROVAL_ROLE ( '' ) ;
#248 = CYLINDRICAL_SURFACE ( 'NONE', #225, 1.909999999999995035 ) ;
#249 = ORIENTED_EDGE ( 'NONE', *, *, #302, .T. ) ;
#250 = CONICAL_SURFACE ( 'NONE', #262, 1.200000000000001510, 0.7853981633974566057 ) ;
#251 = CARTESIAN_POINT ( 'NONE',  ( 2.433562493173664138E-13, -8.535788190057053710E-15, 69.70000000000001705 ) ) ;
#252 = EDGE_LOOP ( 'NONE', ( #10 ) ) ;
#253 = EDGE_LOOP ( 'NONE', ( #232 ) ) ;
#254 = AXIS2_PLACEMENT_3D ( 'NONE', #63, #41, #155 ) ;
#255 = DIRECTION ( 'NONE',  ( 4.275831445896958607E-31, 1.000000000000000000, 1.224646799147353207E-16 ) ) ;
#256 = FACE_BOUND ( 'NONE', #173, .T. ) ;
#257 = AXIS2_PLACEMENT_3D ( 'NONE', #111, #293, #128 ) ;
#258 = DIRECTION ( 'NONE',  ( 0.0000000000000000000, 1.000000000000000000, 0.0000000000000000000 ) ) ;
#259 = PRODUCT ( '321608', '321608', '', ( #195 ) ) ;
#260 = CARTESIAN_POINT ( 'NONE',  ( 2.433562493173664138E-13, -8.535788190057053710E-15, 69.70000000000001705 ) ) ;
#261 = CARTESIAN_POINT ( 'NONE',  ( 3.739425684817884924E-14, 1.499999999999991562, 10.71014083110324222 ) ) ;
#262 = AXIS2_PLACEMENT_3D ( 'NONE', #84, #171, #77 ) ;
#263 = DATE_AND_TIME ( #126, #169 ) ;
#264 = ADVANCED_FACE ( 'NONE', ( #286, #25 ), #121, .T. ) ;
#265 = CARTESIAN_POINT ( 'NONE',  ( 2.444036937190193601E-13, 1.199999999999992628, 70.00000000000000000 ) ) ;
#266 = PERSON_AND_ORGANIZATION ( #187, #3 ) ;
#267 = PERSON_AND_ORGANIZATION ( #187, #3 ) ;
#268 = ADVANCED_FACE ( 'NONE', ( #281 ), #140, .F. ) ;
#269 = COORDINATED_UNIVERSAL_TIME_OFFSET ( 1, 0, .AHEAD. ) ;
#270 = AXIS2_PLACEMENT_3D ( 'NONE', #120, #123, #217 ) ;
#271 = APPROVAL_PERSON_ORGANIZATION ( #192, #89, #104 ) ;
#272 = ORIENTED_EDGE ( 'NONE', *, *, #184, .F. ) ;
#273 = PLANE ( 'NONE',  #73 ) ;
#274 = ORIENTED_EDGE ( 'NONE', *, *, #76, .F. ) ;
#275 = LOCAL_TIME ( 10, 36, 5.000000000000000000, #269 ) ;
#276 = AXIS2_PLACEMENT_3D ( 'NONE', #172, #56, #153 ) ;
#277 = ORIENTED_EDGE ( 'NONE', *, *, #194, .F. ) ;
#278 = DIRECTION ( 'NONE',  ( 4.033361140077990996E-31, 1.000000000000000000, 1.135290232969117448E-16 ) ) ;
#279 = APPROVAL_PERSON_ORGANIZATION ( #154, #30, #247 ) ;
#280 = FACE_OUTER_BOUND ( 'NONE', #183, .T. ) ;
#281 = FACE_OUTER_BOUND ( 'NONE', #288, .T. ) ;
#282 = APPLICATION_CONTEXT ( 'configuration controlled 3d designs of mechanical parts and assemblies' ) ;
#283 = FACE_OUTER_BOUND ( 'NONE', #106, .T. ) ;
#284 = CARTESIAN_POINT ( 'NONE',  ( 2.444036937190193601E-13, 1.199999999999992628, 70.00000000000000000 ) ) ;
#285 = CIRCLE ( 'NONE', #26, 1.499999999999992895 ) ;
#286 = FACE_OUTER_BOUND ( 'NONE', #160, .T. ) ;
#287 = APPROVAL_DATE_TIME ( #175, #89 ) ;
#288 = EDGE_LOOP ( 'NONE', ( #228 ) ) ;
#289 = EDGE_LOOP ( 'NONE', ( #21 ) ) ;
#290 = CIRCLE ( 'NONE', #118, 1.200000000000001510 ) ;
#291 = MANIFOLD_SOLID_BREP ( 'Corps-Déplacer/Copier1[1]', #174 ) ;
#292 = ADVANCED_FACE ( 'NONE', ( #71, #216 ), #96, .T. ) ;
#293 = DIRECTION ( 'NONE',  ( 0.0000000000000000000, 0.0000000000000000000, 1.000000000000000000 ) ) ;
#294 = ADVANCED_FACE ( 'NONE', ( #105, #200 ), #250, .T. ) ;
#295 = ORIENTED_EDGE ( 'NONE', *, *, #194, .T. ) ;
#296 = DIRECTION ( 'NONE',  ( 0.0000000000000000000, 1.000000000000000000, 0.0000000000000000000 ) ) ;
#297 = CARTESIAN_POINT ( 'NONE',  ( -3.548940100094463435E-31, 1.244800619609337490E-32, -1.016456843292299679E-16 ) ) ;
#298 = EDGE_LOOP ( 'NONE', ( #274 ) ) ;
#299 = PRODUCT_DEFINITION_FORMATION_WITH_SPECIFIED_SOURCE ( 'ANY', '', #259, .NOT_KNOWN. ) ;
#300 = CC_DESIGN_PERSON_AND_ORGANIZATION_ASSIGNMENT ( #38, #202, ( #51 ) ) ;
#301 = EDGE_LOOP ( 'NONE', ( #62 ) ) ;
#302 = EDGE_CURVE ( 'NONE', #238, #238, #188, .T. ) ;
#303 = CARTESIAN_POINT ( 'NONE',  ( 3.491481338843133355E-14, -1.224646799147353256E-15, 10.00000000000000000 ) ) ;
ENDSEC;
END-ISO-10303-21;
