ISO-10303-21;
HEADER;
FILE_DESCRIPTION (( 'STEP AP203' ),
    '1' );
FILE_NAME ('321607.step',
    '2021-12-02T09:36:04',
    ( '' ),
    ( '' ),
    'SwSTEP 2.0',
    'SolidWorks 2019',
    '' );
FILE_SCHEMA (( 'CONFIG_CONTROL_DESIGN' ));
ENDSEC;

DATA;
#1 = FACE_OUTER_BOUND ( 'NONE', #87, .T. ) ;
#2 = DATE_AND_TIME ( #124, #66 ) ;
#3 = CIRCLE ( 'NONE', #122, 1.499999999999992895 ) ;
#4 = CC_DESIGN_PERSON_AND_ORGANIZATION_ASSIGNMENT ( #108, #179, ( #46 ) ) ;
#5 = CARTESIAN_POINT ( 'NONE',  ( 2.444036937190193601E-13, 1.199999999999992628, 70.00000000000000000 ) ) ;
#6 = DIRECTION ( 'NONE',  ( -3.491481338843133355E-15, 1.224646799147353207E-16, -1.000000000000000000 ) ) ;
#7 = MANIFOLD_SOLID_BREP ( 'Corps-Déplacer/Copier1[2]', #141 ) ;
#8 = CC_DESIGN_APPROVAL ( #181, ( #46 ) ) ;
#9 = VERTEX_POINT ( 'NONE', #216 ) ;
#10 = CLOSED_SHELL ( 'NONE', ( #275, #77, #156, #301, #242 ) ) ;
#11 = DATE_AND_TIME ( #42, #252 ) ;
#12 = PERSON_AND_ORGANIZATION ( #208, #201 ) ;
#13 = ADVANCED_FACE ( 'NONE', ( #61, #21 ), #206, .T. ) ;
#14 = DIRECTION ( 'NONE',  ( 0.0000000000000000000, 1.000000000000000000, 0.0000000000000000000 ) ) ;
#15 = APPROVAL_DATE_TIME ( #2, #41 ) ;
#16 = APPROVAL_PERSON_ORGANIZATION ( #110, #181, #78 ) ;
#17 = CIRCLE ( 'NONE', #264, 1.500000000000001110 ) ;
#18 = AXIS2_PLACEMENT_3D ( 'NONE', #147, #99, #146 ) ;
#19 = APPROVAL_ROLE ( '' ) ;
#20 = EDGE_LOOP ( 'NONE', ( #178 ) ) ;
#21 = FACE_OUTER_BOUND ( 'NONE', #59, .T. ) ;
#22 = CARTESIAN_POINT ( 'NONE',  ( 2.444036937190193601E-13, -8.572527594031472993E-15, 70.00000000000000000 ) ) ;
#23 = CARTESIAN_POINT ( 'NONE',  ( 3.491481338843133355E-14, -1.224646799147353256E-15, 10.00000000000000000 ) ) ;
#24 = FACE_OUTER_BOUND ( 'NONE', #138, .T. ) ;
#25 = EDGE_CURVE ( 'NONE', #283, #283, #3, .T. ) ;
#26 = DIRECTION ( 'NONE',  ( 0.0000000000000000000, 1.000000000000000000, 0.0000000000000000000 ) ) ;
#27 = CC_DESIGN_APPROVAL ( #294, ( #144 ) ) ;
#28 = AXIS2_PLACEMENT_3D ( 'NONE', #23, #190, #121 ) ;
#29 = DIRECTION ( 'NONE',  ( 4.043947389789492742E-31, 1.000000000000000000, 1.138269997360115591E-16 ) ) ;
#30 = APPROVAL_ROLE ( '' ) ;
#31 = CONICAL_SURFACE ( 'NONE', #153, 1.654999999999989146, 0.7853981633974500554 ) ;
#32 = DIRECTION ( 'NONE',  ( -3.491481338843133355E-15, 1.224646799147353207E-16, -1.000000000000000000 ) ) ;
#33 = VERTEX_POINT ( 'NONE', #193 ) ;
#34 = VERTEX_POINT ( 'NONE', #170 ) ;
#35 = APPLICATION_CONTEXT ( 'configuration controlled 3d designs of mechanical parts and assemblies' ) ;
#36 = DATE_TIME_ROLE ( 'creation_date' ) ;
#37 = EDGE_LOOP ( 'NONE', ( #199 ) ) ;
#38 = ORIENTED_EDGE ( 'NONE', *, *, #187, .T. ) ;
#39 = DATE_AND_TIME ( #290, #300 ) ;
#40 = CARTESIAN_POINT ( 'NONE',  ( 3.491481338843133355E-14, -1.224646799147353256E-15, 10.00000000000000000 ) ) ;
#41 = APPROVAL ( #233, 'UNSPECIFIED' ) ;
#42 = CALENDAR_DATE ( 2021, 2, 12 ) ;
#43 = CARTESIAN_POINT ( 'NONE',  ( 3.491481338843133355E-14, -1.224646799147353256E-15, 10.00000000000000000 ) ) ;
#44 = EDGE_LOOP ( 'NONE', ( #204 ) ) ;
#45 = FACE_OUTER_BOUND ( 'NONE', #57, .T. ) ;
#46 = SECURITY_CLASSIFICATION ( '', '', #76 ) ;
#47 = DIRECTION ( 'NONE',  ( -3.491481338843133355E-15, 1.224646799147353207E-16, -1.000000000000000000 ) ) ;
#48 = AXIS2_PLACEMENT_3D ( 'NONE', #22, #95, #26 ) ;
#49 = FACE_OUTER_BOUND ( 'NONE', #37, .T. ) ;
#50 = DIRECTION ( 'NONE',  ( -3.491481338843133355E-15, 1.224646799147353207E-16, -1.000000000000000000 ) ) ;
#51 = PRODUCT_DEFINITION ( 'UNKNOWN', '', #144, #172 ) ;
#52 = FACE_BOUND ( 'NONE', #245, .T. ) ;
#53 = CARTESIAN_POINT ( 'NONE',  ( 3.736401973281604895E-14, 1.499999999999991562, 10.70148057706538758 ) ) ;
#54 = PERSON_AND_ORGANIZATION ( #208, #201 ) ;
#55 = PERSON_AND_ORGANIZATION_ROLE ( 'design_supplier' ) ;
#56 = AXIS2_PLACEMENT_3D ( 'NONE', #210, #62, #123 ) ;
#57 = EDGE_LOOP ( 'NONE', ( #134 ) ) ;
#58 = APPROVAL_STATUS ( 'not_yet_approved' ) ;
#59 = EDGE_LOOP ( 'NONE', ( #227 ) ) ;
#60 = EDGE_LOOP ( 'NONE', ( #83 ) ) ;
#61 = FACE_OUTER_BOUND ( 'NONE', #105, .T. ) ;
#62 = DIRECTION ( 'NONE',  ( -3.491481338843133355E-15, 1.224646799147353207E-16, -1.000000000000000000 ) ) ;
#63 = EDGE_CURVE ( 'NONE', #97, #97, #254, .T. ) ;
#64 = FACE_OUTER_BOUND ( 'NONE', #291, .T. ) ;
#65 = AXIS2_PLACEMENT_3D ( 'NONE', #139, #114, #142 ) ;
#66 = LOCAL_TIME ( 10, 36, 4.000000000000000000, #213 ) ;
#67 = PLANE ( 'NONE',  #107 ) ;
#68 = CC_DESIGN_PERSON_AND_ORGANIZATION_ASSIGNMENT ( #292, #221, ( #51 ) ) ;
#69 = PLANE ( 'NONE',  #65 ) ;
#70 = CIRCLE ( 'NONE', #126, 1.904999999999990035 ) ;
#71 = VERTEX_POINT ( 'NONE', #96 ) ;
#72 = PERSON_AND_ORGANIZATION_ROLE ( 'design_owner' ) ;
#73 = CARTESIAN_POINT ( 'NONE',  ( 3.491481338843133355E-14, 1.904999999999988702, 10.00000000000000000 ) ) ;
#74 = CIRCLE ( 'NONE', #56, 1.904999999999990035 ) ;
#75 = MECHANICAL_CONTEXT ( 'NONE', #116, 'mechanical' ) ;
#76 = SECURITY_CLASSIFICATION_LEVEL ( 'unclassified' ) ;
#77 = ADVANCED_FACE ( 'NONE', ( #286, #247 ), #253, .T. ) ;
#78 = APPROVAL_ROLE ( '' ) ;
#79 = DIRECTION ( 'NONE',  ( -3.491481338843133355E-15, 1.224646799147353207E-16, -1.000000000000000000 ) ) ;
#80 = APPROVAL_PERSON_ORGANIZATION ( #12, #294, #19 ) ;
#81 = ORIENTED_EDGE ( 'NONE', *, *, #265, .T. ) ;
#82 = COORDINATED_UNIVERSAL_TIME_OFFSET ( 1, 0, .AHEAD. ) ;
#83 = ORIENTED_EDGE ( 'NONE', *, *, #235, .T. ) ;
#84 = EDGE_CURVE ( 'NONE', #33, #33, #115, .T. ) ;
#85 = CARTESIAN_POINT ( 'NONE',  ( 0.0000000000000000000, 0.0000000000000000000, 0.0000000000000000000 ) ) ;
#86 = LOCAL_TIME ( 10, 36, 4.000000000000000000, #82 ) ;
#87 = EDGE_LOOP ( 'NONE', ( #244 ) ) ;
#88 = CARTESIAN_POINT ( 'NONE',  ( 2.444036937190193601E-13, -8.572527594031472993E-15, 70.00000000000000000 ) ) ;
#89 = EDGE_CURVE ( 'NONE', #9, #9, #70, .T. ) ;
#90 = DIRECTION ( 'NONE',  ( -3.491481338843133355E-15, 1.224646799147353207E-16, -1.000000000000000000 ) ) ;
#91 = FACE_OUTER_BOUND ( 'NONE', #243, .T. ) ;
#92 = ADVANCED_FACE ( 'NONE', ( #276, #49 ), #257, .T. ) ;
#93 = AXIS2_PLACEMENT_3D ( 'NONE', #88, #185, #251 ) ;
#94 = DIRECTION ( 'NONE',  ( -3.491481338843133355E-15, 1.224646799147353207E-16, -1.000000000000000000 ) ) ;
#95 = DIRECTION ( 'NONE',  ( -3.491481338843133355E-15, 1.224646799147353207E-16, -1.000000000000000000 ) ) ;
#96 = CARTESIAN_POINT ( 'NONE',  ( 2.433562493173664138E-13, 1.499999999999992673, 69.70000000000001705 ) ) ;
#97 = VERTEX_POINT ( 'NONE', #73 ) ;
#98 = ADVANCED_FACE ( 'NONE', ( #91 ), #67, .T. ) ;
#99 = DIRECTION ( 'NONE',  ( 0.0000000000000000000, 0.0000000000000000000, 1.000000000000000000 ) ) ;
#100 = PRODUCT ( '321607', '321607', '', ( #75 ) ) ;
#101 = CARTESIAN_POINT ( 'NONE',  ( 2.444036937190193601E-13, -8.572527594031472993E-15, 70.00000000000000000 ) ) ;
#102 = AXIS2_PLACEMENT_3D ( 'NONE', #43, #79, #175 ) ;
#103 = VERTEX_POINT ( 'NONE', #53 ) ;
#104 = CALENDAR_DATE ( 2021, 2, 12 ) ;
#105 = EDGE_LOOP ( 'NONE', ( #223 ) ) ;
#106 = APPROVAL_DATE_TIME ( #11, #294 ) ;
#107 = AXIS2_PLACEMENT_3D ( 'NONE', #140, #258, #229 ) ;
#108 = PERSON_AND_ORGANIZATION ( #208, #201 ) ;
#109 = EDGE_LOOP ( 'NONE', ( #160 ) ) ;
#110 = PERSON_AND_ORGANIZATION ( #208, #201 ) ;
#111 = ORIENTED_EDGE ( 'NONE', *, *, #246, .T. ) ;
#112 = MANIFOLD_SOLID_BREP ( 'Corps-Déplacer/Copier1[1]', #10 ) ;
#113 = ADVANCED_FACE ( 'NONE', ( #52, #45 ), #188, .T. ) ;
#114 = DIRECTION ( 'NONE',  ( -3.491481338843133355E-15, 1.224646799147353207E-16, -1.000000000000000000 ) ) ;
#115 = CIRCLE ( 'NONE', #218, 1.654999999999989146 ) ;
#116 = APPLICATION_CONTEXT ( 'configuration controlled 3d designs of mechanical parts and assemblies' ) ;
#117 = CYLINDRICAL_SURFACE ( 'NONE', #163, 1.499999999999996891 ) ;
#118 = CC_DESIGN_PERSON_AND_ORGANIZATION_ASSIGNMENT ( #54, #72, ( #100 ) ) ;
#119 = PLANE ( 'NONE',  #135 ) ;
#120 = CC_DESIGN_SECURITY_CLASSIFICATION ( #46, ( #144 ) ) ;
#121 = DIRECTION ( 'NONE',  ( 0.0000000000000000000, 1.000000000000000000, 0.0000000000000000000 ) ) ;
#122 = AXIS2_PLACEMENT_3D ( 'NONE', #220, #198, #14 ) ;
#123 = DIRECTION ( 'NONE',  ( 0.0000000000000000000, 1.000000000000000000, 0.0000000000000000000 ) ) ;
#124 = CALENDAR_DATE ( 2021, 2, 12 ) ;
#125 = CARTESIAN_POINT ( 'NONE',  ( 3.736401973281604895E-14, -1.310553393484069809E-15, 10.70148057706538758 ) ) ;
#126 = AXIS2_PLACEMENT_3D ( 'NONE', #250, #50, #29 ) ;
#127 = DIRECTION ( 'NONE',  ( 0.0000000000000000000, 1.000000000000000000, 0.0000000000000000000 ) ) ;
#128 = DIRECTION ( 'NONE',  ( 0.0000000000000000000, 1.000000000000000000, 0.0000000000000000000 ) ) ;
#129 = CARTESIAN_POINT ( 'NONE',  ( 2.444036937190193601E-13, 1.199999999999992628, 70.00000000000000000 ) ) ;
#130 = AXIS2_PLACEMENT_3D ( 'NONE', #85, #273, #136 ) ;
#131 = PERSON_AND_ORGANIZATION ( #208, #201 ) ;
#132 = ORIENTED_EDGE ( 'NONE', *, *, #25, .F. ) ;
#133 = APPROVAL_DATE_TIME ( #154, #181 ) ;
#134 = ORIENTED_EDGE ( 'NONE', *, *, #63, .F. ) ;
#135 = AXIS2_PLACEMENT_3D ( 'NONE', #195, #260, #241 ) ;
#136 = DIRECTION ( 'NONE',  ( 4.275831445896958607E-31, 1.000000000000000000, 1.224646799147353454E-16 ) ) ;
#137 = PERSON_AND_ORGANIZATION_ROLE ( 'creator' ) ;
#138 = EDGE_LOOP ( 'NONE', ( #38 ) ) ;
#139 = CARTESIAN_POINT ( 'NONE',  ( 2.444036937190193601E-13, 8.998558695971026591E-33, 70.00000000000000000 ) ) ;
#140 = CARTESIAN_POINT ( 'NONE',  ( -3.538250521479710130E-31, 1.241051220152679261E-32, -1.013395226294428159E-16 ) ) ;
#141 = CLOSED_SHELL ( 'NONE', ( #113, #92, #169, #98, #261, #203, #13 ) ) ;
#142 = DIRECTION ( 'NONE',  ( 4.275831445896958607E-31, 1.000000000000000000, 1.224646799147353207E-16 ) ) ;
#143 = CARTESIAN_POINT ( 'NONE',  ( 0.0000000000000000000, 0.0000000000000000000, 0.0000000000000000000 ) ) ;
#144 = PRODUCT_DEFINITION_FORMATION_WITH_SPECIFIED_SOURCE ( 'ANY', '', #100, .NOT_KNOWN. ) ;
#145 = DIRECTION ( 'NONE',  ( -3.491481338843133355E-15, 1.224646799147353207E-16, -1.000000000000000000 ) ) ;
#146 = DIRECTION ( 'NONE',  ( 1.000000000000000000, 0.0000000000000000000, 0.0000000000000000000 ) ) ;
#147 = CARTESIAN_POINT ( 'NONE',  ( 0.0000000000000000000, 0.0000000000000000000, 0.0000000000000000000 ) ) ;
#148 = LOCAL_TIME ( 10, 36, 4.000000000000000000, #267 ) ;
#149 = AXIS2_PLACEMENT_3D ( 'NONE', #277, #162, #299 ) ;
#150 =( GEOMETRIC_REPRESENTATION_CONTEXT ( 3 ) GLOBAL_UNCERTAINTY_ASSIGNED_CONTEXT ( ( #215 ) ) GLOBAL_UNIT_ASSIGNED_CONTEXT ( ( #262, #196, #234 ) ) REPRESENTATION_CONTEXT ( 'NONE', 'WORKASPACE' ) );
#151 = VERTEX_POINT ( 'NONE', #5 ) ;
#152 = APPLICATION_PROTOCOL_DEFINITION ( 'international standard', 'config_control_design', 1994, #35 ) ;
#153 = AXIS2_PLACEMENT_3D ( 'NONE', #297, #232, #189 ) ;
#154 = DATE_AND_TIME ( #202, #86 ) ;
#155 = ORIENTED_EDGE ( 'NONE', *, *, #63, .T. ) ;
#156 = ADVANCED_FACE ( 'NONE', ( #64, #281 ), #117, .T. ) ;
#157 = DATE_AND_TIME ( #104, #148 ) ;
#158 = ORIENTED_EDGE ( 'NONE', *, *, #288, .T. ) ;
#159 = DIRECTION ( 'NONE',  ( 0.0000000000000000000, 1.000000000000000000, 0.0000000000000000000 ) ) ;
#160 = ORIENTED_EDGE ( 'NONE', *, *, #187, .F. ) ;
#161 = DIRECTION ( 'NONE',  ( 4.275831445896958607E-31, 1.000000000000000000, 1.224646799147353454E-16 ) ) ;
#162 = DIRECTION ( 'NONE',  ( -3.491481338843133355E-15, 1.224646799147353207E-16, -1.000000000000000000 ) ) ;
#163 = AXIS2_PLACEMENT_3D ( 'NONE', #143, #145, #161 ) ;
#164 = PLANE ( 'NONE',  #93 ) ;
#165 = CONICAL_SURFACE ( 'NONE', #278, 1.200000000000001510, 0.7853981633974566057 ) ;
#166 = DIRECTION ( 'NONE',  ( -3.491481338843133355E-15, 1.224646799147353207E-16, -1.000000000000000000 ) ) ;
#167 = DIRECTION ( 'NONE',  ( 4.275831445896958607E-31, 1.000000000000000000, 1.224646799147353454E-16 ) ) ;
#168 = CARTESIAN_POINT ( 'NONE',  ( 3.736401973281604895E-14, 1.499999999999991562, 10.70148057706538758 ) ) ;
#169 = ADVANCED_FACE ( 'NONE', ( #1, #211 ), #31, .T. ) ;
#170 = CARTESIAN_POINT ( 'NONE',  ( 3.491481338843133355E-14, 1.904999999999988702, 10.00000000000000000 ) ) ;
#171 = PRODUCT_RELATED_PRODUCT_CATEGORY ( 'detail', '', ( #100 ) ) ;
#172 = DESIGN_CONTEXT ( 'detailed design', #35, 'design' ) ;
#173 = CARTESIAN_POINT ( 'NONE',  ( 2.433562493173664138E-13, 1.499999999999992673, 69.70000000000001705 ) ) ;
#174 = APPROVAL_STATUS ( 'not_yet_approved' ) ;
#175 = DIRECTION ( 'NONE',  ( 0.0000000000000000000, 1.000000000000000000, 0.0000000000000000000 ) ) ;
#176 = EDGE_CURVE ( 'NONE', #282, #282, #224, .T. ) ;
#177 = CONICAL_SURFACE ( 'NONE', #48, 1.200000000000001510, 0.7853981633974566057 ) ;
#178 = ORIENTED_EDGE ( 'NONE', *, *, #235, .F. ) ;
#179 = PERSON_AND_ORGANIZATION_ROLE ( 'classification_officer' ) ;
#180 = ORIENTED_EDGE ( 'NONE', *, *, #84, .F. ) ;
#181 = APPROVAL ( #58, 'UNSPECIFIED' ) ;
#182 = EDGE_LOOP ( 'NONE', ( #155 ) ) ;
#183 = AXIS2_PLACEMENT_3D ( 'NONE', #279, #47, #167 ) ;
#184 = ORIENTED_EDGE ( 'NONE', *, *, #84, .T. ) ;
#185 = DIRECTION ( 'NONE',  ( -3.491481338843133355E-15, 1.224646799147353207E-16, -1.000000000000000000 ) ) ;
#186 = DIRECTION ( 'NONE',  ( 0.0000000000000000000, 1.000000000000000000, 0.0000000000000000000 ) ) ;
#187 = EDGE_CURVE ( 'NONE', #34, #34, #74, .T. ) ;
#188 = CONICAL_SURFACE ( 'NONE', #28, 1.904999999999990035, 0.5235987755983005920 ) ;
#189 = DIRECTION ( 'NONE',  ( -4.275831445896958607E-31, -1.000000000000000000, -1.224646799147353207E-16 ) ) ;
#190 = DIRECTION ( 'NONE',  ( -3.491481338843133355E-15, 1.224646799147353207E-16, -1.000000000000000000 ) ) ;
#191 = CC_DESIGN_PERSON_AND_ORGANIZATION_ASSIGNMENT ( #131, #55, ( #144 ) ) ;
#192 = FACE_OUTER_BOUND ( 'NONE', #20, .T. ) ;
#193 = CARTESIAN_POINT ( 'NONE',  ( 0.0000000000000000000, 1.654999999999989146, 0.0000000000000000000 ) ) ;
#194 = AXIS2_PLACEMENT_3D ( 'NONE', #280, #94, #303 ) ;
#195 = CARTESIAN_POINT ( 'NONE',  ( 3.491481338843133355E-14, 1.428521192985410093E-32, 10.00000000000000000 ) ) ;
#196 =( NAMED_UNIT ( * ) PLANE_ANGLE_UNIT ( ) SI_UNIT ( $, .RADIAN. ) );
#197 = PERSON_AND_ORGANIZATION ( #208, #201 ) ;
#198 = DIRECTION ( 'NONE',  ( -3.491481338843133355E-15, 1.224646799147353207E-16, -1.000000000000000000 ) ) ;
#199 = ORIENTED_EDGE ( 'NONE', *, *, #89, .F. ) ;
#200 = CIRCLE ( 'NONE', #214, 1.200000000000001510 ) ;
#201 = ORGANIZATION ( 'UNSPECIFIED', 'UNSPECIFIED', '' ) ;
#202 = CALENDAR_DATE ( 2021, 2, 12 ) ;
#203 = ADVANCED_FACE ( 'NONE', ( #209, #212 ), #177, .T. ) ;
#204 = ORIENTED_EDGE ( 'NONE', *, *, #176, .F. ) ;
#205 = ORIENTED_EDGE ( 'NONE', *, *, #246, .F. ) ;
#206 = CYLINDRICAL_SURFACE ( 'NONE', #130, 1.499999999999996891 ) ;
#207 = FACE_OUTER_BOUND ( 'NONE', #274, .T. ) ;
#208 = PERSON ( 'UNSPECIFIED', 'UNSPECIFIED', 'UNSPECIFIED', ('UNSPECIFIED'), ('UNSPECIFIED'), ('UNSPECIFIED') ) ;
#209 = FACE_OUTER_BOUND ( 'NONE', #44, .T. ) ;
#210 = CARTESIAN_POINT ( 'NONE',  ( 3.491481338843133355E-14, -1.224646799147353256E-15, 10.00000000000000000 ) ) ;
#211 = FACE_BOUND ( 'NONE', #287, .T. ) ;
#212 = FACE_BOUND ( 'NONE', #249, .T. ) ;
#213 = COORDINATED_UNIVERSAL_TIME_OFFSET ( 1, 0, .AHEAD. ) ;
#214 = AXIS2_PLACEMENT_3D ( 'NONE', #298, #90, #186 ) ;
#215 = UNCERTAINTY_MEASURE_WITH_UNIT (LENGTH_MEASURE( 1.000000000000000082E-05 ), #262, 'distance_accuracy_value', 'NONE');
#216 = CARTESIAN_POINT ( 'NONE',  ( 8.728703347107833388E-16, 1.904999999999990035, 0.2500000000000000000 ) ) ;
#217 = FACE_BOUND ( 'NONE', #60, .T. ) ;
#218 = AXIS2_PLACEMENT_3D ( 'NONE', #268, #231, #228 ) ;
#219 = ADVANCED_BREP_SHAPE_REPRESENTATION ( '321607', ( #112, #7, #18 ), #150 ) ;
#220 = CARTESIAN_POINT ( 'NONE',  ( 3.736401973281604895E-14, -1.310553393484069809E-15, 10.70148057706538758 ) ) ;
#221 = PERSON_AND_ORGANIZATION_ROLE ( 'creator' ) ;
#222 = ORIENTED_EDGE ( 'NONE', *, *, #25, .T. ) ;
#223 = ORIENTED_EDGE ( 'NONE', *, *, #288, .F. ) ;
#224 = CIRCLE ( 'NONE', #194, 1.500000000000001110 ) ;
#225 = COORDINATED_UNIVERSAL_TIME_OFFSET ( 1, 0, .AHEAD. ) ;
#226 = EDGE_LOOP ( 'NONE', ( #81 ) ) ;
#227 = ORIENTED_EDGE ( 'NONE', *, *, #176, .T. ) ;
#228 = DIRECTION ( 'NONE',  ( 4.275831445896958607E-31, 1.000000000000000000, 1.224646799147353207E-16 ) ) ;
#229 = DIRECTION ( 'NONE',  ( 4.275831445896958607E-31, 1.000000000000000000, 1.224646799147353207E-16 ) ) ;
#230 = DIRECTION ( 'NONE',  ( 0.0000000000000000000, 1.000000000000000000, 0.0000000000000000000 ) ) ;
#231 = DIRECTION ( 'NONE',  ( -3.491481338843133355E-15, 1.224646799147353207E-16, -1.000000000000000000 ) ) ;
#232 = DIRECTION ( 'NONE',  ( 3.491481338843133355E-15, -1.224646799147353207E-16, 1.000000000000000000 ) ) ;
#233 = APPROVAL_STATUS ( 'not_yet_approved' ) ;
#234 =( NAMED_UNIT ( * ) SI_UNIT ( $, .STERADIAN. ) SOLID_ANGLE_UNIT ( ) );
#235 = EDGE_CURVE ( 'NONE', #263, #263, #200, .T. ) ;
#236 = PERSON_AND_ORGANIZATION ( #208, #201 ) ;
#237 = CIRCLE ( 'NONE', #149, 1.200000000000001510 ) ;
#238 = CC_DESIGN_APPROVAL ( #41, ( #51 ) ) ;
#239 = PRODUCT_DEFINITION_SHAPE ( 'NONE', 'NONE',  #51 ) ;
#240 = CC_DESIGN_PERSON_AND_ORGANIZATION_ASSIGNMENT ( #197, #137, ( #144 ) ) ;
#241 = DIRECTION ( 'NONE',  ( -4.275831445896958607E-31, -1.000000000000000000, -1.224646799147353207E-16 ) ) ;
#242 = ADVANCED_FACE ( 'NONE', ( #192 ), #69, .F. ) ;
#243 = EDGE_LOOP ( 'NONE', ( #184 ) ) ;
#244 = ORIENTED_EDGE ( 'NONE', *, *, #89, .T. ) ;
#245 = EDGE_LOOP ( 'NONE', ( #158 ) ) ;
#246 = EDGE_CURVE ( 'NONE', #151, #151, #237, .T. ) ;
#247 = FACE_OUTER_BOUND ( 'NONE', #109, .T. ) ;
#248 = AXIS2_PLACEMENT_3D ( 'NONE', #125, #32, #127 ) ;
#249 = EDGE_LOOP ( 'NONE', ( #111 ) ) ;
#250 = CARTESIAN_POINT ( 'NONE',  ( 8.728703347107825500E-16, -3.061616997868380553E-17, 0.2499999999999997780 ) ) ;
#251 = DIRECTION ( 'NONE',  ( 4.275831445896958607E-31, 1.000000000000000000, 1.224646799147353207E-16 ) ) ;
#252 = LOCAL_TIME ( 10, 36, 4.000000000000000000, #225 ) ;
#253 = CONICAL_SURFACE ( 'NONE', #102, 1.904999999999990035, 0.5235987755983005920 ) ;
#254 = CIRCLE ( 'NONE', #296, 1.904999999999990035 ) ;
#255 = CARTESIAN_POINT ( 'NONE',  ( 2.433562493173664138E-13, -8.535788190057053710E-15, 69.70000000000001705 ) ) ;
#256 = CC_DESIGN_DATE_AND_TIME_ASSIGNMENT ( #157, #36, ( #51 ) ) ;
#257 = CYLINDRICAL_SURFACE ( 'NONE', #183, 1.904999999999990035 ) ;
#258 = DIRECTION ( 'NONE',  ( -3.491481338843133355E-15, 1.224646799147353207E-16, -1.000000000000000000 ) ) ;
#259 = APPLICATION_PROTOCOL_DEFINITION ( 'international standard', 'config_control_design', 1994, #116 ) ;
#260 = DIRECTION ( 'NONE',  ( 3.491481338843133355E-15, -1.224646799147353207E-16, 1.000000000000000000 ) ) ;
#261 = ADVANCED_FACE ( 'NONE', ( #207 ), #164, .F. ) ;
#262 =( LENGTH_UNIT ( ) NAMED_UNIT ( * ) SI_UNIT ( .MILLI., .METRE. ) );
#263 = VERTEX_POINT ( 'NONE', #129 ) ;
#264 = AXIS2_PLACEMENT_3D ( 'NONE', #255, #166, #230 ) ;
#265 = EDGE_CURVE ( 'NONE', #71, #71, #17, .T. ) ;
#266 = FACE_OUTER_BOUND ( 'NONE', #272, .T. ) ;
#267 = COORDINATED_UNIVERSAL_TIME_OFFSET ( 1, 0, .AHEAD. ) ;
#268 = CARTESIAN_POINT ( 'NONE',  ( -7.076501042959420260E-31, 2.482102440305358522E-32, -2.026790452588856319E-16 ) ) ;
#269 = SHAPE_DEFINITION_REPRESENTATION ( #239, #219 ) ;
#270 = ORIENTED_EDGE ( 'NONE', *, *, #265, .F. ) ;
#271 = DATE_TIME_ROLE ( 'classification_date' ) ;
#272 = EDGE_LOOP ( 'NONE', ( #270 ) ) ;
#273 = DIRECTION ( 'NONE',  ( -3.491481338843133355E-15, 1.224646799147353207E-16, -1.000000000000000000 ) ) ;
#274 = EDGE_LOOP ( 'NONE', ( #205 ) ) ;
#275 = ADVANCED_FACE ( 'NONE', ( #24 ), #119, .F. ) ;
#276 = FACE_OUTER_BOUND ( 'NONE', #182, .T. ) ;
#277 = CARTESIAN_POINT ( 'NONE',  ( 2.444036937190193601E-13, -8.572527594031472993E-15, 70.00000000000000000 ) ) ;
#278 = AXIS2_PLACEMENT_3D ( 'NONE', #101, #6, #128 ) ;
#279 = CARTESIAN_POINT ( 'NONE',  ( 0.0000000000000000000, 0.0000000000000000000, 0.0000000000000000000 ) ) ;
#280 = CARTESIAN_POINT ( 'NONE',  ( 2.433562493173664138E-13, -8.535788190057053710E-15, 69.70000000000001705 ) ) ;
#281 = FACE_OUTER_BOUND ( 'NONE', #226, .T. ) ;
#282 = VERTEX_POINT ( 'NONE', #173 ) ;
#283 = VERTEX_POINT ( 'NONE', #168 ) ;
#284 = CC_DESIGN_DATE_AND_TIME_ASSIGNMENT ( #39, #271, ( #46 ) ) ;
#285 = COORDINATED_UNIVERSAL_TIME_OFFSET ( 1, 0, .AHEAD. ) ;
#286 = FACE_BOUND ( 'NONE', #293, .T. ) ;
#287 = EDGE_LOOP ( 'NONE', ( #180 ) ) ;
#288 = EDGE_CURVE ( 'NONE', #103, #103, #302, .T. ) ;
#289 = APPROVAL_PERSON_ORGANIZATION ( #236, #41, #30 ) ;
#290 = CALENDAR_DATE ( 2021, 2, 12 ) ;
#291 = EDGE_LOOP ( 'NONE', ( #132 ) ) ;
#292 = PERSON_AND_ORGANIZATION ( #208, #201 ) ;
#293 = EDGE_LOOP ( 'NONE', ( #222 ) ) ;
#294 = APPROVAL ( #174, 'UNSPECIFIED' ) ;
#295 = DIRECTION ( 'NONE',  ( -3.491481338843133355E-15, 1.224646799147353207E-16, -1.000000000000000000 ) ) ;
#296 = AXIS2_PLACEMENT_3D ( 'NONE', #40, #295, #159 ) ;
#297 = CARTESIAN_POINT ( 'NONE',  ( -7.076501042959420260E-31, 2.482102440305358522E-32, -2.026790452588856319E-16 ) ) ;
#298 = CARTESIAN_POINT ( 'NONE',  ( 2.444036937190193601E-13, -8.572527594031472993E-15, 70.00000000000000000 ) ) ;
#299 = DIRECTION ( 'NONE',  ( 0.0000000000000000000, 1.000000000000000000, 0.0000000000000000000 ) ) ;
#300 = LOCAL_TIME ( 10, 36, 4.000000000000000000, #285 ) ;
#301 = ADVANCED_FACE ( 'NONE', ( #266, #217 ), #165, .T. ) ;
#302 = CIRCLE ( 'NONE', #248, 1.499999999999992895 ) ;
#303 = DIRECTION ( 'NONE',  ( 0.0000000000000000000, 1.000000000000000000, 0.0000000000000000000 ) ) ;
ENDSEC;
END-ISO-10303-21;
