ISO-10303-21;
HEADER;
FILE_DESCRIPTION (( 'STEP AP203' ),
    '1' );
FILE_NAME ('321606.step',
    '2021-12-02T09:36:03',
    ( '' ),
    ( '' ),
    'SwSTEP 2.0',
    'SolidWorks 2019',
    '' );
FILE_SCHEMA (( 'CONFIG_CONTROL_DESIGN' ));
ENDSEC;

DATA;
#1 = EDGE_LOOP ( 'NONE', ( #190 ) ) ;
#2 = DIRECTION ( 'NONE',  ( 4.275831445896958607E-31, 1.000000000000000000, 1.224646799147353207E-16 ) ) ;
#3 = DIRECTION ( 'NONE',  ( 0.0000000000000000000, 1.000000000000000000, 0.0000000000000000000 ) ) ;
#4 = AXIS2_PLACEMENT_3D ( 'NONE', #146, #71, #219 ) ;
#5 = EDGE_LOOP ( 'NONE', ( #95 ) ) ;
#6 = APPROVAL_ROLE ( '' ) ;
#7 = ADVANCED_FACE ( 'NONE', ( #264, #27 ), #19, .T. ) ;
#8 = ORIENTED_EDGE ( 'NONE', *, *, #259, .T. ) ;
#9 = AXIS2_PLACEMENT_3D ( 'NONE', #288, #94, #74 ) ;
#10 = DIRECTION ( 'NONE',  ( 0.0000000000000000000, 0.0000000000000000000, 1.000000000000000000 ) ) ;
#11 = PLANE ( 'NONE',  #300 ) ;
#12 = CARTESIAN_POINT ( 'NONE',  ( 2.444036937190193601E-13, -8.572527594031472993E-15, 70.00000000000000000 ) ) ;
#13 = CIRCLE ( 'NONE', #184, 1.500000000000001110 ) ;
#14 = APPLICATION_CONTEXT ( 'configuration controlled 3d designs of mechanical parts and assemblies' ) ;
#15 = VERTEX_POINT ( 'NONE', #34 ) ;
#16 = PRODUCT_DEFINITION_SHAPE ( 'NONE', 'NONE',  #107 ) ;
#17 = DATE_AND_TIME ( #225, #242 ) ;
#18 = PERSON_AND_ORGANIZATION_ROLE ( 'design_owner' ) ;
#19 = CONICAL_SURFACE ( 'NONE', #289, 1.200000000000001510, 0.7853981633974566057 ) ;
#20 = ADVANCED_FACE ( 'NONE', ( #148, #245 ), #284, .T. ) ;
#21 = ORIENTED_EDGE ( 'NONE', *, *, #138, .T. ) ;
#22 = CC_DESIGN_APPROVAL ( #181, ( #112 ) ) ;
#23 = CARTESIAN_POINT ( 'NONE',  ( -7.055121885729956565E-31, 2.474603641392056295E-32, -2.020667218593125606E-16 ) ) ;
#24 = APPROVAL_PERSON_ORGANIZATION ( #202, #211, #53 ) ;
#25 = DIRECTION ( 'NONE',  ( 0.0000000000000000000, 1.000000000000000000, 0.0000000000000000000 ) ) ;
#26 = EDGE_CURVE ( 'NONE', #15, #15, #223, .T. ) ;
#27 = FACE_BOUND ( 'NONE', #244, .T. ) ;
#28 = DESIGN_CONTEXT ( 'detailed design', #72, 'design' ) ;
#29 = DIRECTION ( 'NONE',  ( 0.0000000000000000000, 1.000000000000000000, 0.0000000000000000000 ) ) ;
#30 = CARTESIAN_POINT ( 'NONE',  ( 2.444036937190193601E-13, -8.572527594031472993E-15, 70.00000000000000000 ) ) ;
#31 = PERSON_AND_ORGANIZATION_ROLE ( 'creator' ) ;
#32 = AXIS2_PLACEMENT_3D ( 'NONE', #44, #217, #111 ) ;
#33 = SECURITY_CLASSIFICATION_LEVEL ( 'unclassified' ) ;
#34 = CARTESIAN_POINT ( 'NONE',  ( 3.491481338843133355E-14, 1.899999999999993694, 10.00000000000000000 ) ) ;
#35 = LOCAL_TIME ( 10, 36, 3.000000000000000000, #91 ) ;
#36 = EDGE_CURVE ( 'NONE', #278, #278, #13, .T. ) ;
#37 = VERTEX_POINT ( 'NONE', #143 ) ;
#38 = AXIS2_PLACEMENT_3D ( 'NONE', #30, #243, #25 ) ;
#39 = ORIENTED_EDGE ( 'NONE', *, *, #275, .F. ) ;
#40 = CARTESIAN_POINT ( 'NONE',  ( 3.733378261745330546E-14, 1.499999999999991562, 10.69282032302755248 ) ) ;
#41 = CARTESIAN_POINT ( 'NONE',  ( 2.444036937190193601E-13, 8.998558695971026591E-33, 70.00000000000000000 ) ) ;
#42 =( NAMED_UNIT ( * ) PLANE_ANGLE_UNIT ( ) SI_UNIT ( $, .RADIAN. ) );
#43 = MANIFOLD_SOLID_BREP ( 'Corps-Déplacer/Copier1[2]', #175 ) ;
#44 = CARTESIAN_POINT ( 'NONE',  ( 2.444036937190193601E-13, -8.572527594031472993E-15, 70.00000000000000000 ) ) ;
#45 = AXIS2_PLACEMENT_3D ( 'NONE', #174, #65, #60 ) ;
#46 = ADVANCED_FACE ( 'NONE', ( #283, #285 ), #48, .T. ) ;
#47 = DIRECTION ( 'NONE',  ( 4.275831445896958607E-31, 1.000000000000000000, 1.224646799147353207E-16 ) ) ;
#48 = CYLINDRICAL_SURFACE ( 'NONE', #296, 1.899999999999995026 ) ;
#49 = CARTESIAN_POINT ( 'NONE',  ( 2.444036937190193601E-13, -8.572527594031472993E-15, 70.00000000000000000 ) ) ;
#50 = AXIS2_PLACEMENT_3D ( 'NONE', #206, #228, #161 ) ;
#51 = PERSON_AND_ORGANIZATION ( #214, #229 ) ;
#52 = EDGE_LOOP ( 'NONE', ( #215 ) ) ;
#53 = APPROVAL_ROLE ( '' ) ;
#54 = PERSON_AND_ORGANIZATION ( #214, #229 ) ;
#55 = DIRECTION ( 'NONE',  ( 0.0000000000000000000, 1.000000000000000000, 0.0000000000000000000 ) ) ;
#56 = ADVANCED_FACE ( 'NONE', ( #238 ), #99, .F. ) ;
#57 = CLOSED_SHELL ( 'NONE', ( #209, #119, #251, #20, #63 ) ) ;
#58 = AXIS2_PLACEMENT_3D ( 'NONE', #41, #236, #47 ) ;
#59 = CARTESIAN_POINT ( 'NONE',  ( 0.0000000000000000000, 0.0000000000000000000, 0.0000000000000000000 ) ) ;
#60 = DIRECTION ( 'NONE',  ( 0.0000000000000000000, 1.000000000000000000, 0.0000000000000000000 ) ) ;
#61 = CALENDAR_DATE ( 2021, 2, 12 ) ;
#62 = DIRECTION ( 'NONE',  ( -3.491481338843133355E-15, 1.224646799147353207E-16, -1.000000000000000000 ) ) ;
#63 = ADVANCED_FACE ( 'NONE', ( #237 ), #137, .F. ) ;
#64 = CC_DESIGN_SECURITY_CLASSIFICATION ( #133, ( #112 ) ) ;
#65 = DIRECTION ( 'NONE',  ( -3.491481338843133355E-15, 1.224646799147353207E-16, -1.000000000000000000 ) ) ;
#66 = VERTEX_POINT ( 'NONE', #187 ) ;
#67 = ORIENTED_EDGE ( 'NONE', *, *, #239, .T. ) ;
#68 = VERTEX_POINT ( 'NONE', #117 ) ;
#69 = CC_DESIGN_APPROVAL ( #211, ( #107 ) ) ;
#70 = EDGE_LOOP ( 'NONE', ( #177 ) ) ;
#71 = DIRECTION ( 'NONE',  ( -3.491481338843133355E-15, 1.224646799147353207E-16, -1.000000000000000000 ) ) ;
#72 = APPLICATION_CONTEXT ( 'configuration controlled 3d designs of mechanical parts and assemblies' ) ;
#73 = EDGE_CURVE ( 'NONE', #88, #88, #200, .T. ) ;
#74 = DIRECTION ( 'NONE',  ( 4.275831445896958607E-31, 1.000000000000000000, 1.224646799147353207E-16 ) ) ;
#75 = ORIENTED_EDGE ( 'NONE', *, *, #280, .F. ) ;
#76 = CIRCLE ( 'NONE', #32, 1.200000000000001510 ) ;
#77 = DIRECTION ( 'NONE',  ( 4.275831445896957731E-31, 1.000000000000000000, 1.224646799147353207E-16 ) ) ;
#78 = DIRECTION ( 'NONE',  ( 0.0000000000000000000, 1.000000000000000000, 0.0000000000000000000 ) ) ;
#79 = DATE_AND_TIME ( #199, #205 ) ;
#80 = APPROVAL_PERSON_ORGANIZATION ( #212, #290, #6 ) ;
#81 = CC_DESIGN_PERSON_AND_ORGANIZATION_ASSIGNMENT ( #54, #293, ( #112 ) ) ;
#82 = DIRECTION ( 'NONE',  ( -3.491481338843133355E-15, 1.224646799147353207E-16, -1.000000000000000000 ) ) ;
#83 = DIRECTION ( 'NONE',  ( -3.491481338843133355E-15, 1.224646799147353207E-16, -1.000000000000000000 ) ) ;
#84 = DIRECTION ( 'NONE',  ( -3.491481338843133355E-15, 1.224646799147353207E-16, -1.000000000000000000 ) ) ;
#85 = CARTESIAN_POINT ( 'NONE',  ( -7.055121885729956565E-31, 2.474603641392056295E-32, -2.020667218593125606E-16 ) ) ;
#86 = PLANE ( 'NONE',  #101 ) ;
#87 = VERTEX_POINT ( 'NONE', #183 ) ;
#88 = VERTEX_POINT ( 'NONE', #163 ) ;
#89 = AXIS2_PLACEMENT_3D ( 'NONE', #23, #216, #2 ) ;
#90 = CARTESIAN_POINT ( 'NONE',  ( 3.491481338843133355E-14, -1.224646799147353256E-15, 10.00000000000000000 ) ) ;
#91 = COORDINATED_UNIVERSAL_TIME_OFFSET ( 1, 0, .AHEAD. ) ;
#92 = ORIENTED_EDGE ( 'NONE', *, *, #93, .T. ) ;
#93 = EDGE_CURVE ( 'NONE', #68, #68, #303, .T. ) ;
#94 = DIRECTION ( 'NONE',  ( -3.491481338843133355E-15, 1.224646799147353207E-16, -1.000000000000000000 ) ) ;
#95 = ORIENTED_EDGE ( 'NONE', *, *, #36, .F. ) ;
#96 = APPROVAL_PERSON_ORGANIZATION ( #164, #181, #295 ) ;
#97 = MECHANICAL_CONTEXT ( 'NONE', #14, 'mechanical' ) ;
#98 = ADVANCED_FACE ( 'NONE', ( #159, #255 ), #135, .T. ) ;
#99 = PLANE ( 'NONE',  #9 ) ;
#100 = DIRECTION ( 'NONE',  ( -3.491481338843133355E-15, 1.224646799147353207E-16, -1.000000000000000000 ) ) ;
#101 = AXIS2_PLACEMENT_3D ( 'NONE', #256, #188, #276 ) ;
#102 = DIRECTION ( 'NONE',  ( -3.491481338843133355E-15, 1.224646799147353207E-16, -1.000000000000000000 ) ) ;
#103 = CALENDAR_DATE ( 2021, 2, 12 ) ;
#104 = EDGE_LOOP ( 'NONE', ( #75 ) ) ;
#105 = AXIS2_PLACEMENT_3D ( 'NONE', #182, #115, #185 ) ;
#106 = DIRECTION ( 'NONE',  ( -4.275831445896958607E-31, -1.000000000000000000, -1.224646799147353207E-16 ) ) ;
#107 = PRODUCT_DEFINITION ( 'UNKNOWN', '', #112, #28 ) ;
#108 = FACE_BOUND ( 'NONE', #266, .T. ) ;
#109 = CARTESIAN_POINT ( 'NONE',  ( 3.491481338843133355E-14, 1.424771793528759254E-32, 10.00000000000000000 ) ) ;
#110 = CONICAL_SURFACE ( 'NONE', #267, 1.649999999999994138, 0.7853981633974500554 ) ;
#111 = DIRECTION ( 'NONE',  ( 0.0000000000000000000, 1.000000000000000000, 0.0000000000000000000 ) ) ;
#112 = PRODUCT_DEFINITION_FORMATION_WITH_SPECIFIED_SOURCE ( 'ANY', '', #258, .NOT_KNOWN. ) ;
#113 = DATE_AND_TIME ( #61, #35 ) ;
#114 = CYLINDRICAL_SURFACE ( 'NONE', #105, 1.499999999999996891 ) ;
#115 = DIRECTION ( 'NONE',  ( -3.491481338843133355E-15, 1.224646799147353207E-16, -1.000000000000000000 ) ) ;
#116 = DIRECTION ( 'NONE',  ( 4.275831445896958607E-31, 1.000000000000000000, 1.224646799147353454E-16 ) ) ;
#117 = CARTESIAN_POINT ( 'NONE',  ( 3.491481338843133355E-14, 1.899999999999993694, 10.00000000000000000 ) ) ;
#118 = CC_DESIGN_PERSON_AND_ORGANIZATION_ASSIGNMENT ( #130, #226, ( #133 ) ) ;
#119 = ADVANCED_FACE ( 'NONE', ( #231, #208 ), #147, .T. ) ;
#120 = CARTESIAN_POINT ( 'NONE',  ( 3.733378261745330546E-14, -1.309492818245345948E-15, 10.69282032302755248 ) ) ;
#121 = COORDINATED_UNIVERSAL_TIME_OFFSET ( 1, 0, .AHEAD. ) ;
#122 = CC_DESIGN_APPROVAL ( #290, ( #133 ) ) ;
#123 = EDGE_LOOP ( 'NONE', ( #39 ) ) ;
#124 = DIRECTION ( 'NONE',  ( -3.491481338843133355E-15, 1.224646799147353207E-16, -1.000000000000000000 ) ) ;
#125 = DIRECTION ( 'NONE',  ( 0.0000000000000000000, 1.000000000000000000, 0.0000000000000000000 ) ) ;
#126 =( NAMED_UNIT ( * ) SI_UNIT ( $, .STERADIAN. ) SOLID_ANGLE_UNIT ( ) );
#127 = CC_DESIGN_PERSON_AND_ORGANIZATION_ASSIGNMENT ( #162, #18, ( #258 ) ) ;
#128 = CARTESIAN_POINT ( 'NONE',  ( 3.491481338843133355E-14, -1.224646799147353256E-15, 10.00000000000000000 ) ) ;
#129 = AXIS2_PLACEMENT_3D ( 'NONE', #249, #155, #131 ) ;
#130 = PERSON_AND_ORGANIZATION ( #214, #229 ) ;
#131 = DIRECTION ( 'NONE',  ( 0.0000000000000000000, 1.000000000000000000, 0.0000000000000000000 ) ) ;
#132 = CC_DESIGN_DATE_AND_TIME_ASSIGNMENT ( #17, #136, ( #107 ) ) ;
#133 = SECURITY_CLASSIFICATION ( '', '', #33 ) ;
#134 = CARTESIAN_POINT ( 'NONE',  ( 8.728703347107833388E-16, 1.899999999999995026, 0.2500000000000000000 ) ) ;
#135 = CYLINDRICAL_SURFACE ( 'NONE', #241, 1.499999999999996891 ) ;
#136 = DATE_TIME_ROLE ( 'creation_date' ) ;
#137 = PLANE ( 'NONE',  #58 ) ;
#138 = EDGE_CURVE ( 'NONE', #66, #66, #156, .T. ) ;
#139 = VERTEX_POINT ( 'NONE', #167 ) ;
#140 = CONICAL_SURFACE ( 'NONE', #4, 1.899999999999995026, 0.5235987755982999259 ) ;
#141 = FACE_BOUND ( 'NONE', #287, .T. ) ;
#142 = ORIENTED_EDGE ( 'NONE', *, *, #275, .T. ) ;
#143 = CARTESIAN_POINT ( 'NONE',  ( 3.733378261745330546E-14, 1.499999999999991562, 10.69282032302755248 ) ) ;
#144 = AXIS2_PLACEMENT_3D ( 'NONE', #120, #82, #29 ) ;
#145 = DIRECTION ( 'NONE',  ( -3.491481338843133355E-15, 1.224646799147353207E-16, -1.000000000000000000 ) ) ;
#146 = CARTESIAN_POINT ( 'NONE',  ( 3.491481338843133355E-14, -1.224646799147353256E-15, 10.00000000000000000 ) ) ;
#147 = CONICAL_SURFACE ( 'NONE', #263, 1.899999999999995026, 0.5235987755982999259 ) ;
#148 = FACE_OUTER_BOUND ( 'NONE', #5, .T. ) ;
#149 = ORIENTED_EDGE ( 'NONE', *, *, #230, .F. ) ;
#150 = COORDINATED_UNIVERSAL_TIME_OFFSET ( 1, 0, .AHEAD. ) ;
#151 = CC_DESIGN_DATE_AND_TIME_ASSIGNMENT ( #113, #253, ( #133 ) ) ;
#152 = APPROVAL_DATE_TIME ( #179, #181 ) ;
#153 = UNCERTAINTY_MEASURE_WITH_UNIT (LENGTH_MEASURE( 1.000000000000000082E-05 ), #240, 'distance_accuracy_value', 'NONE');
#154 = ORIENTED_EDGE ( 'NONE', *, *, #93, .F. ) ;
#155 = DIRECTION ( 'NONE',  ( -3.491481338843133355E-15, 1.224646799147353207E-16, -1.000000000000000000 ) ) ;
#156 = CIRCLE ( 'NONE', #129, 1.500000000000001110 ) ;
#157 = CARTESIAN_POINT ( 'NONE',  ( 0.0000000000000000000, 0.0000000000000000000, 0.0000000000000000000 ) ) ;
#158 = FACE_OUTER_BOUND ( 'NONE', #277, .T. ) ;
#159 = FACE_OUTER_BOUND ( 'NONE', #222, .T. ) ;
#160 =( GEOMETRIC_REPRESENTATION_CONTEXT ( 3 ) GLOBAL_UNCERTAINTY_ASSIGNED_CONTEXT ( ( #153 ) ) GLOBAL_UNIT_ASSIGNED_CONTEXT ( ( #240, #42, #126 ) ) REPRESENTATION_CONTEXT ( 'NONE', 'WORKASPACE' ) );
#161 = DIRECTION ( 'NONE',  ( 4.054589356604718076E-31, 1.000000000000000000, 1.141265444721586716E-16 ) ) ;
#162 = PERSON_AND_ORGANIZATION ( #214, #229 ) ;
#163 = CARTESIAN_POINT ( 'NONE',  ( 0.0000000000000000000, 1.649999999999994138, 0.0000000000000000000 ) ) ;
#164 = PERSON_AND_ORGANIZATION ( #214, #229 ) ;
#165 = EDGE_LOOP ( 'NONE', ( #197 ) ) ;
#166 = CARTESIAN_POINT ( 'NONE',  ( 2.433562493173664138E-13, 1.499999999999992673, 69.70000000000001705 ) ) ;
#167 = CARTESIAN_POINT ( 'NONE',  ( 2.444036937190193601E-13, 1.199999999999992628, 70.00000000000000000 ) ) ;
#168 = AXIS2_PLACEMENT_3D ( 'NONE', #59, #10, #270 ) ;
#169 = EDGE_LOOP ( 'NONE', ( #221 ) ) ;
#170 = APPROVAL_DATE_TIME ( #233, #290 ) ;
#171 = AXIS2_PLACEMENT_3D ( 'NONE', #180, #62, #3 ) ;
#172 = ORIENTED_EDGE ( 'NONE', *, *, #73, .F. ) ;
#173 = CC_DESIGN_PERSON_AND_ORGANIZATION_ASSIGNMENT ( #298, #248, ( #112 ) ) ;
#174 = CARTESIAN_POINT ( 'NONE',  ( 3.491481338843133355E-14, -1.224646799147353256E-15, 10.00000000000000000 ) ) ;
#175 = CLOSED_SHELL ( 'NONE', ( #299, #46, #286, #291, #56, #7, #98 ) ) ;
#176 = LOCAL_TIME ( 10, 36, 3.000000000000000000, #292 ) ;
#177 = ORIENTED_EDGE ( 'NONE', *, *, #280, .T. ) ;
#178 = FACE_OUTER_BOUND ( 'NONE', #169, .T. ) ;
#179 = DATE_AND_TIME ( #201, #176 ) ;
#180 = CARTESIAN_POINT ( 'NONE',  ( 3.733378261745330546E-14, -1.309492818245345948E-15, 10.69282032302755248 ) ) ;
#181 = APPROVAL ( #234, 'UNSPECIFIED' ) ;
#182 = CARTESIAN_POINT ( 'NONE',  ( 0.0000000000000000000, 0.0000000000000000000, 0.0000000000000000000 ) ) ;
#183 = CARTESIAN_POINT ( 'NONE',  ( 2.444036937190193601E-13, 1.199999999999992628, 70.00000000000000000 ) ) ;
#184 = AXIS2_PLACEMENT_3D ( 'NONE', #224, #100, #196 ) ;
#185 = DIRECTION ( 'NONE',  ( 4.275831445896958607E-31, 1.000000000000000000, 1.224646799147353454E-16 ) ) ;
#186 = ORIENTED_EDGE ( 'NONE', *, *, #230, .T. ) ;
#187 = CARTESIAN_POINT ( 'NONE',  ( 2.433562493173664138E-13, 1.499999999999992673, 69.70000000000001705 ) ) ;
#188 = DIRECTION ( 'NONE',  ( -3.491481338843133355E-15, 1.224646799147353207E-16, -1.000000000000000000 ) ) ;
#189 = ORIENTED_EDGE ( 'NONE', *, *, #259, .F. ) ;
#190 = ORIENTED_EDGE ( 'NONE', *, *, #26, .F. ) ;
#191 = SHAPE_DEFINITION_REPRESENTATION ( #16, #273 ) ;
#192 = CC_DESIGN_PERSON_AND_ORGANIZATION_ASSIGNMENT ( #51, #31, ( #107 ) ) ;
#193 = CIRCLE ( 'NONE', #144, 1.499999999999992895 ) ;
#194 = EDGE_LOOP ( 'NONE', ( #210 ) ) ;
#195 = PRODUCT_RELATED_PRODUCT_CATEGORY ( 'detail', '', ( #258 ) ) ;
#196 = DIRECTION ( 'NONE',  ( 0.0000000000000000000, 1.000000000000000000, 0.0000000000000000000 ) ) ;
#197 = ORIENTED_EDGE ( 'NONE', *, *, #26, .T. ) ;
#198 = EDGE_LOOP ( 'NONE', ( #92 ) ) ;
#199 = CALENDAR_DATE ( 2021, 2, 12 ) ;
#200 = CIRCLE ( 'NONE', #89, 1.649999999999994138 ) ;
#201 = CALENDAR_DATE ( 2021, 2, 12 ) ;
#202 = PERSON_AND_ORGANIZATION ( #214, #229 ) ;
#203 = DIRECTION ( 'NONE',  ( -3.491481338843133355E-15, 1.224646799147353207E-16, -1.000000000000000000 ) ) ;
#204 = DIRECTION ( 'NONE',  ( -4.275831445896958607E-31, -1.000000000000000000, -1.224646799147353207E-16 ) ) ;
#205 = LOCAL_TIME ( 10, 36, 3.000000000000000000, #297 ) ;
#206 = CARTESIAN_POINT ( 'NONE',  ( 8.728703347107825500E-16, -3.061616997868380553E-17, 0.2499999999999997780 ) ) ;
#207 = FACE_OUTER_BOUND ( 'NONE', #52, .T. ) ;
#208 = FACE_OUTER_BOUND ( 'NONE', #235, .T. ) ;
#209 = ADVANCED_FACE ( 'NONE', ( #227 ), #11, .F. ) ;
#210 = ORIENTED_EDGE ( 'NONE', *, *, #138, .F. ) ;
#211 = APPROVAL ( #246, 'UNSPECIFIED' ) ;
#212 = PERSON_AND_ORGANIZATION ( #214, #229 ) ;
#213 = CIRCLE ( 'NONE', #171, 1.499999999999992895 ) ;
#214 = PERSON ( 'UNSPECIFIED', 'UNSPECIFIED', 'UNSPECIFIED', ('UNSPECIFIED'), ('UNSPECIFIED'), ('UNSPECIFIED') ) ;
#215 = ORIENTED_EDGE ( 'NONE', *, *, #36, .T. ) ;
#216 = DIRECTION ( 'NONE',  ( -3.491481338843133355E-15, 1.224646799147353207E-16, -1.000000000000000000 ) ) ;
#217 = DIRECTION ( 'NONE',  ( -3.491481338843133355E-15, 1.224646799147353207E-16, -1.000000000000000000 ) ) ;
#218 = CARTESIAN_POINT ( 'NONE',  ( 0.0000000000000000000, 0.0000000000000000000, 0.0000000000000000000 ) ) ;
#219 = DIRECTION ( 'NONE',  ( 0.0000000000000000000, 1.000000000000000000, 0.0000000000000000000 ) ) ;
#220 = AXIS2_PLACEMENT_3D ( 'NONE', #128, #102, #78 ) ;
#221 = ORIENTED_EDGE ( 'NONE', *, *, #73, .T. ) ;
#222 = EDGE_LOOP ( 'NONE', ( #149 ) ) ;
#223 = CIRCLE ( 'NONE', #220, 1.899999999999995026 ) ;
#224 = CARTESIAN_POINT ( 'NONE',  ( 2.433562493173664138E-13, -8.535788190057053710E-15, 69.70000000000001705 ) ) ;
#225 = CALENDAR_DATE ( 2021, 2, 12 ) ;
#226 = PERSON_AND_ORGANIZATION_ROLE ( 'classification_officer' ) ;
#227 = FACE_OUTER_BOUND ( 'NONE', #198, .T. ) ;
#228 = DIRECTION ( 'NONE',  ( -3.491481338843133355E-15, 1.224646799147353207E-16, -1.000000000000000000 ) ) ;
#229 = ORGANIZATION ( 'UNSPECIFIED', 'UNSPECIFIED', '' ) ;
#230 = EDGE_CURVE ( 'NONE', #257, #257, #213, .T. ) ;
#231 = FACE_BOUND ( 'NONE', #281, .T. ) ;
#232 = AXIS2_PLACEMENT_3D ( 'NONE', #12, #83, #294 ) ;
#233 = DATE_AND_TIME ( #103, #254 ) ;
#234 = APPROVAL_STATUS ( 'not_yet_approved' ) ;
#235 = EDGE_LOOP ( 'NONE', ( #154 ) ) ;
#236 = DIRECTION ( 'NONE',  ( -3.491481338843133355E-15, 1.224646799147353207E-16, -1.000000000000000000 ) ) ;
#237 = FACE_OUTER_BOUND ( 'NONE', #104, .T. ) ;
#238 = FACE_OUTER_BOUND ( 'NONE', #301, .T. ) ;
#239 = EDGE_CURVE ( 'NONE', #37, #37, #193, .T. ) ;
#240 =( LENGTH_UNIT ( ) NAMED_UNIT ( * ) SI_UNIT ( .MILLI., .METRE. ) );
#241 = AXIS2_PLACEMENT_3D ( 'NONE', #157, #203, #116 ) ;
#242 = LOCAL_TIME ( 10, 36, 3.000000000000000000, #150 ) ;
#243 = DIRECTION ( 'NONE',  ( -3.491481338843133355E-15, 1.224646799147353207E-16, -1.000000000000000000 ) ) ;
#244 = EDGE_LOOP ( 'NONE', ( #8 ) ) ;
#245 = FACE_BOUND ( 'NONE', #70, .T. ) ;
#246 = APPROVAL_STATUS ( 'not_yet_approved' ) ;
#247 = CIRCLE ( 'NONE', #50, 1.899999999999995026 ) ;
#248 = PERSON_AND_ORGANIZATION_ROLE ( 'design_supplier' ) ;
#249 = CARTESIAN_POINT ( 'NONE',  ( 2.433562493173664138E-13, -8.535788190057053710E-15, 69.70000000000001705 ) ) ;
#250 = MANIFOLD_SOLID_BREP ( 'Corps-Déplacer/Copier1[1]', #57 ) ;
#251 = ADVANCED_FACE ( 'NONE', ( #265, #207 ), #114, .T. ) ;
#252 = DIRECTION ( 'NONE',  ( 3.491481338843133355E-15, -1.224646799147353207E-16, 1.000000000000000000 ) ) ;
#253 = DATE_TIME_ROLE ( 'classification_date' ) ;
#254 = LOCAL_TIME ( 10, 36, 3.000000000000000000, #121 ) ;
#255 = FACE_OUTER_BOUND ( 'NONE', #279, .T. ) ;
#256 = CARTESIAN_POINT ( 'NONE',  ( -3.527560942864978283E-31, 1.237301820696028147E-32, -1.010333609296562803E-16 ) ) ;
#257 = VERTEX_POINT ( 'NONE', #40 ) ;
#258 = PRODUCT ( '321606', '321606', '', ( #97 ) ) ;
#259 = EDGE_CURVE ( 'NONE', #139, #139, #76, .T. ) ;
#260 = APPLICATION_PROTOCOL_DEFINITION ( 'international standard', 'config_control_design', 1994, #14 ) ;
#261 = CIRCLE ( 'NONE', #232, 1.200000000000001510 ) ;
#262 = VERTEX_POINT ( 'NONE', #134 ) ;
#263 = AXIS2_PLACEMENT_3D ( 'NONE', #90, #84, #55 ) ;
#264 = FACE_OUTER_BOUND ( 'NONE', #194, .T. ) ;
#265 = FACE_OUTER_BOUND ( 'NONE', #302, .T. ) ;
#266 = EDGE_LOOP ( 'NONE', ( #172 ) ) ;
#267 = AXIS2_PLACEMENT_3D ( 'NONE', #85, #252, #106 ) ;
#268 = FACE_OUTER_BOUND ( 'NONE', #1, .T. ) ;
#269 = APPROVAL_DATE_TIME ( #79, #211 ) ;
#270 = DIRECTION ( 'NONE',  ( 1.000000000000000000, 0.0000000000000000000, 0.0000000000000000000 ) ) ;
#271 = APPLICATION_PROTOCOL_DEFINITION ( 'international standard', 'config_control_design', 1994, #72 ) ;
#272 = DIRECTION ( 'NONE',  ( 3.491481338843133355E-15, -1.224646799147353207E-16, 1.000000000000000000 ) ) ;
#273 = ADVANCED_BREP_SHAPE_REPRESENTATION ( '321606', ( #250, #43, #168 ), #160 ) ;
#274 = ORIENTED_EDGE ( 'NONE', *, *, #239, .F. ) ;
#275 = EDGE_CURVE ( 'NONE', #262, #262, #247, .T. ) ;
#276 = DIRECTION ( 'NONE',  ( 4.275831445896958607E-31, 1.000000000000000000, 1.224646799147353207E-16 ) ) ;
#277 = EDGE_LOOP ( 'NONE', ( #142 ) ) ;
#278 = VERTEX_POINT ( 'NONE', #166 ) ;
#279 = EDGE_LOOP ( 'NONE', ( #21 ) ) ;
#280 = EDGE_CURVE ( 'NONE', #87, #87, #261, .T. ) ;
#281 = EDGE_LOOP ( 'NONE', ( #67 ) ) ;
#282 = APPROVAL_STATUS ( 'not_yet_approved' ) ;
#283 = FACE_OUTER_BOUND ( 'NONE', #165, .T. ) ;
#284 = CONICAL_SURFACE ( 'NONE', #38, 1.200000000000001510, 0.7853981633974566057 ) ;
#285 = FACE_OUTER_BOUND ( 'NONE', #123, .T. ) ;
#286 = ADVANCED_FACE ( 'NONE', ( #158, #108 ), #110, .T. ) ;
#287 = EDGE_LOOP ( 'NONE', ( #186 ) ) ;
#288 = CARTESIAN_POINT ( 'NONE',  ( 2.444036937190193601E-13, -8.572527594031472993E-15, 70.00000000000000000 ) ) ;
#289 = AXIS2_PLACEMENT_3D ( 'NONE', #49, #124, #125 ) ;
#290 = APPROVAL ( #282, 'UNSPECIFIED' ) ;
#291 = ADVANCED_FACE ( 'NONE', ( #178 ), #86, .T. ) ;
#292 = COORDINATED_UNIVERSAL_TIME_OFFSET ( 1, 0, .AHEAD. ) ;
#293 = PERSON_AND_ORGANIZATION_ROLE ( 'creator' ) ;
#294 = DIRECTION ( 'NONE',  ( 0.0000000000000000000, 1.000000000000000000, 0.0000000000000000000 ) ) ;
#295 = APPROVAL_ROLE ( '' ) ;
#296 = AXIS2_PLACEMENT_3D ( 'NONE', #218, #145, #77 ) ;
#297 = COORDINATED_UNIVERSAL_TIME_OFFSET ( 1, 0, .AHEAD. ) ;
#298 = PERSON_AND_ORGANIZATION ( #214, #229 ) ;
#299 = ADVANCED_FACE ( 'NONE', ( #141, #268 ), #140, .T. ) ;
#300 = AXIS2_PLACEMENT_3D ( 'NONE', #109, #272, #204 ) ;
#301 = EDGE_LOOP ( 'NONE', ( #189 ) ) ;
#302 = EDGE_LOOP ( 'NONE', ( #274 ) ) ;
#303 = CIRCLE ( 'NONE', #45, 1.899999999999995026 ) ;
ENDSEC;
END-ISO-10303-21;
