ISO-10303-21;
HEADER;
FILE_DESCRIPTION (( 'STEP AP203' ),
    '1' );
FILE_NAME ('321605.step',
    '2021-12-02T09:36:03',
    ( '' ),
    ( '' ),
    'SwSTEP 2.0',
    'SolidWorks 2019',
    '' );
FILE_SCHEMA (( 'CONFIG_CONTROL_DESIGN' ));
ENDSEC;

DATA;
#1 = CIRCLE ( 'NONE', #291, 1.499999999999992895 ) ;
#2 = CALENDAR_DATE ( 2021, 2, 12 ) ;
#3 = EDGE_CURVE ( 'NONE', #193, #193, #65, .T. ) ;
#4 = PRODUCT_DEFINITION_SHAPE ( 'NONE', 'NONE',  #187 ) ;
#5 = CLOSED_SHELL ( 'NONE', ( #98, #272, #205, #227, #57 ) ) ;
#6 = LOCAL_TIME ( 10, 36, 3.000000000000000000, #192 ) ;
#7 = DIRECTION ( 'NONE',  ( -3.491481338843133355E-15, 1.224646799147353207E-16, -1.000000000000000000 ) ) ;
#8 = DIRECTION ( 'NONE',  ( -3.491481338843133355E-15, 1.224646799147353207E-16, -1.000000000000000000 ) ) ;
#9 = VERTEX_POINT ( 'NONE', #251 ) ;
#10 = AXIS2_PLACEMENT_3D ( 'NONE', #64, #159, #253 ) ;
#11 = DIRECTION ( 'NONE',  ( -3.491481338843133355E-15, 1.224646799147353207E-16, -1.000000000000000000 ) ) ;
#12 = ADVANCED_FACE ( 'NONE', ( #233, #204 ), #297, .T. ) ;
#13 = EDGE_LOOP ( 'NONE', ( #68 ) ) ;
#14 = DIRECTION ( 'NONE',  ( -3.491481338843133355E-15, 1.224646799147353207E-16, -1.000000000000000000 ) ) ;
#15 = LOCAL_TIME ( 10, 36, 3.000000000000000000, #299 ) ;
#16 = ADVANCED_BREP_SHAPE_REPRESENTATION ( '321605', ( #66, #267, #240 ), #211 ) ;
#17 = EDGE_LOOP ( 'NONE', ( #223 ) ) ;
#18 = ORIENTED_EDGE ( 'NONE', *, *, #31, .T. ) ;
#19 = EDGE_LOOP ( 'NONE', ( #202 ) ) ;
#20 = DIRECTION ( 'NONE',  ( -3.491481338843133355E-15, 1.224646799147353207E-16, -1.000000000000000000 ) ) ;
#21 = CC_DESIGN_DATE_AND_TIME_ASSIGNMENT ( #188, #163, ( #213 ) ) ;
#22 = ADVANCED_FACE ( 'NONE', ( #234 ), #271, .T. ) ;
#23 = ORIENTED_EDGE ( 'NONE', *, *, #40, .T. ) ;
#24 = CARTESIAN_POINT ( 'NONE',  ( 2.444036937190193601E-13, -8.572527594031472993E-15, 70.00000000000000000 ) ) ;
#25 = CARTESIAN_POINT ( 'NONE',  ( 3.730354550209049886E-14, 1.499999999999991562, 10.68416006898969961 ) ) ;
#26 = PERSON_AND_ORGANIZATION ( #190, #147 ) ;
#27 = AXIS2_PLACEMENT_3D ( 'NONE', #283, #218, #165 ) ;
#28 = DIRECTION ( 'NONE',  ( 1.000000000000000000, 0.0000000000000000000, 0.0000000000000000000 ) ) ;
#29 = DIRECTION ( 'NONE',  ( -3.491481338843133355E-15, 1.224646799147353207E-16, -1.000000000000000000 ) ) ;
#30 = LOCAL_TIME ( 10, 36, 3.000000000000000000, #144 ) ;
#31 = EDGE_CURVE ( 'NONE', #97, #97, #81, .T. ) ;
#32 = ORIENTED_EDGE ( 'NONE', *, *, #128, .F. ) ;
#33 = DIRECTION ( 'NONE',  ( 0.0000000000000000000, 1.000000000000000000, 0.0000000000000000000 ) ) ;
#34 = CARTESIAN_POINT ( 'NONE',  ( 3.491481338843133355E-14, -1.224646799147353256E-15, 10.00000000000000000 ) ) ;
#35 = FACE_OUTER_BOUND ( 'NONE', #164, .T. ) ;
#36 = FACE_OUTER_BOUND ( 'NONE', #229, .T. ) ;
#37 = ORIENTED_EDGE ( 'NONE', *, *, #91, .T. ) ;
#38 = DIRECTION ( 'NONE',  ( 0.0000000000000000000, 1.000000000000000000, 0.0000000000000000000 ) ) ;
#39 = DIRECTION ( 'NONE',  ( 4.065287481556192023E-31, 1.000000000000000000, 1.144276699193150533E-16 ) ) ;
#40 = EDGE_CURVE ( 'NONE', #268, #268, #100, .T. ) ;
#41 = CALENDAR_DATE ( 2021, 2, 12 ) ;
#42 = AXIS2_PLACEMENT_3D ( 'NONE', #298, #183, #33 ) ;
#43 = APPROVAL_DATE_TIME ( #258, #166 ) ;
#44 = EDGE_LOOP ( 'NONE', ( #88 ) ) ;
#45 = APPLICATION_CONTEXT ( 'configuration controlled 3d designs of mechanical parts and assemblies' ) ;
#46 = CC_DESIGN_SECURITY_CLASSIFICATION ( #213, ( #269 ) ) ;
#47 = VERTEX_POINT ( 'NONE', #222 ) ;
#48 = EDGE_LOOP ( 'NONE', ( #189 ) ) ;
#49 = CARTESIAN_POINT ( 'NONE',  ( 3.491481338843133355E-14, 1.894999999999988693, 10.00000000000000000 ) ) ;
#50 = CARTESIAN_POINT ( 'NONE',  ( 0.0000000000000000000, 0.0000000000000000000, 0.0000000000000000000 ) ) ;
#51 = EDGE_CURVE ( 'NONE', #9, #9, #266, .T. ) ;
#52 = APPROVAL_PERSON_ORGANIZATION ( #245, #107, #121 ) ;
#53 =( NAMED_UNIT ( * ) SI_UNIT ( $, .STERADIAN. ) SOLID_ANGLE_UNIT ( ) );
#54 = EDGE_LOOP ( 'NONE', ( #96 ) ) ;
#55 = FACE_BOUND ( 'NONE', #44, .T. ) ;
#56 = PERSON_AND_ORGANIZATION_ROLE ( 'design_owner' ) ;
#57 = ADVANCED_FACE ( 'NONE', ( #35 ), #136, .F. ) ;
#58 = EDGE_LOOP ( 'NONE', ( #23 ) ) ;
#59 = CARTESIAN_POINT ( 'NONE',  ( 3.491481338843133355E-14, 1.894999999999988693, 10.00000000000000000 ) ) ;
#60 = DIRECTION ( 'NONE',  ( -3.491481338843133355E-15, 1.224646799147353207E-16, -1.000000000000000000 ) ) ;
#61 = AXIS2_PLACEMENT_3D ( 'NONE', #106, #84, #247 ) ;
#62 = DIRECTION ( 'NONE',  ( 4.275831445896958607E-31, 1.000000000000000000, 1.224646799147353207E-16 ) ) ;
#63 = DIRECTION ( 'NONE',  ( 4.275831445896957731E-31, 1.000000000000000000, 1.224646799147352961E-16 ) ) ;
#64 = CARTESIAN_POINT ( 'NONE',  ( -7.033742728500450831E-31, 2.467104842478739836E-32, -2.014543984597382814E-16 ) ) ;
#65 = CIRCLE ( 'NONE', #42, 1.499999999999992895 ) ;
#66 = MANIFOLD_SOLID_BREP ( 'Corps-Déplacer/Copier1[1]', #5 ) ;
#67 = APPLICATION_CONTEXT ( 'configuration controlled 3d designs of mechanical parts and assemblies' ) ;
#68 = ORIENTED_EDGE ( 'NONE', *, *, #249, .T. ) ;
#69 = APPROVAL_ROLE ( '' ) ;
#70 = CYLINDRICAL_SURFACE ( 'NONE', #27, 1.499999999999996891 ) ;
#71 = DIRECTION ( 'NONE',  ( 4.275831445896958607E-31, 1.000000000000000000, 1.224646799147353454E-16 ) ) ;
#72 = ADVANCED_FACE ( 'NONE', ( #185, #55 ), #195, .T. ) ;
#73 = AXIS2_PLACEMENT_3D ( 'NONE', #132, #8, #117 ) ;
#74 = ORIENTED_EDGE ( 'NONE', *, *, #51, .F. ) ;
#75 = CALENDAR_DATE ( 2021, 2, 12 ) ;
#76 = VERTEX_POINT ( 'NONE', #262 ) ;
#77 = AXIS2_PLACEMENT_3D ( 'NONE', #158, #14, #125 ) ;
#78 = CC_DESIGN_PERSON_AND_ORGANIZATION_ASSIGNMENT ( #26, #288, ( #269 ) ) ;
#79 = DIRECTION ( 'NONE',  ( -3.491481338843133355E-15, 1.224646799147353207E-16, -1.000000000000000000 ) ) ;
#80 = PERSON_AND_ORGANIZATION ( #190, #147 ) ;
#81 = CIRCLE ( 'NONE', #126, 1.500000000000001110 ) ;
#82 = DIRECTION ( 'NONE',  ( -4.275831445896958607E-31, -1.000000000000000000, -1.224646799147353207E-16 ) ) ;
#83 = CARTESIAN_POINT ( 'NONE',  ( 2.433562493173664138E-13, -8.535788190057053710E-15, 69.70000000000001705 ) ) ;
#84 = DIRECTION ( 'NONE',  ( 3.491481338843133355E-15, -1.224646799147353207E-16, 1.000000000000000000 ) ) ;
#85 = FACE_OUTER_BOUND ( 'NONE', #256, .T. ) ;
#86 = CARTESIAN_POINT ( 'NONE',  ( 3.491481338843133355E-14, -1.224646799147353256E-15, 10.00000000000000000 ) ) ;
#87 = AXIS2_PLACEMENT_3D ( 'NONE', #177, #60, #151 ) ;
#88 = ORIENTED_EDGE ( 'NONE', *, *, #294, .T. ) ;
#89 = PERSON_AND_ORGANIZATION ( #190, #147 ) ;
#90 = CARTESIAN_POINT ( 'NONE',  ( 0.0000000000000000000, 0.0000000000000000000, 0.0000000000000000000 ) ) ;
#91 = EDGE_CURVE ( 'NONE', #239, #239, #252, .T. ) ;
#92 = DIRECTION ( 'NONE',  ( 4.275831445896958607E-31, 1.000000000000000000, 1.224646799147353207E-16 ) ) ;
#93 = CALENDAR_DATE ( 2021, 2, 12 ) ;
#94 = CIRCLE ( 'NONE', #160, 1.500000000000001110 ) ;
#95 = CC_DESIGN_APPROVAL ( #277, ( #213 ) ) ;
#96 = ORIENTED_EDGE ( 'NONE', *, *, #118, .T. ) ;
#97 = VERTEX_POINT ( 'NONE', #152 ) ;
#98 = ADVANCED_FACE ( 'NONE', ( #215 ), #150, .F. ) ;
#99 = APPROVAL_STATUS ( 'not_yet_approved' ) ;
#100 = CIRCLE ( 'NONE', #87, 1.894999999999990026 ) ;
#101 = APPROVAL_PERSON_ORGANIZATION ( #191, #166, #69 ) ;
#102 = DATE_AND_TIME ( #2, #124 ) ;
#103 = LOCAL_TIME ( 10, 36, 3.000000000000000000, #162 ) ;
#104 = UNCERTAINTY_MEASURE_WITH_UNIT (LENGTH_MEASURE( 1.000000000000000082E-05 ), #156, 'distance_accuracy_value', 'NONE');
#105 = PRODUCT_RELATED_PRODUCT_CATEGORY ( 'detail', '', ( #219 ) ) ;
#106 = CARTESIAN_POINT ( 'NONE',  ( -7.033742728500450831E-31, 2.467104842478739836E-32, -2.014543984597382814E-16 ) ) ;
#107 = APPROVAL ( #194, 'UNSPECIFIED' ) ;
#108 = SHAPE_DEFINITION_REPRESENTATION ( #4, #16 ) ;
#109 = DIRECTION ( 'NONE',  ( 3.491481338843133355E-15, -1.224646799147353207E-16, 1.000000000000000000 ) ) ;
#110 = DIRECTION ( 'NONE',  ( 0.0000000000000000000, 1.000000000000000000, 0.0000000000000000000 ) ) ;
#111 = APPLICATION_PROTOCOL_DEFINITION ( 'international standard', 'config_control_design', 1994, #45 ) ;
#112 = DIRECTION ( 'NONE',  ( -3.491481338843133355E-15, 1.224646799147353207E-16, -1.000000000000000000 ) ) ;
#113 = APPROVAL_STATUS ( 'not_yet_approved' ) ;
#114 = ORIENTED_EDGE ( 'NONE', *, *, #31, .F. ) ;
#115 = DIRECTION ( 'NONE',  ( 0.0000000000000000000, 1.000000000000000000, 0.0000000000000000000 ) ) ;
#116 = EDGE_LOOP ( 'NONE', ( #141 ) ) ;
#117 = DIRECTION ( 'NONE',  ( 0.0000000000000000000, 1.000000000000000000, 0.0000000000000000000 ) ) ;
#118 = EDGE_CURVE ( 'NONE', #196, #196, #1, .T. ) ;
#119 = EDGE_LOOP ( 'NONE', ( #114 ) ) ;
#120 = FACE_BOUND ( 'NONE', #19, .T. ) ;
#121 = APPROVAL_ROLE ( '' ) ;
#122 = EDGE_LOOP ( 'NONE', ( #37 ) ) ;
#123 = APPROVAL_ROLE ( '' ) ;
#124 = LOCAL_TIME ( 10, 36, 3.000000000000000000, #280 ) ;
#125 = DIRECTION ( 'NONE',  ( 4.275831445896958607E-31, 1.000000000000000000, 1.224646799147353207E-16 ) ) ;
#126 = AXIS2_PLACEMENT_3D ( 'NONE', #250, #270, #214 ) ;
#127 = CARTESIAN_POINT ( 'NONE',  ( 3.730354550209049886E-14, 1.499999999999991562, 10.68416006898969961 ) ) ;
#128 = EDGE_CURVE ( 'NONE', #76, #76, #94, .T. ) ;
#129 = AXIS2_PLACEMENT_3D ( 'NONE', #34, #135, #276 ) ;
#130 = CC_DESIGN_DATE_AND_TIME_ASSIGNMENT ( #212, #302, ( #187 ) ) ;
#131 = CONICAL_SURFACE ( 'NONE', #197, 1.894999999999990026, 0.5235987755983005920 ) ;
#132 = CARTESIAN_POINT ( 'NONE',  ( 3.491481338843133355E-14, -1.224646799147353256E-15, 10.00000000000000000 ) ) ;
#133 = ORIENTED_EDGE ( 'NONE', *, *, #249, .F. ) ;
#134 = ADVANCED_FACE ( 'NONE', ( #200, #170 ), #285, .T. ) ;
#135 = DIRECTION ( 'NONE',  ( -3.491481338843133355E-15, 1.224646799147353207E-16, -1.000000000000000000 ) ) ;
#136 = PLANE ( 'NONE',  #260 ) ;
#137 = CYLINDRICAL_SURFACE ( 'NONE', #230, 1.499999999999996891 ) ;
#138 = EDGE_LOOP ( 'NONE', ( #142 ) ) ;
#139 = FACE_OUTER_BOUND ( 'NONE', #303, .T. ) ;
#140 = EDGE_LOOP ( 'NONE', ( #207 ) ) ;
#141 = ORIENTED_EDGE ( 'NONE', *, *, #278, .F. ) ;
#142 = ORIENTED_EDGE ( 'NONE', *, *, #91, .F. ) ;
#143 = AXIS2_PLACEMENT_3D ( 'NONE', #175, #180, #39 ) ;
#144 = COORDINATED_UNIVERSAL_TIME_OFFSET ( 1, 0, .AHEAD. ) ;
#145 = CARTESIAN_POINT ( 'NONE',  ( 0.0000000000000000000, 0.0000000000000000000, 0.0000000000000000000 ) ) ;
#146 = VERTEX_POINT ( 'NONE', #264 ) ;
#147 = ORGANIZATION ( 'UNSPECIFIED', 'UNSPECIFIED', '' ) ;
#148 = DIRECTION ( 'NONE',  ( -3.491481338843133355E-15, 1.224646799147353207E-16, -1.000000000000000000 ) ) ;
#149 = CC_DESIGN_APPROVAL ( #166, ( #269 ) ) ;
#150 = PLANE ( 'NONE',  #216 ) ;
#151 = DIRECTION ( 'NONE',  ( 0.0000000000000000000, 1.000000000000000000, 0.0000000000000000000 ) ) ;
#152 = CARTESIAN_POINT ( 'NONE',  ( 2.433562493173664138E-13, 1.499999999999992673, 69.70000000000001705 ) ) ;
#153 = DIRECTION ( 'NONE',  ( 0.0000000000000000000, 1.000000000000000000, 0.0000000000000000000 ) ) ;
#154 = PERSON_AND_ORGANIZATION ( #190, #147 ) ;
#155 = ORIENTED_EDGE ( 'NONE', *, *, #118, .F. ) ;
#156 =( LENGTH_UNIT ( ) NAMED_UNIT ( * ) SI_UNIT ( .MILLI., .METRE. ) );
#157 = FACE_OUTER_BOUND ( 'NONE', #169, .T. ) ;
#158 = CARTESIAN_POINT ( 'NONE',  ( -3.516871364250225416E-31, 1.233552421239369918E-32, -1.007271992298691407E-16 ) ) ;
#159 = DIRECTION ( 'NONE',  ( -3.491481338843133355E-15, 1.224646799147353207E-16, -1.000000000000000000 ) ) ;
#160 = AXIS2_PLACEMENT_3D ( 'NONE', #83, #148, #244 ) ;
#161 = EDGE_LOOP ( 'NONE', ( #32 ) ) ;
#162 = COORDINATED_UNIVERSAL_TIME_OFFSET ( 1, 0, .AHEAD. ) ;
#163 = DATE_TIME_ROLE ( 'classification_date' ) ;
#164 = EDGE_LOOP ( 'NONE', ( #74 ) ) ;
#165 = DIRECTION ( 'NONE',  ( 4.275831445896958607E-31, 1.000000000000000000, 1.224646799147353454E-16 ) ) ;
#166 = APPROVAL ( #99, 'UNSPECIFIED' ) ;
#167 = CIRCLE ( 'NONE', #221, 1.200000000000001510 ) ;
#168 = APPROVAL_PERSON_ORGANIZATION ( #255, #277, #123 ) ;
#169 = EDGE_LOOP ( 'NONE', ( #300 ) ) ;
#170 = FACE_BOUND ( 'NONE', #116, .T. ) ;
#171 = APPROVAL_DATE_TIME ( #263, #277 ) ;
#172 = DIRECTION ( 'NONE',  ( -3.491481338843133355E-15, 1.224646799147353207E-16, -1.000000000000000000 ) ) ;
#173 = AXIS2_PLACEMENT_3D ( 'NONE', #246, #228, #181 ) ;
#174 = CC_DESIGN_PERSON_AND_ORGANIZATION_ASSIGNMENT ( #80, #284, ( #269 ) ) ;
#175 = CARTESIAN_POINT ( 'NONE',  ( 8.728703347107825500E-16, -3.061616997868380553E-17, 0.2499999999999997780 ) ) ;
#176 = FACE_BOUND ( 'NONE', #54, .T. ) ;
#177 = CARTESIAN_POINT ( 'NONE',  ( 3.491481338843133355E-14, -1.224646799147353256E-15, 10.00000000000000000 ) ) ;
#178 = CIRCLE ( 'NONE', #73, 1.894999999999990026 ) ;
#179 = AXIS2_PLACEMENT_3D ( 'NONE', #201, #112, #115 ) ;
#180 = DIRECTION ( 'NONE',  ( -3.491481338843133355E-15, 1.224646799147353207E-16, -1.000000000000000000 ) ) ;
#181 = DIRECTION ( 'NONE',  ( 0.0000000000000000000, 1.000000000000000000, 0.0000000000000000000 ) ) ;
#182 = FACE_BOUND ( 'NONE', #248, .T. ) ;
#183 = DIRECTION ( 'NONE',  ( -3.491481338843133355E-15, 1.224646799147353207E-16, -1.000000000000000000 ) ) ;
#184 = FACE_OUTER_BOUND ( 'NONE', #210, .T. ) ;
#185 = FACE_OUTER_BOUND ( 'NONE', #119, .T. ) ;
#186 = PERSON_AND_ORGANIZATION_ROLE ( 'creator' ) ;
#187 = PRODUCT_DEFINITION ( 'UNKNOWN', '', #269, #265 ) ;
#188 = DATE_AND_TIME ( #93, #15 ) ;
#189 = ORIENTED_EDGE ( 'NONE', *, *, #128, .T. ) ;
#190 = PERSON ( 'UNSPECIFIED', 'UNSPECIFIED', 'UNSPECIFIED', ('UNSPECIFIED'), ('UNSPECIFIED'), ('UNSPECIFIED') ) ;
#191 = PERSON_AND_ORGANIZATION ( #190, #147 ) ;
#192 = COORDINATED_UNIVERSAL_TIME_OFFSET ( 1, 0, .AHEAD. ) ;
#193 = VERTEX_POINT ( 'NONE', #127 ) ;
#194 = APPROVAL_STATUS ( 'not_yet_approved' ) ;
#195 = CONICAL_SURFACE ( 'NONE', #179, 1.200000000000001510, 0.7853981633974566057 ) ;
#196 = VERTEX_POINT ( 'NONE', #25 ) ;
#197 = AXIS2_PLACEMENT_3D ( 'NONE', #86, #29, #153 ) ;
#198 = AXIS2_PLACEMENT_3D ( 'NONE', #24, #79, #259 ) ;
#199 = VERTEX_POINT ( 'NONE', #49 ) ;
#200 = FACE_OUTER_BOUND ( 'NONE', #122, .T. ) ;
#201 = CARTESIAN_POINT ( 'NONE',  ( 2.444036937190193601E-13, -8.572527594031472993E-15, 70.00000000000000000 ) ) ;
#202 = ORIENTED_EDGE ( 'NONE', *, *, #51, .T. ) ;
#203 = CLOSED_SHELL ( 'NONE', ( #243, #12, #134, #22, #237, #72, #287 ) ) ;
#204 = FACE_OUTER_BOUND ( 'NONE', #138, .T. ) ;
#205 = ADVANCED_FACE ( 'NONE', ( #184, #275 ), #137, .T. ) ;
#206 = PERSON_AND_ORGANIZATION ( #190, #147 ) ;
#207 = ORIENTED_EDGE ( 'NONE', *, *, #294, .F. ) ;
#208 = CC_DESIGN_PERSON_AND_ORGANIZATION_ASSIGNMENT ( #206, #186, ( #187 ) ) ;
#209 = PERSON_AND_ORGANIZATION_ROLE ( 'classification_officer' ) ;
#210 = EDGE_LOOP ( 'NONE', ( #296 ) ) ;
#211 =( GEOMETRIC_REPRESENTATION_CONTEXT ( 3 ) GLOBAL_UNCERTAINTY_ASSIGNED_CONTEXT ( ( #104 ) ) GLOBAL_UNIT_ASSIGNED_CONTEXT ( ( #156, #301, #53 ) ) REPRESENTATION_CONTEXT ( 'NONE', 'WORKASPACE' ) );
#212 = DATE_AND_TIME ( #254, #103 ) ;
#213 = SECURITY_CLASSIFICATION ( '', '', #273 ) ;
#214 = DIRECTION ( 'NONE',  ( 0.0000000000000000000, 1.000000000000000000, 0.0000000000000000000 ) ) ;
#215 = FACE_OUTER_BOUND ( 'NONE', #58, .T. ) ;
#216 = AXIS2_PLACEMENT_3D ( 'NONE', #289, #109, #82 ) ;
#217 = FACE_OUTER_BOUND ( 'NONE', #161, .T. ) ;
#218 = DIRECTION ( 'NONE',  ( -3.491481338843133355E-15, 1.224646799147353207E-16, -1.000000000000000000 ) ) ;
#219 = PRODUCT ( '321605', '321605', '', ( #293 ) ) ;
#220 = FACE_OUTER_BOUND ( 'NONE', #140, .T. ) ;
#221 = AXIS2_PLACEMENT_3D ( 'NONE', #238, #20, #38 ) ;
#222 = CARTESIAN_POINT ( 'NONE',  ( 0.0000000000000000000, 1.644999999999989138, 0.0000000000000000000 ) ) ;
#223 = ORIENTED_EDGE ( 'NONE', *, *, #278, .T. ) ;
#224 = APPLICATION_PROTOCOL_DEFINITION ( 'international standard', 'config_control_design', 1994, #67 ) ;
#225 = CARTESIAN_POINT ( 'NONE',  ( 3.730354550209049886E-14, -1.308432243006619917E-15, 10.68416006898969961 ) ) ;
#226 = CONICAL_SURFACE ( 'NONE', #198, 1.200000000000001510, 0.7853981633974566057 ) ;
#227 = ADVANCED_FACE ( 'NONE', ( #217, #120 ), #226, .T. ) ;
#228 = DIRECTION ( 'NONE',  ( -3.491481338843133355E-15, 1.224646799147353207E-16, -1.000000000000000000 ) ) ;
#229 = EDGE_LOOP ( 'NONE', ( #155 ) ) ;
#230 = AXIS2_PLACEMENT_3D ( 'NONE', #145, #261, #71 ) ;
#231 = APPROVAL_DATE_TIME ( #102, #107 ) ;
#232 = CARTESIAN_POINT ( 'NONE',  ( 2.444036937190193601E-13, 8.998558695971026591E-33, 70.00000000000000000 ) ) ;
#233 = FACE_OUTER_BOUND ( 'NONE', #13, .T. ) ;
#234 = FACE_OUTER_BOUND ( 'NONE', #17, .T. ) ;
#235 = CC_DESIGN_APPROVAL ( #107, ( #187 ) ) ;
#236 = AXIS2_PLACEMENT_3D ( 'NONE', #286, #172, #62 ) ;
#237 = ADVANCED_FACE ( 'NONE', ( #220 ), #290, .F. ) ;
#238 = CARTESIAN_POINT ( 'NONE',  ( 2.444036937190193601E-13, -8.572527594031472993E-15, 70.00000000000000000 ) ) ;
#239 = VERTEX_POINT ( 'NONE', #292 ) ;
#240 = AXIS2_PLACEMENT_3D ( 'NONE', #50, #241, #28 ) ;
#241 = DIRECTION ( 'NONE',  ( 0.0000000000000000000, 0.0000000000000000000, 1.000000000000000000 ) ) ;
#242 = CC_DESIGN_PERSON_AND_ORGANIZATION_ASSIGNMENT ( #154, #209, ( #213 ) ) ;
#243 = ADVANCED_FACE ( 'NONE', ( #176, #85 ), #131, .T. ) ;
#244 = DIRECTION ( 'NONE',  ( 0.0000000000000000000, 1.000000000000000000, 0.0000000000000000000 ) ) ;
#245 = PERSON_AND_ORGANIZATION ( #190, #147 ) ;
#246 = CARTESIAN_POINT ( 'NONE',  ( 2.444036937190193601E-13, -8.572527594031472993E-15, 70.00000000000000000 ) ) ;
#247 = DIRECTION ( 'NONE',  ( -4.275831445896958607E-31, -1.000000000000000000, -1.224646799147353207E-16 ) ) ;
#248 = EDGE_LOOP ( 'NONE', ( #279 ) ) ;
#249 = EDGE_CURVE ( 'NONE', #199, #199, #178, .T. ) ;
#250 = CARTESIAN_POINT ( 'NONE',  ( 2.433562493173664138E-13, -8.535788190057053710E-15, 69.70000000000001705 ) ) ;
#251 = CARTESIAN_POINT ( 'NONE',  ( 2.444036937190193601E-13, 1.199999999999992628, 70.00000000000000000 ) ) ;
#252 = CIRCLE ( 'NONE', #143, 1.894999999999990026 ) ;
#253 = DIRECTION ( 'NONE',  ( 4.275831445896958607E-31, 1.000000000000000000, 1.224646799147353207E-16 ) ) ;
#254 = CALENDAR_DATE ( 2021, 2, 12 ) ;
#255 = PERSON_AND_ORGANIZATION ( #190, #147 ) ;
#256 = EDGE_LOOP ( 'NONE', ( #133 ) ) ;
#257 = CONICAL_SURFACE ( 'NONE', #129, 1.894999999999990026, 0.5235987755983005920 ) ;
#258 = DATE_AND_TIME ( #41, #6 ) ;
#259 = DIRECTION ( 'NONE',  ( 0.0000000000000000000, 1.000000000000000000, 0.0000000000000000000 ) ) ;
#260 = AXIS2_PLACEMENT_3D ( 'NONE', #232, #11, #92 ) ;
#261 = DIRECTION ( 'NONE',  ( -3.491481338843133355E-15, 1.224646799147353207E-16, -1.000000000000000000 ) ) ;
#262 = CARTESIAN_POINT ( 'NONE',  ( 2.433562493173664138E-13, 1.499999999999992673, 69.70000000000001705 ) ) ;
#263 = DATE_AND_TIME ( #75, #30 ) ;
#264 = CARTESIAN_POINT ( 'NONE',  ( 2.444036937190193601E-13, 1.199999999999992628, 70.00000000000000000 ) ) ;
#265 = DESIGN_CONTEXT ( 'detailed design', #45, 'design' ) ;
#266 = CIRCLE ( 'NONE', #173, 1.200000000000001510 ) ;
#267 = MANIFOLD_SOLID_BREP ( 'Corps-Déplacer/Copier1[2]', #203 ) ;
#268 = VERTEX_POINT ( 'NONE', #59 ) ;
#269 = PRODUCT_DEFINITION_FORMATION_WITH_SPECIFIED_SOURCE ( 'ANY', '', #219, .NOT_KNOWN. ) ;
#270 = DIRECTION ( 'NONE',  ( -3.491481338843133355E-15, 1.224646799147353207E-16, -1.000000000000000000 ) ) ;
#271 = PLANE ( 'NONE',  #77 ) ;
#272 = ADVANCED_FACE ( 'NONE', ( #182, #157 ), #257, .T. ) ;
#273 = SECURITY_CLASSIFICATION_LEVEL ( 'unclassified' ) ;
#274 = DIRECTION ( 'NONE',  ( -3.491481338843133355E-15, 1.224646799147353207E-16, -1.000000000000000000 ) ) ;
#275 = FACE_OUTER_BOUND ( 'NONE', #48, .T. ) ;
#276 = DIRECTION ( 'NONE',  ( 0.0000000000000000000, 1.000000000000000000, 0.0000000000000000000 ) ) ;
#277 = APPROVAL ( #113, 'UNSPECIFIED' ) ;
#278 = EDGE_CURVE ( 'NONE', #47, #47, #295, .T. ) ;
#279 = ORIENTED_EDGE ( 'NONE', *, *, #3, .T. ) ;
#280 = COORDINATED_UNIVERSAL_TIME_OFFSET ( 1, 0, .AHEAD. ) ;
#281 = AXIS2_PLACEMENT_3D ( 'NONE', #90, #274, #63 ) ;
#282 = CC_DESIGN_PERSON_AND_ORGANIZATION_ASSIGNMENT ( #89, #56, ( #219 ) ) ;
#283 = CARTESIAN_POINT ( 'NONE',  ( 0.0000000000000000000, 0.0000000000000000000, 0.0000000000000000000 ) ) ;
#284 = PERSON_AND_ORGANIZATION_ROLE ( 'creator' ) ;
#285 = CONICAL_SURFACE ( 'NONE', #61, 1.644999999999989138, 0.7853981633974500554 ) ;
#286 = CARTESIAN_POINT ( 'NONE',  ( 2.444036937190193601E-13, -8.572527594031472993E-15, 70.00000000000000000 ) ) ;
#287 = ADVANCED_FACE ( 'NONE', ( #36, #139 ), #70, .T. ) ;
#288 = PERSON_AND_ORGANIZATION_ROLE ( 'design_supplier' ) ;
#289 = CARTESIAN_POINT ( 'NONE',  ( 3.491481338843133355E-14, 1.421022394072100751E-32, 10.00000000000000000 ) ) ;
#290 = PLANE ( 'NONE',  #236 ) ;
#291 = AXIS2_PLACEMENT_3D ( 'NONE', #225, #7, #110 ) ;
#292 = CARTESIAN_POINT ( 'NONE',  ( 8.728703347107833388E-16, 1.894999999999990026, 0.2500000000000000000 ) ) ;
#293 = MECHANICAL_CONTEXT ( 'NONE', #67, 'mechanical' ) ;
#294 = EDGE_CURVE ( 'NONE', #146, #146, #167, .T. ) ;
#295 = CIRCLE ( 'NONE', #10, 1.644999999999989138 ) ;
#296 = ORIENTED_EDGE ( 'NONE', *, *, #3, .F. ) ;
#297 = CYLINDRICAL_SURFACE ( 'NONE', #281, 1.894999999999990026 ) ;
#298 = CARTESIAN_POINT ( 'NONE',  ( 3.730354550209049886E-14, -1.308432243006619917E-15, 10.68416006898969961 ) ) ;
#299 = COORDINATED_UNIVERSAL_TIME_OFFSET ( 1, 0, .AHEAD. ) ;
#300 = ORIENTED_EDGE ( 'NONE', *, *, #40, .F. ) ;
#301 =( NAMED_UNIT ( * ) PLANE_ANGLE_UNIT ( ) SI_UNIT ( $, .RADIAN. ) );
#302 = DATE_TIME_ROLE ( 'creation_date' ) ;
#303 = EDGE_LOOP ( 'NONE', ( #18 ) ) ;
ENDSEC;
END-ISO-10303-21;
