ISO-10303-21;
HEADER;
FILE_DESCRIPTION (( 'STEP AP203' ),
    '1' );
FILE_NAME ('321604.step',
    '2021-12-02T09:36:02',
    ( '' ),
    ( '' ),
    'SwSTEP 2.0',
    'SolidWorks 2019',
    '' );
FILE_SCHEMA (( 'CONFIG_CONTROL_DESIGN' ));
ENDSEC;

DATA;
#1 = APPROVAL_ROLE ( '' ) ;
#2 = CALENDAR_DATE ( 2021, 2, 12 ) ;
#3 = ORIENTED_EDGE ( 'NONE', *, *, #295, .T. ) ;
#4 = CONICAL_SURFACE ( 'NONE', #283, 1.889999999999995017, 0.5235987755982999259 ) ;
#5 = CARTESIAN_POINT ( 'NONE',  ( 3.491481338843133355E-14, -1.224646799147353256E-15, 10.00000000000000000 ) ) ;
#6 = DIRECTION ( 'NONE',  ( -3.491481338843133355E-15, 1.224646799147353207E-16, -1.000000000000000000 ) ) ;
#7 = PERSON_AND_ORGANIZATION ( #243, #111 ) ;
#8 = DIRECTION ( 'NONE',  ( 0.0000000000000000000, 1.000000000000000000, 0.0000000000000000000 ) ) ;
#9 = ORIENTED_EDGE ( 'NONE', *, *, #123, .F. ) ;
#10 = DIRECTION ( 'NONE',  ( 0.0000000000000000000, 1.000000000000000000, 0.0000000000000000000 ) ) ;
#11 = EDGE_CURVE ( 'NONE', #93, #93, #66, .T. ) ;
#12 = AXIS2_PLACEMENT_3D ( 'NONE', #244, #64, #134 ) ;
#13 = SECURITY_CLASSIFICATION ( '', '', #279 ) ;
#14 = DIRECTION ( 'NONE',  ( -3.491481338843133355E-15, 1.224646799147353207E-16, -1.000000000000000000 ) ) ;
#15 = PRODUCT_DEFINITION ( 'UNKNOWN', '', #235, #214 ) ;
#16 = EDGE_LOOP ( 'NONE', ( #146 ) ) ;
#17 = APPLICATION_CONTEXT ( 'configuration controlled 3d designs of mechanical parts and assemblies' ) ;
#18 = FACE_BOUND ( 'NONE', #286, .T. ) ;
#19 = DIRECTION ( 'NONE',  ( 0.0000000000000000000, 1.000000000000000000, 0.0000000000000000000 ) ) ;
#20 = FACE_OUTER_BOUND ( 'NONE', #50, .T. ) ;
#21 = COORDINATED_UNIVERSAL_TIME_OFFSET ( 1, 0, .AHEAD. ) ;
#22 = FACE_OUTER_BOUND ( 'NONE', #222, .T. ) ;
#23 = CARTESIAN_POINT ( 'NONE',  ( 3.491481338843133355E-14, -1.224646799147353256E-15, 10.00000000000000000 ) ) ;
#24 = AXIS2_PLACEMENT_3D ( 'NONE', #35, #249, #136 ) ;
#25 = AXIS2_PLACEMENT_3D ( 'NONE', #92, #226, #154 ) ;
#26 = ADVANCED_FACE ( 'NONE', ( #112 ), #131, .F. ) ;
#27 = APPROVAL_DATE_TIME ( #173, #101 ) ;
#28 = CARTESIAN_POINT ( 'NONE',  ( 2.444036937190193601E-13, -8.572527594031472993E-15, 70.00000000000000000 ) ) ;
#29 = ORIENTED_EDGE ( 'NONE', *, *, #102, .T. ) ;
#30 = CIRCLE ( 'NONE', #218, 1.889999999999995017 ) ;
#31 = APPROVAL_PERSON_ORGANIZATION ( #219, #101, #1 ) ;
#32 = DIRECTION ( 'NONE',  ( -3.491481338843133355E-15, 1.224646799147353207E-16, -1.000000000000000000 ) ) ;
#33 = COORDINATED_UNIVERSAL_TIME_OFFSET ( 1, 0, .AHEAD. ) ;
#34 = EDGE_LOOP ( 'NONE', ( #54 ) ) ;
#35 = CARTESIAN_POINT ( 'NONE',  ( -7.012363571270987137E-31, 2.459606043565438157E-32, -2.008420750601652101E-16 ) ) ;
#36 = ORIENTED_EDGE ( 'NONE', *, *, #11, .F. ) ;
#37 =( LENGTH_UNIT ( ) NAMED_UNIT ( * ) SI_UNIT ( .MILLI., .METRE. ) );
#38 = DIRECTION ( 'NONE',  ( -3.491481338843133355E-15, 1.224646799147353207E-16, -1.000000000000000000 ) ) ;
#39 = DATE_AND_TIME ( #250, #277 ) ;
#40 = CARTESIAN_POINT ( 'NONE',  ( 3.727330838672775537E-14, -1.307371667767896254E-15, 10.67549981495186451 ) ) ;
#41 = CARTESIAN_POINT ( 'NONE',  ( 3.491481338843133355E-14, 1.889999999999993685, 10.00000000000000000 ) ) ;
#42 = DATE_AND_TIME ( #253, #76 ) ;
#43 = CC_DESIGN_APPROVAL ( #164, ( #15 ) ) ;
#44 = DATE_TIME_ROLE ( 'classification_date' ) ;
#45 = CC_DESIGN_PERSON_AND_ORGANIZATION_ASSIGNMENT ( #63, #157, ( #235 ) ) ;
#46 = ADVANCED_FACE ( 'NONE', ( #206, #290 ), #90, .T. ) ;
#47 = CARTESIAN_POINT ( 'NONE',  ( 0.0000000000000000000, 0.0000000000000000000, 0.0000000000000000000 ) ) ;
#48 = ORIENTED_EDGE ( 'NONE', *, *, #183, .F. ) ;
#49 = DIRECTION ( 'NONE',  ( -3.491481338843133355E-15, 1.224646799147353207E-16, -1.000000000000000000 ) ) ;
#50 = EDGE_LOOP ( 'NONE', ( #265 ) ) ;
#51 = LOCAL_TIME ( 10, 36, 2.000000000000000000, #125 ) ;
#52 = CC_DESIGN_DATE_AND_TIME_ASSIGNMENT ( #168, #44, ( #13 ) ) ;
#53 = DIRECTION ( 'NONE',  ( 0.0000000000000000000, 1.000000000000000000, 0.0000000000000000000 ) ) ;
#54 = ORIENTED_EDGE ( 'NONE', *, *, #71, .T. ) ;
#55 = CIRCLE ( 'NONE', #153, 1.889999999999995017 ) ;
#56 = AXIS2_PLACEMENT_3D ( 'NONE', #141, #14, #274 ) ;
#57 = MANIFOLD_SOLID_BREP ( 'Corps-Déplacer/Copier1[2]', #247 ) ;
#58 = CARTESIAN_POINT ( 'NONE',  ( 2.444036937190193601E-13, -8.572527594031472993E-15, 70.00000000000000000 ) ) ;
#59 = CARTESIAN_POINT ( 'NONE',  ( 8.728703347107825500E-16, -3.061616997868380553E-17, 0.2499999999999997780 ) ) ;
#60 = ORIENTED_EDGE ( 'NONE', *, *, #130, .T. ) ;
#61 = VERTEX_POINT ( 'NONE', #113 ) ;
#62 = DIRECTION ( 'NONE',  ( 0.0000000000000000000, 1.000000000000000000, 0.0000000000000000000 ) ) ;
#63 = PERSON_AND_ORGANIZATION ( #243, #111 ) ;
#64 = DIRECTION ( 'NONE',  ( -3.491481338843133355E-15, 1.224646799147353207E-16, -1.000000000000000000 ) ) ;
#65 = CIRCLE ( 'NONE', #237, 1.499999999999992895 ) ;
#66 = CIRCLE ( 'NONE', #67, 1.200000000000001510 ) ;
#67 = AXIS2_PLACEMENT_3D ( 'NONE', #58, #208, #288 ) ;
#68 = DIRECTION ( 'NONE',  ( 4.275831445896958607E-31, 1.000000000000000000, 1.224646799147353207E-16 ) ) ;
#69 = VERTEX_POINT ( 'NONE', #213 ) ;
#70 = PERSON_AND_ORGANIZATION_ROLE ( 'creator' ) ;
#71 = EDGE_CURVE ( 'NONE', #144, #144, #55, .T. ) ;
#72 = CIRCLE ( 'NONE', #103, 1.500000000000001110 ) ;
#73 = CALENDAR_DATE ( 2021, 2, 12 ) ;
#74 = DIRECTION ( 'NONE',  ( 0.0000000000000000000, 1.000000000000000000, 0.0000000000000000000 ) ) ;
#75 = APPROVAL_PERSON_ORGANIZATION ( #7, #169, #163 ) ;
#76 = LOCAL_TIME ( 10, 36, 2.000000000000000000, #180 ) ;
#77 = EDGE_LOOP ( 'NONE', ( #9 ) ) ;
#78 = ADVANCED_FACE ( 'NONE', ( #203 ), #85, .T. ) ;
#79 = CYLINDRICAL_SURFACE ( 'NONE', #303, 1.499999999999996891 ) ;
#80 = CONICAL_SURFACE ( 'NONE', #142, 1.889999999999995017, 0.5235987755982999259 ) ;
#81 = DIRECTION ( 'NONE',  ( -3.491481338843133355E-15, 1.224646799147353207E-16, -1.000000000000000000 ) ) ;
#82 = FACE_OUTER_BOUND ( 'NONE', #34, .T. ) ;
#83 = CLOSED_SHELL ( 'NONE', ( #199, #99, #234, #150, #190 ) ) ;
#84 = CARTESIAN_POINT ( 'NONE',  ( 2.444036937190193601E-13, -8.572527594031472993E-15, 70.00000000000000000 ) ) ;
#85 = PLANE ( 'NONE',  #12 ) ;
#86 = AXIS2_PLACEMENT_3D ( 'NONE', #116, #210, #296 ) ;
#87 = APPROVAL_STATUS ( 'not_yet_approved' ) ;
#88 = DIRECTION ( 'NONE',  ( -3.491481338843133355E-15, 1.224646799147353207E-16, -1.000000000000000000 ) ) ;
#89 = CALENDAR_DATE ( 2021, 2, 12 ) ;
#90 = CYLINDRICAL_SURFACE ( 'NONE', #25, 1.889999999999995017 ) ;
#91 = DIRECTION ( 'NONE',  ( 1.000000000000000000, 0.0000000000000000000, 0.0000000000000000000 ) ) ;
#92 = CARTESIAN_POINT ( 'NONE',  ( 0.0000000000000000000, 0.0000000000000000000, 0.0000000000000000000 ) ) ;
#93 = VERTEX_POINT ( 'NONE', #248 ) ;
#94 = CC_DESIGN_SECURITY_CLASSIFICATION ( #13, ( #235 ) ) ;
#95 = DIRECTION ( 'NONE',  ( 4.076042210343366928E-31, 1.000000000000000000, 1.147303886228050011E-16 ) ) ;
#96 = EDGE_CURVE ( 'NONE', #165, #165, #72, .T. ) ;
#97 = VERTEX_POINT ( 'NONE', #252 ) ;
#98 = AXIS2_PLACEMENT_3D ( 'NONE', #40, #128, #242 ) ;
#99 = ADVANCED_FACE ( 'NONE', ( #270, #230 ), #80, .T. ) ;
#100 = PLANE ( 'NONE',  #297 ) ;
#101 = APPROVAL ( #107, 'UNSPECIFIED' ) ;
#102 = EDGE_CURVE ( 'NONE', #69, #69, #65, .T. ) ;
#103 = AXIS2_PLACEMENT_3D ( 'NONE', #108, #272, #156 ) ;
#104 =( GEOMETRIC_REPRESENTATION_CONTEXT ( 3 ) GLOBAL_UNCERTAINTY_ASSIGNED_CONTEXT ( ( #196 ) ) GLOBAL_UNIT_ASSIGNED_CONTEXT ( ( #37, #162, #254 ) ) REPRESENTATION_CONTEXT ( 'NONE', 'WORKASPACE' ) );
#105 = CIRCLE ( 'NONE', #204, 1.500000000000001110 ) ;
#106 = DIRECTION ( 'NONE',  ( 0.0000000000000000000, 1.000000000000000000, 0.0000000000000000000 ) ) ;
#107 = APPROVAL_STATUS ( 'not_yet_approved' ) ;
#108 = CARTESIAN_POINT ( 'NONE',  ( 2.433562493173664138E-13, -8.535788190057053710E-15, 69.70000000000001705 ) ) ;
#109 = EDGE_LOOP ( 'NONE', ( #263 ) ) ;
#110 = DIRECTION ( 'NONE',  ( -3.491481338843133355E-15, 1.224646799147353207E-16, -1.000000000000000000 ) ) ;
#111 = ORGANIZATION ( 'UNSPECIFIED', 'UNSPECIFIED', '' ) ;
#112 = FACE_OUTER_BOUND ( 'NONE', #258, .T. ) ;
#113 = CARTESIAN_POINT ( 'NONE',  ( 3.727330838672775537E-14, 1.499999999999991562, 10.67549981495186451 ) ) ;
#114 = DATE_AND_TIME ( #89, #122 ) ;
#115 = CARTESIAN_POINT ( 'NONE',  ( 3.727330838672775537E-14, -1.307371667767896254E-15, 10.67549981495186451 ) ) ;
#116 = CARTESIAN_POINT ( 'NONE',  ( 2.444036937190193601E-13, 8.998558695971026591E-33, 70.00000000000000000 ) ) ;
#117 = DIRECTION ( 'NONE',  ( -4.275831445896958607E-31, -1.000000000000000000, -1.224646799147353207E-16 ) ) ;
#118 = DIRECTION ( 'NONE',  ( -3.491481338843133355E-15, 1.224646799147353207E-16, -1.000000000000000000 ) ) ;
#119 = PRODUCT_RELATED_PRODUCT_CATEGORY ( 'detail', '', ( #298 ) ) ;
#120 = EDGE_LOOP ( 'NONE', ( #29 ) ) ;
#121 = CIRCLE ( 'NONE', #273, 1.889999999999995017 ) ;
#122 = LOCAL_TIME ( 10, 36, 2.000000000000000000, #160 ) ;
#123 = EDGE_CURVE ( 'NONE', #61, #61, #179, .T. ) ;
#124 = DIRECTION ( 'NONE',  ( -4.275831445896958607E-31, -1.000000000000000000, -1.224646799147353207E-16 ) ) ;
#125 = COORDINATED_UNIVERSAL_TIME_OFFSET ( 1, 0, .AHEAD. ) ;
#126 = ORIENTED_EDGE ( 'NONE', *, *, #262, .T. ) ;
#127 = AXIS2_PLACEMENT_3D ( 'NONE', #246, #38, #68 ) ;
#128 = DIRECTION ( 'NONE',  ( -3.491481338843133355E-15, 1.224646799147353207E-16, -1.000000000000000000 ) ) ;
#129 = DATE_TIME_ROLE ( 'creation_date' ) ;
#130 = EDGE_CURVE ( 'NONE', #245, #245, #30, .T. ) ;
#131 = PLANE ( 'NONE',  #127 ) ;
#132 = CIRCLE ( 'NONE', #174, 1.200000000000001510 ) ;
#133 = CARTESIAN_POINT ( 'NONE',  ( 3.491481338843133355E-14, 1.889999999999993685, 10.00000000000000000 ) ) ;
#134 = DIRECTION ( 'NONE',  ( 4.275831445896958607E-31, 1.000000000000000000, 1.224646799147353207E-16 ) ) ;
#135 = CARTESIAN_POINT ( 'NONE',  ( 0.0000000000000000000, 0.0000000000000000000, 0.0000000000000000000 ) ) ;
#136 = DIRECTION ( 'NONE',  ( 4.275831445896958607E-31, 1.000000000000000000, 1.224646799147353207E-16 ) ) ;
#137 = PERSON_AND_ORGANIZATION ( #243, #111 ) ;
#138 = ORIENTED_EDGE ( 'NONE', *, *, #71, .F. ) ;
#139 = CARTESIAN_POINT ( 'NONE',  ( 2.444036937190193601E-13, -8.572527594031472993E-15, 70.00000000000000000 ) ) ;
#140 = APPROVAL_DATE_TIME ( #42, #169 ) ;
#141 = CARTESIAN_POINT ( 'NONE',  ( 0.0000000000000000000, 0.0000000000000000000, 0.0000000000000000000 ) ) ;
#142 = AXIS2_PLACEMENT_3D ( 'NONE', #185, #88, #10 ) ;
#143 = AXIS2_PLACEMENT_3D ( 'NONE', #135, #292, #91 ) ;
#144 = VERTEX_POINT ( 'NONE', #133 ) ;
#145 = DIRECTION ( 'NONE',  ( -3.491481338843133355E-15, 1.224646799147353207E-16, -1.000000000000000000 ) ) ;
#146 = ORIENTED_EDGE ( 'NONE', *, *, #11, .T. ) ;
#147 = CONICAL_SURFACE ( 'NONE', #260, 1.200000000000001510, 0.7853981633974566057 ) ;
#148 = CC_DESIGN_APPROVAL ( #169, ( #235 ) ) ;
#149 = ORIENTED_EDGE ( 'NONE', *, *, #295, .F. ) ;
#150 = ADVANCED_FACE ( 'NONE', ( #198, #285 ), #287, .T. ) ;
#151 = APPLICATION_CONTEXT ( 'configuration controlled 3d designs of mechanical parts and assemblies' ) ;
#152 = EDGE_LOOP ( 'NONE', ( #239 ) ) ;
#153 = AXIS2_PLACEMENT_3D ( 'NONE', #5, #161, #8 ) ;
#154 = DIRECTION ( 'NONE',  ( 4.275831445896958607E-31, 1.000000000000000000, 1.224646799147352961E-16 ) ) ;
#155 = APPROVAL_ROLE ( '' ) ;
#156 = DIRECTION ( 'NONE',  ( 0.0000000000000000000, 1.000000000000000000, 0.0000000000000000000 ) ) ;
#157 = PERSON_AND_ORGANIZATION_ROLE ( 'creator' ) ;
#158 = EDGE_LOOP ( 'NONE', ( #3 ) ) ;
#159 = FACE_BOUND ( 'NONE', #194, .T. ) ;
#160 = COORDINATED_UNIVERSAL_TIME_OFFSET ( 1, 0, .AHEAD. ) ;
#161 = DIRECTION ( 'NONE',  ( -3.491481338843133355E-15, 1.224646799147353207E-16, -1.000000000000000000 ) ) ;
#162 =( NAMED_UNIT ( * ) PLANE_ANGLE_UNIT ( ) SI_UNIT ( $, .RADIAN. ) );
#163 = APPROVAL_ROLE ( '' ) ;
#164 = APPROVAL ( #220, 'UNSPECIFIED' ) ;
#165 = VERTEX_POINT ( 'NONE', #188 ) ;
#166 = CARTESIAN_POINT ( 'NONE',  ( 8.728703347107833388E-16, 1.889999999999995017, 0.2500000000000000000 ) ) ;
#167 = AXIS2_PLACEMENT_3D ( 'NONE', #84, #176, #200 ) ;
#168 = DATE_AND_TIME ( #73, #187 ) ;
#169 = APPROVAL ( #87, 'UNSPECIFIED' ) ;
#170 = ORIENTED_EDGE ( 'NONE', *, *, #102, .F. ) ;
#171 = ORIENTED_EDGE ( 'NONE', *, *, #202, .F. ) ;
#172 = FACE_OUTER_BOUND ( 'NONE', #152, .T. ) ;
#173 = DATE_AND_TIME ( #2, #51 ) ;
#174 = AXIS2_PLACEMENT_3D ( 'NONE', #139, #145, #19 ) ;
#175 = PERSON_AND_ORGANIZATION ( #243, #111 ) ;
#176 = DIRECTION ( 'NONE',  ( -3.491481338843133355E-15, 1.224646799147353207E-16, -1.000000000000000000 ) ) ;
#177 = PERSON_AND_ORGANIZATION ( #243, #111 ) ;
#178 = CARTESIAN_POINT ( 'NONE',  ( 2.433562493173664138E-13, -8.535788190057053710E-15, 69.70000000000001705 ) ) ;
#179 = CIRCLE ( 'NONE', #98, 1.499999999999992895 ) ;
#180 = COORDINATED_UNIVERSAL_TIME_OFFSET ( 1, 0, .AHEAD. ) ;
#181 = ORIENTED_EDGE ( 'NONE', *, *, #123, .T. ) ;
#182 = EDGE_LOOP ( 'NONE', ( #126 ) ) ;
#183 = EDGE_CURVE ( 'NONE', #97, #97, #105, .T. ) ;
#184 = PERSON_AND_ORGANIZATION ( #243, #111 ) ;
#185 = CARTESIAN_POINT ( 'NONE',  ( 3.491481338843133355E-14, -1.224646799147353256E-15, 10.00000000000000000 ) ) ;
#186 = MECHANICAL_CONTEXT ( 'NONE', #17, 'mechanical' ) ;
#187 = LOCAL_TIME ( 10, 36, 2.000000000000000000, #21 ) ;
#188 = CARTESIAN_POINT ( 'NONE',  ( 2.433562493173664138E-13, 1.499999999999992673, 69.70000000000001705 ) ) ;
#189 = VERTEX_POINT ( 'NONE', #232 ) ;
#190 = ADVANCED_FACE ( 'NONE', ( #193 ), #233, .F. ) ;
#191 = APPROVAL_PERSON_ORGANIZATION ( #175, #164, #155 ) ;
#192 = PERSON_AND_ORGANIZATION_ROLE ( 'design_supplier' ) ;
#193 = FACE_OUTER_BOUND ( 'NONE', #228, .T. ) ;
#194 = EDGE_LOOP ( 'NONE', ( #171 ) ) ;
#195 = CC_DESIGN_APPROVAL ( #101, ( #13 ) ) ;
#196 = UNCERTAINTY_MEASURE_WITH_UNIT (LENGTH_MEASURE( 1.000000000000000082E-05 ), #37, 'distance_accuracy_value', 'NONE');
#197 = CC_DESIGN_PERSON_AND_ORGANIZATION_ASSIGNMENT ( #236, #216, ( #13 ) ) ;
#198 = FACE_OUTER_BOUND ( 'NONE', #278, .T. ) ;
#199 = ADVANCED_FACE ( 'NONE', ( #82 ), #100, .F. ) ;
#200 = DIRECTION ( 'NONE',  ( 0.0000000000000000000, 1.000000000000000000, 0.0000000000000000000 ) ) ;
#201 = DIRECTION ( 'NONE',  ( -3.491481338843133355E-15, 1.224646799147353207E-16, -1.000000000000000000 ) ) ;
#202 = EDGE_CURVE ( 'NONE', #269, #269, #211, .T. ) ;
#203 = FACE_OUTER_BOUND ( 'NONE', #109, .T. ) ;
#204 = AXIS2_PLACEMENT_3D ( 'NONE', #178, #118, #74 ) ;
#205 = FACE_OUTER_BOUND ( 'NONE', #240, .T. ) ;
#206 = FACE_OUTER_BOUND ( 'NONE', #256, .T. ) ;
#207 = ADVANCED_FACE ( 'NONE', ( #22, #225 ), #147, .T. ) ;
#208 = DIRECTION ( 'NONE',  ( -3.491481338843133355E-15, 1.224646799147353207E-16, -1.000000000000000000 ) ) ;
#209 = CARTESIAN_POINT ( 'NONE',  ( 0.0000000000000000000, 1.639999999999994129, 0.0000000000000000000 ) ) ;
#210 = DIRECTION ( 'NONE',  ( -3.491481338843133355E-15, 1.224646799147353207E-16, -1.000000000000000000 ) ) ;
#211 = CIRCLE ( 'NONE', #24, 1.639999999999994129 ) ;
#212 = FACE_OUTER_BOUND ( 'NONE', #77, .T. ) ;
#213 = CARTESIAN_POINT ( 'NONE',  ( 3.727330838672775537E-14, 1.499999999999991562, 10.67549981495186451 ) ) ;
#214 = DESIGN_CONTEXT ( 'detailed design', #151, 'design' ) ;
#215 = ORIENTED_EDGE ( 'NONE', *, *, #183, .T. ) ;
#216 = PERSON_AND_ORGANIZATION_ROLE ( 'classification_officer' ) ;
#217 = ADVANCED_BREP_SHAPE_REPRESENTATION ( '321604', ( #259, #57, #143 ), #104 ) ;
#218 = AXIS2_PLACEMENT_3D ( 'NONE', #224, #6, #106 ) ;
#219 = PERSON_AND_ORGANIZATION ( #243, #111 ) ;
#220 = APPROVAL_STATUS ( 'not_yet_approved' ) ;
#221 = CC_DESIGN_DATE_AND_TIME_ASSIGNMENT ( #39, #129, ( #15 ) ) ;
#222 = EDGE_LOOP ( 'NONE', ( #48 ) ) ;
#223 = DIRECTION ( 'NONE',  ( 4.275831445896958607E-31, 1.000000000000000000, 1.224646799147353454E-16 ) ) ;
#224 = CARTESIAN_POINT ( 'NONE',  ( 3.491481338843133355E-14, -1.224646799147353256E-15, 10.00000000000000000 ) ) ;
#225 = FACE_BOUND ( 'NONE', #182, .T. ) ;
#226 = DIRECTION ( 'NONE',  ( -3.491481338843133355E-15, 1.224646799147353207E-16, -1.000000000000000000 ) ) ;
#227 = PRODUCT_DEFINITION_SHAPE ( 'NONE', 'NONE',  #15 ) ;
#228 = EDGE_LOOP ( 'NONE', ( #36 ) ) ;
#229 = CARTESIAN_POINT ( 'NONE',  ( -7.012363571270987137E-31, 2.459606043565438157E-32, -2.008420750601652101E-16 ) ) ;
#230 = FACE_OUTER_BOUND ( 'NONE', #251, .T. ) ;
#231 = CYLINDRICAL_SURFACE ( 'NONE', #56, 1.499999999999996891 ) ;
#232 = CARTESIAN_POINT ( 'NONE',  ( 2.444036937190193601E-13, 1.199999999999992628, 70.00000000000000000 ) ) ;
#233 = PLANE ( 'NONE',  #86 ) ;
#234 = ADVANCED_FACE ( 'NONE', ( #205, #172 ), #79, .T. ) ;
#235 = PRODUCT_DEFINITION_FORMATION_WITH_SPECIFIED_SOURCE ( 'ANY', '', #298, .NOT_KNOWN. ) ;
#236 = PERSON_AND_ORGANIZATION ( #243, #111 ) ;
#237 = AXIS2_PLACEMENT_3D ( 'NONE', #115, #32, #293 ) ;
#238 = CARTESIAN_POINT ( 'NONE',  ( 3.491481338843133355E-14, 1.417272994615449637E-32, 10.00000000000000000 ) ) ;
#239 = ORIENTED_EDGE ( 'NONE', *, *, #96, .T. ) ;
#240 = EDGE_LOOP ( 'NONE', ( #170 ) ) ;
#241 = EDGE_LOOP ( 'NONE', ( #215 ) ) ;
#242 = DIRECTION ( 'NONE',  ( 0.0000000000000000000, 1.000000000000000000, 0.0000000000000000000 ) ) ;
#243 = PERSON ( 'UNSPECIFIED', 'UNSPECIFIED', 'UNSPECIFIED', ('UNSPECIFIED'), ('UNSPECIFIED'), ('UNSPECIFIED') ) ;
#244 = CARTESIAN_POINT ( 'NONE',  ( -3.506181785635493568E-31, 1.229803021782719078E-32, -1.004210375300826050E-16 ) ) ;
#245 = VERTEX_POINT ( 'NONE', #41 ) ;
#246 = CARTESIAN_POINT ( 'NONE',  ( 2.444036937190193601E-13, -8.572527594031472993E-15, 70.00000000000000000 ) ) ;
#247 = CLOSED_SHELL ( 'NONE', ( #289, #46, #302, #78, #26, #207, #300 ) ) ;
#248 = CARTESIAN_POINT ( 'NONE',  ( 2.444036937190193601E-13, 1.199999999999992628, 70.00000000000000000 ) ) ;
#249 = DIRECTION ( 'NONE',  ( -3.491481338843133355E-15, 1.224646799147353207E-16, -1.000000000000000000 ) ) ;
#250 = CALENDAR_DATE ( 2021, 2, 12 ) ;
#251 = EDGE_LOOP ( 'NONE', ( #138 ) ) ;
#252 = CARTESIAN_POINT ( 'NONE',  ( 2.433562493173664138E-13, 1.499999999999992673, 69.70000000000001705 ) ) ;
#253 = CALENDAR_DATE ( 2021, 2, 12 ) ;
#254 =( NAMED_UNIT ( * ) SI_UNIT ( $, .STERADIAN. ) SOLID_ANGLE_UNIT ( ) );
#255 = AXIS2_PLACEMENT_3D ( 'NONE', #229, #301, #117 ) ;
#256 = EDGE_LOOP ( 'NONE', ( #60 ) ) ;
#257 = DIRECTION ( 'NONE',  ( 3.491481338843133355E-15, -1.224646799147353207E-16, 1.000000000000000000 ) ) ;
#258 = EDGE_LOOP ( 'NONE', ( #267 ) ) ;
#259 = MANIFOLD_SOLID_BREP ( 'Corps-Déplacer/Copier1[1]', #83 ) ;
#260 = AXIS2_PLACEMENT_3D ( 'NONE', #28, #201, #62 ) ;
#261 = SHAPE_DEFINITION_REPRESENTATION ( #227, #217 ) ;
#262 = EDGE_CURVE ( 'NONE', #189, #189, #132, .T. ) ;
#263 = ORIENTED_EDGE ( 'NONE', *, *, #202, .T. ) ;
#264 = CC_DESIGN_PERSON_AND_ORGANIZATION_ASSIGNMENT ( #177, #281, ( #298 ) ) ;
#265 = ORIENTED_EDGE ( 'NONE', *, *, #130, .F. ) ;
#266 = ORIENTED_EDGE ( 'NONE', *, *, #96, .F. ) ;
#267 = ORIENTED_EDGE ( 'NONE', *, *, #262, .F. ) ;
#268 = CC_DESIGN_PERSON_AND_ORGANIZATION_ASSIGNMENT ( #184, #70, ( #15 ) ) ;
#269 = VERTEX_POINT ( 'NONE', #209 ) ;
#270 = FACE_BOUND ( 'NONE', #120, .T. ) ;
#271 = APPLICATION_PROTOCOL_DEFINITION ( 'international standard', 'config_control_design', 1994, #17 ) ;
#272 = DIRECTION ( 'NONE',  ( -3.491481338843133355E-15, 1.224646799147353207E-16, -1.000000000000000000 ) ) ;
#273 = AXIS2_PLACEMENT_3D ( 'NONE', #59, #81, #95 ) ;
#274 = DIRECTION ( 'NONE',  ( 4.275831445896958607E-31, 1.000000000000000000, 1.224646799147353454E-16 ) ) ;
#275 = APPROVAL_DATE_TIME ( #114, #164 ) ;
#276 = VERTEX_POINT ( 'NONE', #166 ) ;
#277 = LOCAL_TIME ( 10, 36, 2.000000000000000000, #33 ) ;
#278 = EDGE_LOOP ( 'NONE', ( #266 ) ) ;
#279 = SECURITY_CLASSIFICATION_LEVEL ( 'unclassified' ) ;
#280 = CONICAL_SURFACE ( 'NONE', #255, 1.639999999999994129, 0.7853981633974500554 ) ;
#281 = PERSON_AND_ORGANIZATION_ROLE ( 'design_owner' ) ;
#282 = EDGE_LOOP ( 'NONE', ( #149 ) ) ;
#283 = AXIS2_PLACEMENT_3D ( 'NONE', #23, #49, #53 ) ;
#284 = APPLICATION_PROTOCOL_DEFINITION ( 'international standard', 'config_control_design', 1994, #151 ) ;
#285 = FACE_BOUND ( 'NONE', #16, .T. ) ;
#286 = EDGE_LOOP ( 'NONE', ( #181 ) ) ;
#287 = CONICAL_SURFACE ( 'NONE', #167, 1.200000000000001510, 0.7853981633974566057 ) ;
#288 = DIRECTION ( 'NONE',  ( 0.0000000000000000000, 1.000000000000000000, 0.0000000000000000000 ) ) ;
#289 = ADVANCED_FACE ( 'NONE', ( #18, #20 ), #4, .T. ) ;
#290 = FACE_OUTER_BOUND ( 'NONE', #282, .T. ) ;
#291 = CC_DESIGN_PERSON_AND_ORGANIZATION_ASSIGNMENT ( #137, #192, ( #235 ) ) ;
#292 = DIRECTION ( 'NONE',  ( 0.0000000000000000000, 0.0000000000000000000, 1.000000000000000000 ) ) ;
#293 = DIRECTION ( 'NONE',  ( 0.0000000000000000000, 1.000000000000000000, 0.0000000000000000000 ) ) ;
#294 = FACE_OUTER_BOUND ( 'NONE', #241, .T. ) ;
#295 = EDGE_CURVE ( 'NONE', #276, #276, #121, .T. ) ;
#296 = DIRECTION ( 'NONE',  ( 4.275831445896958607E-31, 1.000000000000000000, 1.224646799147353207E-16 ) ) ;
#297 = AXIS2_PLACEMENT_3D ( 'NONE', #238, #257, #124 ) ;
#298 = PRODUCT ( '321604', '321604', '', ( #186 ) ) ;
#299 = FACE_OUTER_BOUND ( 'NONE', #158, .T. ) ;
#300 = ADVANCED_FACE ( 'NONE', ( #212, #294 ), #231, .T. ) ;
#301 = DIRECTION ( 'NONE',  ( 3.491481338843133355E-15, -1.224646799147353207E-16, 1.000000000000000000 ) ) ;
#302 = ADVANCED_FACE ( 'NONE', ( #299, #159 ), #280, .T. ) ;
#303 = AXIS2_PLACEMENT_3D ( 'NONE', #47, #110, #223 ) ;
ENDSEC;
END-ISO-10303-21;
