ISO-10303-21;
HEADER;
FILE_DESCRIPTION (( 'STEP AP203' ),
    '1' );
FILE_NAME ('321603.step',
    '2021-12-02T09:36:01',
    ( '' ),
    ( '' ),
    'SwSTEP 2.0',
    'SolidWorks 2019',
    '' );
FILE_SCHEMA (( 'CONFIG_CONTROL_DESIGN' ));
ENDSEC;

DATA;
#1 = PRODUCT ( '321603', '321603', '', ( #72 ) ) ;
#2 = CARTESIAN_POINT ( 'NONE',  ( 0.0000000000000000000, 0.0000000000000000000, 0.0000000000000000000 ) ) ;
#3 = EDGE_CURVE ( 'NONE', #109, #109, #61, .T. ) ;
#4 = ORIENTED_EDGE ( 'NONE', *, *, #29, .F. ) ;
#5 = EDGE_LOOP ( 'NONE', ( #4 ) ) ;
#6 = ORIENTED_EDGE ( 'NONE', *, *, #236, .T. ) ;
#7 = CIRCLE ( 'NONE', #204, 1.500000000000001110 ) ;
#8 = APPROVAL ( #18, 'UNSPECIFIED' ) ;
#9 = CARTESIAN_POINT ( 'NONE',  ( 2.433562493173664138E-13, -8.535788190057053710E-15, 69.70000000000001705 ) ) ;
#10 = FACE_BOUND ( 'NONE', #187, .T. ) ;
#11 = CARTESIAN_POINT ( 'NONE',  ( 3.491481338843133355E-14, 1.413523595158794966E-32, 10.00000000000000000 ) ) ;
#12 = AXIS2_PLACEMENT_3D ( 'NONE', #194, #78, #253 ) ;
#13 = FACE_OUTER_BOUND ( 'NONE', #189, .T. ) ;
#14 = FACE_OUTER_BOUND ( 'NONE', #260, .T. ) ;
#15 = APPROVAL_DATE_TIME ( #228, #8 ) ;
#16 = CC_DESIGN_DATE_AND_TIME_ASSIGNMENT ( #108, #84, ( #42 ) ) ;
#17 = APPROVAL_DATE_TIME ( #201, #293 ) ;
#18 = APPROVAL_STATUS ( 'not_yet_approved' ) ;
#19 = FACE_OUTER_BOUND ( 'NONE', #98, .T. ) ;
#20 = ADVANCED_FACE ( 'NONE', ( #163, #19 ), #235, .T. ) ;
#21 = AXIS2_PLACEMENT_3D ( 'NONE', #200, #296, #174 ) ;
#22 = APPLICATION_PROTOCOL_DEFINITION ( 'international standard', 'config_control_design', 1994, #267 ) ;
#23 = FACE_OUTER_BOUND ( 'NONE', #237, .T. ) ;
#24 = CC_DESIGN_PERSON_AND_ORGANIZATION_ASSIGNMENT ( #175, #226, ( #206 ) ) ;
#25 = CONICAL_SURFACE ( 'NONE', #119, 1.884999999999994902, 0.5235987755983003700 ) ;
#26 = EDGE_LOOP ( 'NONE', ( #44 ) ) ;
#27 = ORIENTED_EDGE ( 'NONE', *, *, #250, .F. ) ;
#28 = DIRECTION ( 'NONE',  ( -3.491481338843133355E-15, 1.224646799147353207E-16, -1.000000000000000000 ) ) ;
#29 = EDGE_CURVE ( 'NONE', #102, #102, #247, .T. ) ;
#30 = DIRECTION ( 'NONE',  ( 0.0000000000000000000, 1.000000000000000000, 0.0000000000000000000 ) ) ;
#31 = LOCAL_TIME ( 10, 36, 1.000000000000000000, #299 ) ;
#32 = FACE_BOUND ( 'NONE', #286, .T. ) ;
#33 = DIRECTION ( 'NONE',  ( 4.086853993394676333E-31, 1.000000000000000000, 1.150347132610617991E-16 ) ) ;
#34 = VERTEX_POINT ( 'NONE', #252 ) ;
#35 = CARTESIAN_POINT ( 'NONE',  ( 8.728703347107825500E-16, -3.061616997868380553E-17, 0.2499999999999997780 ) ) ;
#36 = PERSON ( 'UNSPECIFIED', 'UNSPECIFIED', 'UNSPECIFIED', ('UNSPECIFIED'), ('UNSPECIFIED'), ('UNSPECIFIED') ) ;
#37 = COORDINATED_UNIVERSAL_TIME_OFFSET ( 1, 0, .AHEAD. ) ;
#38 = CARTESIAN_POINT ( 'NONE',  ( 0.0000000000000000000, 0.0000000000000000000, 0.0000000000000000000 ) ) ;
#39 = PERSON_AND_ORGANIZATION ( #36, #159 ) ;
#40 = VERTEX_POINT ( 'NONE', #133 ) ;
#41 = CC_DESIGN_DATE_AND_TIME_ASSIGNMENT ( #244, #207, ( #206 ) ) ;
#42 = PRODUCT_DEFINITION ( 'UNKNOWN', '', #224, #218 ) ;
#43 = DIRECTION ( 'NONE',  ( -3.491481338843133355E-15, 1.224646799147353207E-16, -1.000000000000000000 ) ) ;
#44 = ORIENTED_EDGE ( 'NONE', *, *, #197, .T. ) ;
#45 = CARTESIAN_POINT ( 'NONE',  ( 0.0000000000000000000, 0.0000000000000000000, 0.0000000000000000000 ) ) ;
#46 = DIRECTION ( 'NONE',  ( 0.0000000000000000000, 1.000000000000000000, 0.0000000000000000000 ) ) ;
#47 = EDGE_LOOP ( 'NONE', ( #120 ) ) ;
#48 = CARTESIAN_POINT ( 'NONE',  ( 3.491481338843133355E-14, -1.224646799147353256E-15, 10.00000000000000000 ) ) ;
#49 = CARTESIAN_POINT ( 'NONE',  ( 3.491481338843133355E-14, -1.224646799147353256E-15, 10.00000000000000000 ) ) ;
#50 = DIRECTION ( 'NONE',  ( 0.0000000000000000000, 0.0000000000000000000, 1.000000000000000000 ) ) ;
#51 = MANIFOLD_SOLID_BREP ( 'Corps-Déplacer/Copier1[1]', #240 ) ;
#52 = CARTESIAN_POINT ( 'NONE',  ( 2.444036937190193601E-13, -8.572527594031472993E-15, 70.00000000000000000 ) ) ;
#53 = CIRCLE ( 'NONE', #124, 1.884999999999994902 ) ;
#54 = CC_DESIGN_SECURITY_CLASSIFICATION ( #206, ( #224 ) ) ;
#55 = CARTESIAN_POINT ( 'NONE',  ( 2.444036937190193601E-13, -8.572527594031472993E-15, 70.00000000000000000 ) ) ;
#56 = DIRECTION ( 'NONE',  ( 1.000000000000000000, 0.0000000000000000000, 0.0000000000000000000 ) ) ;
#57 = FACE_OUTER_BOUND ( 'NONE', #76, .T. ) ;
#58 = PERSON_AND_ORGANIZATION ( #36, #159 ) ;
#59 = CARTESIAN_POINT ( 'NONE',  ( 0.0000000000000000000, 0.0000000000000000000, 0.0000000000000000000 ) ) ;
#60 = AXIS2_PLACEMENT_3D ( 'NONE', #145, #28, #282 ) ;
#61 = CIRCLE ( 'NONE', #62, 1.499999999999992895 ) ;
#62 = AXIS2_PLACEMENT_3D ( 'NONE', #230, #123, #46 ) ;
#63 = FACE_OUTER_BOUND ( 'NONE', #89, .T. ) ;
#64 = ADVANCED_FACE ( 'NONE', ( #280 ), #265, .F. ) ;
#65 = SHAPE_DEFINITION_REPRESENTATION ( #221, #106 ) ;
#66 = AXIS2_PLACEMENT_3D ( 'NONE', #161, #146, #259 ) ;
#67 = CARTESIAN_POINT ( 'NONE',  ( 2.433562493173664138E-13, 1.499999999999992673, 69.70000000000001705 ) ) ;
#68 = ORIENTED_EDGE ( 'NONE', *, *, #93, .T. ) ;
#69 = DIRECTION ( 'NONE',  ( 0.0000000000000000000, 1.000000000000000000, 0.0000000000000000000 ) ) ;
#70 = CIRCLE ( 'NONE', #140, 1.634999999999994014 ) ;
#71 = EDGE_CURVE ( 'NONE', #40, #40, #53, .T. ) ;
#72 = MECHANICAL_CONTEXT ( 'NONE', #267, 'mechanical' ) ;
#73 = CARTESIAN_POINT ( 'NONE',  ( 2.433562493173664138E-13, 1.499999999999992673, 69.70000000000001705 ) ) ;
#74 = FACE_BOUND ( 'NONE', #99, .T. ) ;
#75 = EDGE_LOOP ( 'NONE', ( #262 ) ) ;
#76 = EDGE_LOOP ( 'NONE', ( #91 ) ) ;
#77 = ORIENTED_EDGE ( 'NONE', *, *, #71, .T. ) ;
#78 = DIRECTION ( 'NONE',  ( -3.491481338843133355E-15, 1.224646799147353207E-16, -1.000000000000000000 ) ) ;
#79 = CYLINDRICAL_SURFACE ( 'NONE', #213, 1.499999999999996891 ) ;
#80 = CIRCLE ( 'NONE', #158, 1.884999999999994902 ) ;
#81 = ADVANCED_FACE ( 'NONE', ( #256 ), #210, .F. ) ;
#82 = CARTESIAN_POINT ( 'NONE',  ( 3.491481338843133355E-14, -1.224646799147353256E-15, 10.00000000000000000 ) ) ;
#83 = FACE_BOUND ( 'NONE', #138, .T. ) ;
#84 = DATE_TIME_ROLE ( 'creation_date' ) ;
#85 = DIRECTION ( 'NONE',  ( 0.0000000000000000000, 1.000000000000000000, 0.0000000000000000000 ) ) ;
#86 = ADVANCED_FACE ( 'NONE', ( #263 ), #303, .T. ) ;
#87 = COORDINATED_UNIVERSAL_TIME_OFFSET ( 1, 0, .AHEAD. ) ;
#88 = APPROVAL_STATUS ( 'not_yet_approved' ) ;
#89 = EDGE_LOOP ( 'NONE', ( #227 ) ) ;
#90 = AXIS2_PLACEMENT_3D ( 'NONE', #9, #292, #170 ) ;
#91 = ORIENTED_EDGE ( 'NONE', *, *, #93, .F. ) ;
#92 = CARTESIAN_POINT ( 'NONE',  ( 3.724307127136498033E-14, 1.499999999999991562, 10.66683956091401875 ) ) ;
#93 = EDGE_CURVE ( 'NONE', #231, #231, #261, .T. ) ;
#94 = CONICAL_SURFACE ( 'NONE', #21, 1.634999999999994014, 0.7853981633974500554 ) ;
#95 = CC_DESIGN_APPROVAL ( #293, ( #224 ) ) ;
#96 = CARTESIAN_POINT ( 'NONE',  ( 2.444036937190193601E-13, -8.572527594031472993E-15, 70.00000000000000000 ) ) ;
#97 = ADVANCED_FACE ( 'NONE', ( #23, #74 ), #94, .T. ) ;
#98 = EDGE_LOOP ( 'NONE', ( #27 ) ) ;
#99 = EDGE_LOOP ( 'NONE', ( #122 ) ) ;
#100 = AXIS2_PLACEMENT_3D ( 'NONE', #11, #266, #269 ) ;
#101 = LOCAL_TIME ( 10, 36, 1.000000000000000000, #37 ) ;
#102 = VERTEX_POINT ( 'NONE', #290 ) ;
#103 = DIRECTION ( 'NONE',  ( -3.491481338843133355E-15, 1.224646799147353207E-16, -1.000000000000000000 ) ) ;
#104 = CARTESIAN_POINT ( 'NONE',  ( -6.990984414041502422E-31, 2.452107244652128540E-32, -2.002297516605915472E-16 ) ) ;
#105 = CONICAL_SURFACE ( 'NONE', #12, 1.200000000000001510, 0.7853981633974566057 ) ;
#106 = ADVANCED_BREP_SHAPE_REPRESENTATION ( '321603', ( #51, #156, #211 ), #254 ) ;
#107 = DIRECTION ( 'NONE',  ( -3.491481338843133355E-15, 1.224646799147353207E-16, -1.000000000000000000 ) ) ;
#108 = DATE_AND_TIME ( #110, #173 ) ;
#109 = VERTEX_POINT ( 'NONE', #274 ) ;
#110 = CALENDAR_DATE ( 2021, 2, 12 ) ;
#111 = VERTEX_POINT ( 'NONE', #67 ) ;
#112 = PERSON_AND_ORGANIZATION_ROLE ( 'design_owner' ) ;
#113 = CARTESIAN_POINT ( 'NONE',  ( 3.491481338843133355E-14, 1.884999999999993570, 10.00000000000000000 ) ) ;
#114 = PRODUCT_RELATED_PRODUCT_CATEGORY ( 'detail', '', ( #1 ) ) ;
#115 = PERSON_AND_ORGANIZATION ( #36, #159 ) ;
#116 = DIRECTION ( 'NONE',  ( 4.275831445896958607E-31, 1.000000000000000000, 1.224646799147353207E-16 ) ) ;
#117 = AXIS2_PLACEMENT_3D ( 'NONE', #96, #160, #30 ) ;
#118 = VERTEX_POINT ( 'NONE', #73 ) ;
#119 = AXIS2_PLACEMENT_3D ( 'NONE', #82, #246, #220 ) ;
#120 = ORIENTED_EDGE ( 'NONE', *, *, #281, .F. ) ;
#121 = EDGE_LOOP ( 'NONE', ( #144 ) ) ;
#122 = ORIENTED_EDGE ( 'NONE', *, *, #209, .F. ) ;
#123 = DIRECTION ( 'NONE',  ( -3.491481338843133355E-15, 1.224646799147353207E-16, -1.000000000000000000 ) ) ;
#124 = AXIS2_PLACEMENT_3D ( 'NONE', #48, #43, #69 ) ;
#125 = FACE_OUTER_BOUND ( 'NONE', #26, .T. ) ;
#126 = DIRECTION ( 'NONE',  ( 0.0000000000000000000, 1.000000000000000000, 0.0000000000000000000 ) ) ;
#127 = FACE_OUTER_BOUND ( 'NONE', #75, .T. ) ;
#128 = AXIS2_PLACEMENT_3D ( 'NONE', #2, #232, #142 ) ;
#129 = CC_DESIGN_PERSON_AND_ORGANIZATION_ASSIGNMENT ( #153, #112, ( #1 ) ) ;
#130 = DATE_AND_TIME ( #180, #101 ) ;
#131 = DIRECTION ( 'NONE',  ( -3.491481338843133355E-15, 1.224646799147353207E-16, -1.000000000000000000 ) ) ;
#132 = PERSON_AND_ORGANIZATION_ROLE ( 'creator' ) ;
#133 = CARTESIAN_POINT ( 'NONE',  ( 3.491481338843133355E-14, 1.884999999999993570, 10.00000000000000000 ) ) ;
#134 = CALENDAR_DATE ( 2021, 2, 12 ) ;
#135 = CONICAL_SURFACE ( 'NONE', #275, 1.884999999999994902, 0.5235987755983003700 ) ;
#136 = APPROVAL_PERSON_ORGANIZATION ( #58, #293, #295 ) ;
#137 = CC_DESIGN_PERSON_AND_ORGANIZATION_ASSIGNMENT ( #115, #301, ( #224 ) ) ;
#138 = EDGE_LOOP ( 'NONE', ( #139 ) ) ;
#139 = ORIENTED_EDGE ( 'NONE', *, *, #3, .T. ) ;
#140 = AXIS2_PLACEMENT_3D ( 'NONE', #104, #219, #241 ) ;
#141 = LOCAL_TIME ( 10, 36, 1.000000000000000000, #199 ) ;
#142 = DIRECTION ( 'NONE',  ( 4.275831445896959482E-31, 1.000000000000000000, 1.224646799147353454E-16 ) ) ;
#143 = UNCERTAINTY_MEASURE_WITH_UNIT (LENGTH_MEASURE( 1.000000000000000082E-05 ), #196, 'distance_accuracy_value', 'NONE');
#144 = ORIENTED_EDGE ( 'NONE', *, *, #29, .T. ) ;
#145 = CARTESIAN_POINT ( 'NONE',  ( -3.495492207020751211E-31, 1.226053622326064270E-32, -1.001148758302957736E-16 ) ) ;
#146 = DIRECTION ( 'NONE',  ( -3.491481338843133355E-15, 1.224646799147353207E-16, -1.000000000000000000 ) ) ;
#147 = CYLINDRICAL_SURFACE ( 'NONE', #278, 1.499999999999996891 ) ;
#148 = DIRECTION ( 'NONE',  ( -3.491481338843133355E-15, 1.224646799147353207E-16, -1.000000000000000000 ) ) ;
#149 = DIRECTION ( 'NONE',  ( -3.491481338843133355E-15, 1.224646799147353207E-16, -1.000000000000000000 ) ) ;
#150 = ADVANCED_FACE ( 'NONE', ( #14 ), #288, .F. ) ;
#151 = APPROVAL_ROLE ( '' ) ;
#152 = FACE_OUTER_BOUND ( 'NONE', #190, .T. ) ;
#153 = PERSON_AND_ORGANIZATION ( #36, #159 ) ;
#154 = DIRECTION ( 'NONE',  ( 0.0000000000000000000, 1.000000000000000000, 0.0000000000000000000 ) ) ;
#155 = PERSON_AND_ORGANIZATION ( #36, #159 ) ;
#156 = MANIFOLD_SOLID_BREP ( 'Corps-Déplacer/Copier1[2]', #248 ) ;
#157 = CALENDAR_DATE ( 2021, 2, 12 ) ;
#158 = AXIS2_PLACEMENT_3D ( 'NONE', #35, #271, #33 ) ;
#159 = ORGANIZATION ( 'UNSPECIFIED', 'UNSPECIFIED', '' ) ;
#160 = DIRECTION ( 'NONE',  ( -3.491481338843133355E-15, 1.224646799147353207E-16, -1.000000000000000000 ) ) ;
#161 = CARTESIAN_POINT ( 'NONE',  ( 2.444036937190193601E-13, 8.998558695971026591E-33, 70.00000000000000000 ) ) ;
#162 = APPROVAL_PERSON_ORGANIZATION ( #273, #8, #229 ) ;
#163 = FACE_OUTER_BOUND ( 'NONE', #239, .T. ) ;
#164 =( NAMED_UNIT ( * ) SI_UNIT ( $, .STERADIAN. ) SOLID_ANGLE_UNIT ( ) );
#165 = ORIENTED_EDGE ( 'NONE', *, *, #250, .T. ) ;
#166 = AXIS2_PLACEMENT_3D ( 'NONE', #52, #103, #192 ) ;
#167 = CARTESIAN_POINT ( 'NONE',  ( 2.444036937190193601E-13, -8.572527594031472993E-15, 70.00000000000000000 ) ) ;
#168 = ORIENTED_EDGE ( 'NONE', *, *, #236, .F. ) ;
#169 = ORIENTED_EDGE ( 'NONE', *, *, #272, .T. ) ;
#170 = DIRECTION ( 'NONE',  ( 0.0000000000000000000, 1.000000000000000000, 0.0000000000000000000 ) ) ;
#171 = DIRECTION ( 'NONE',  ( 0.0000000000000000000, 1.000000000000000000, 0.0000000000000000000 ) ) ;
#172 = AXIS2_PLACEMENT_3D ( 'NONE', #49, #216, #217 ) ;
#173 = LOCAL_TIME ( 10, 36, 1.000000000000000000, #87 ) ;
#174 = DIRECTION ( 'NONE',  ( -4.275831445896958607E-31, -1.000000000000000000, -1.224646799147353454E-16 ) ) ;
#175 = PERSON_AND_ORGANIZATION ( #36, #159 ) ;
#176 = DIRECTION ( 'NONE',  ( -3.491481338843133355E-15, 1.224646799147353207E-16, -1.000000000000000000 ) ) ;
#177 = PERSON_AND_ORGANIZATION_ROLE ( 'creator' ) ;
#178 = DIRECTION ( 'NONE',  ( 4.275831445896958607E-31, 1.000000000000000000, 1.224646799147353454E-16 ) ) ;
#179 = APPROVAL_STATUS ( 'not_yet_approved' ) ;
#180 = CALENDAR_DATE ( 2021, 2, 12 ) ;
#181 = ORIENTED_EDGE ( 'NONE', *, *, #281, .T. ) ;
#182 = ADVANCED_FACE ( 'NONE', ( #83, #57 ), #135, .T. ) ;
#183 = CARTESIAN_POINT ( 'NONE',  ( 0.0000000000000000000, 1.634999999999994014, 0.0000000000000000000 ) ) ;
#184 = CC_DESIGN_APPROVAL ( #8, ( #42 ) ) ;
#185 = ADVANCED_FACE ( 'NONE', ( #63, #242 ), #223, .T. ) ;
#186 = DIRECTION ( 'NONE',  ( -3.491481338843133355E-15, 1.224646799147353207E-16, -1.000000000000000000 ) ) ;
#187 = EDGE_LOOP ( 'NONE', ( #6 ) ) ;
#188 = ADVANCED_FACE ( 'NONE', ( #10, #243 ), #25, .T. ) ;
#189 = EDGE_LOOP ( 'NONE', ( #169 ) ) ;
#190 = EDGE_LOOP ( 'NONE', ( #168 ) ) ;
#191 = CARTESIAN_POINT ( 'NONE',  ( 3.724307127136498033E-14, -1.306311092529171209E-15, 10.66683956091401875 ) ) ;
#192 = DIRECTION ( 'NONE',  ( 0.0000000000000000000, 1.000000000000000000, 0.0000000000000000000 ) ) ;
#193 =( NAMED_UNIT ( * ) PLANE_ANGLE_UNIT ( ) SI_UNIT ( $, .RADIAN. ) );
#194 = CARTESIAN_POINT ( 'NONE',  ( 2.444036937190193601E-13, -8.572527594031472993E-15, 70.00000000000000000 ) ) ;
#195 = AXIS2_PLACEMENT_3D ( 'NONE', #55, #148, #85 ) ;
#196 =( LENGTH_UNIT ( ) NAMED_UNIT ( * ) SI_UNIT ( .MILLI., .METRE. ) );
#197 = EDGE_CURVE ( 'NONE', #111, #111, #7, .T. ) ;
#198 = CARTESIAN_POINT ( 'NONE',  ( 2.433562493173664138E-13, -8.535788190057053710E-15, 69.70000000000001705 ) ) ;
#199 = COORDINATED_UNIVERSAL_TIME_OFFSET ( 1, 0, .AHEAD. ) ;
#200 = CARTESIAN_POINT ( 'NONE',  ( -6.990984414041502422E-31, 2.452107244652128540E-32, -2.002297516605915472E-16 ) ) ;
#201 = DATE_AND_TIME ( #157, #249 ) ;
#202 = VERTEX_POINT ( 'NONE', #183 ) ;
#203 = CC_DESIGN_PERSON_AND_ORGANIZATION_ASSIGNMENT ( #39, #132, ( #224 ) ) ;
#204 = AXIS2_PLACEMENT_3D ( 'NONE', #198, #294, #171 ) ;
#205 = PERSON_AND_ORGANIZATION ( #36, #159 ) ;
#206 = SECURITY_CLASSIFICATION ( '', '', #300 ) ;
#207 = DATE_TIME_ROLE ( 'classification_date' ) ;
#208 = COORDINATED_UNIVERSAL_TIME_OFFSET ( 1, 0, .AHEAD. ) ;
#209 = EDGE_CURVE ( 'NONE', #202, #202, #70, .T. ) ;
#210 = PLANE ( 'NONE',  #66 ) ;
#211 = AXIS2_PLACEMENT_3D ( 'NONE', #45, #50, #56 ) ;
#212 = CIRCLE ( 'NONE', #291, 1.499999999999992895 ) ;
#213 = AXIS2_PLACEMENT_3D ( 'NONE', #38, #131, #225 ) ;
#214 = EDGE_LOOP ( 'NONE', ( #264 ) ) ;
#215 = APPROVAL ( #88, 'UNSPECIFIED' ) ;
#216 = DIRECTION ( 'NONE',  ( -3.491481338843133355E-15, 1.224646799147353207E-16, -1.000000000000000000 ) ) ;
#217 = DIRECTION ( 'NONE',  ( 0.0000000000000000000, 1.000000000000000000, 0.0000000000000000000 ) ) ;
#218 = DESIGN_CONTEXT ( 'detailed design', #287, 'design' ) ;
#219 = DIRECTION ( 'NONE',  ( -3.491481338843133355E-15, 1.224646799147353207E-16, -1.000000000000000000 ) ) ;
#220 = DIRECTION ( 'NONE',  ( 0.0000000000000000000, 1.000000000000000000, 0.0000000000000000000 ) ) ;
#221 = PRODUCT_DEFINITION_SHAPE ( 'NONE', 'NONE',  #42 ) ;
#222 = FACE_OUTER_BOUND ( 'NONE', #245, .T. ) ;
#223 = CONICAL_SURFACE ( 'NONE', #195, 1.200000000000001510, 0.7853981633974566057 ) ;
#224 = PRODUCT_DEFINITION_FORMATION_WITH_SPECIFIED_SOURCE ( 'ANY', '', #1, .NOT_KNOWN. ) ;
#225 = DIRECTION ( 'NONE',  ( 4.275831445896958607E-31, 1.000000000000000000, 1.224646799147353454E-16 ) ) ;
#226 = PERSON_AND_ORGANIZATION_ROLE ( 'classification_officer' ) ;
#227 = ORIENTED_EDGE ( 'NONE', *, *, #272, .F. ) ;
#228 = DATE_AND_TIME ( #134, #31 ) ;
#229 = APPROVAL_ROLE ( '' ) ;
#230 = CARTESIAN_POINT ( 'NONE',  ( 3.724307127136498033E-14, -1.306311092529171209E-15, 10.66683956091401875 ) ) ;
#231 = VERTEX_POINT ( 'NONE', #113 ) ;
#232 = DIRECTION ( 'NONE',  ( -3.491481338843133355E-15, 1.224646799147353207E-16, -1.000000000000000000 ) ) ;
#233 = CIRCLE ( 'NONE', #90, 1.500000000000001110 ) ;
#234 = CARTESIAN_POINT ( 'NONE',  ( 8.728703347107833388E-16, 1.884999999999994902, 0.2500000000000000000 ) ) ;
#235 = CYLINDRICAL_SURFACE ( 'NONE', #128, 1.884999999999994902 ) ;
#236 = EDGE_CURVE ( 'NONE', #297, #297, #212, .T. ) ;
#237 = EDGE_LOOP ( 'NONE', ( #165 ) ) ;
#238 = EDGE_LOOP ( 'NONE', ( #284 ) ) ;
#239 = EDGE_LOOP ( 'NONE', ( #68 ) ) ;
#240 = CLOSED_SHELL ( 'NONE', ( #150, #188, #289, #255, #81 ) ) ;
#241 = DIRECTION ( 'NONE',  ( 4.275831445896958607E-31, 1.000000000000000000, 1.224646799147353454E-16 ) ) ;
#242 = FACE_BOUND ( 'NONE', #121, .T. ) ;
#243 = FACE_OUTER_BOUND ( 'NONE', #214, .T. ) ;
#244 = DATE_AND_TIME ( #270, #141 ) ;
#245 = EDGE_LOOP ( 'NONE', ( #279 ) ) ;
#246 = DIRECTION ( 'NONE',  ( -3.491481338843133355E-15, 1.224646799147353207E-16, -1.000000000000000000 ) ) ;
#247 = CIRCLE ( 'NONE', #117, 1.200000000000001510 ) ;
#248 = CLOSED_SHELL ( 'NONE', ( #182, #20, #97, #86, #64, #185, #283 ) ) ;
#249 = LOCAL_TIME ( 10, 36, 1.000000000000000000, #208 ) ;
#250 = EDGE_CURVE ( 'NONE', #258, #258, #80, .T. ) ;
#251 = APPLICATION_PROTOCOL_DEFINITION ( 'international standard', 'config_control_design', 1994, #287 ) ;
#252 = CARTESIAN_POINT ( 'NONE',  ( 2.444036937190193601E-13, 1.199999999999992628, 70.00000000000000000 ) ) ;
#253 = DIRECTION ( 'NONE',  ( 0.0000000000000000000, 1.000000000000000000, 0.0000000000000000000 ) ) ;
#254 =( GEOMETRIC_REPRESENTATION_CONTEXT ( 3 ) GLOBAL_UNCERTAINTY_ASSIGNED_CONTEXT ( ( #143 ) ) GLOBAL_UNIT_ASSIGNED_CONTEXT ( ( #196, #193, #164 ) ) REPRESENTATION_CONTEXT ( 'NONE', 'WORKASPACE' ) );
#255 = ADVANCED_FACE ( 'NONE', ( #127, #32 ), #105, .T. ) ;
#256 = FACE_OUTER_BOUND ( 'NONE', #47, .T. ) ;
#257 = CC_DESIGN_PERSON_AND_ORGANIZATION_ASSIGNMENT ( #205, #177, ( #42 ) ) ;
#258 = VERTEX_POINT ( 'NONE', #234 ) ;
#259 = DIRECTION ( 'NONE',  ( 4.275831445896958607E-31, 1.000000000000000000, 1.224646799147353207E-16 ) ) ;
#260 = EDGE_LOOP ( 'NONE', ( #77 ) ) ;
#261 = CIRCLE ( 'NONE', #172, 1.884999999999994902 ) ;
#262 = ORIENTED_EDGE ( 'NONE', *, *, #197, .F. ) ;
#263 = FACE_OUTER_BOUND ( 'NONE', #238, .T. ) ;
#264 = ORIENTED_EDGE ( 'NONE', *, *, #71, .F. ) ;
#265 = PLANE ( 'NONE',  #285 ) ;
#266 = DIRECTION ( 'NONE',  ( 3.491481338843133355E-15, -1.224646799147353207E-16, 1.000000000000000000 ) ) ;
#267 = APPLICATION_CONTEXT ( 'configuration controlled 3d designs of mechanical parts and assemblies' ) ;
#268 = CARTESIAN_POINT ( 'NONE',  ( 3.491481338843133355E-14, -1.224646799147353256E-15, 10.00000000000000000 ) ) ;
#269 = DIRECTION ( 'NONE',  ( -4.275831445896958607E-31, -1.000000000000000000, -1.224646799147353207E-16 ) ) ;
#270 = CALENDAR_DATE ( 2021, 2, 12 ) ;
#271 = DIRECTION ( 'NONE',  ( -3.491481338843133355E-15, 1.224646799147353207E-16, -1.000000000000000000 ) ) ;
#272 = EDGE_CURVE ( 'NONE', #118, #118, #233, .T. ) ;
#273 = PERSON_AND_ORGANIZATION ( #36, #159 ) ;
#274 = CARTESIAN_POINT ( 'NONE',  ( 3.724307127136498033E-14, 1.499999999999991562, 10.66683956091401875 ) ) ;
#275 = AXIS2_PLACEMENT_3D ( 'NONE', #268, #149, #126 ) ;
#276 = CC_DESIGN_APPROVAL ( #215, ( #206 ) ) ;
#277 = APPROVAL_DATE_TIME ( #130, #215 ) ;
#278 = AXIS2_PLACEMENT_3D ( 'NONE', #59, #107, #178 ) ;
#279 = ORIENTED_EDGE ( 'NONE', *, *, #3, .F. ) ;
#280 = FACE_OUTER_BOUND ( 'NONE', #5, .T. ) ;
#281 = EDGE_CURVE ( 'NONE', #34, #34, #302, .T. ) ;
#282 = DIRECTION ( 'NONE',  ( 4.275831445896958607E-31, 1.000000000000000000, 1.224646799147353207E-16 ) ) ;
#283 = ADVANCED_FACE ( 'NONE', ( #222, #13 ), #147, .T. ) ;
#284 = ORIENTED_EDGE ( 'NONE', *, *, #209, .T. ) ;
#285 = AXIS2_PLACEMENT_3D ( 'NONE', #167, #186, #116 ) ;
#286 = EDGE_LOOP ( 'NONE', ( #181 ) ) ;
#287 = APPLICATION_CONTEXT ( 'configuration controlled 3d designs of mechanical parts and assemblies' ) ;
#288 = PLANE ( 'NONE',  #100 ) ;
#289 = ADVANCED_FACE ( 'NONE', ( #152, #125 ), #79, .T. ) ;
#290 = CARTESIAN_POINT ( 'NONE',  ( 2.444036937190193601E-13, 1.199999999999992628, 70.00000000000000000 ) ) ;
#291 = AXIS2_PLACEMENT_3D ( 'NONE', #191, #176, #154 ) ;
#292 = DIRECTION ( 'NONE',  ( -3.491481338843133355E-15, 1.224646799147353207E-16, -1.000000000000000000 ) ) ;
#293 = APPROVAL ( #179, 'UNSPECIFIED' ) ;
#294 = DIRECTION ( 'NONE',  ( -3.491481338843133355E-15, 1.224646799147353207E-16, -1.000000000000000000 ) ) ;
#295 = APPROVAL_ROLE ( '' ) ;
#296 = DIRECTION ( 'NONE',  ( 3.491481338843133355E-15, -1.224646799147353207E-16, 1.000000000000000000 ) ) ;
#297 = VERTEX_POINT ( 'NONE', #92 ) ;
#298 = APPROVAL_PERSON_ORGANIZATION ( #155, #215, #151 ) ;
#299 = COORDINATED_UNIVERSAL_TIME_OFFSET ( 1, 0, .AHEAD. ) ;
#300 = SECURITY_CLASSIFICATION_LEVEL ( 'unclassified' ) ;
#301 = PERSON_AND_ORGANIZATION_ROLE ( 'design_supplier' ) ;
#302 = CIRCLE ( 'NONE', #166, 1.200000000000001510 ) ;
#303 = PLANE ( 'NONE',  #60 ) ;
ENDSEC;
END-ISO-10303-21;
