ISO-10303-21;
HEADER;
FILE_DESCRIPTION (( 'STEP AP203' ),
    '1' );
FILE_NAME ('321602.step',
    '2021-12-02T09:36:01',
    ( '' ),
    ( '' ),
    'SwSTEP 2.0',
    'SolidWorks 2019',
    '' );
FILE_SCHEMA (( 'CONFIG_CONTROL_DESIGN' ));
ENDSEC;

DATA;
#1 = ADVANCED_FACE ( 'NONE', ( #22, #222 ), #95, .T. ) ;
#2 = PERSON_AND_ORGANIZATION_ROLE ( 'creator' ) ;
#3 = EDGE_CURVE ( 'NONE', #221, #221, #199, .T. ) ;
#4 = VERTEX_POINT ( 'NONE', #143 ) ;
#5 = PERSON_AND_ORGANIZATION ( #76, #296 ) ;
#6 = VERTEX_POINT ( 'NONE', #177 ) ;
#7 =( NAMED_UNIT ( * ) PLANE_ANGLE_UNIT ( ) SI_UNIT ( $, .RADIAN. ) );
#8 = AXIS2_PLACEMENT_3D ( 'NONE', #93, #239, #194 ) ;
#9 = PERSON_AND_ORGANIZATION_ROLE ( 'classification_officer' ) ;
#10 = EDGE_LOOP ( 'NONE', ( #193 ) ) ;
#11 = AXIS2_PLACEMENT_3D ( 'NONE', #162, #273, #112 ) ;
#12 = EDGE_LOOP ( 'NONE', ( #185 ) ) ;
#13 = DIRECTION ( 'NONE',  ( 4.275831445896958607E-31, 1.000000000000000000, 1.224646799147353207E-16 ) ) ;
#14 = AXIS2_PLACEMENT_3D ( 'NONE', #16, #133, #114 ) ;
#15 = FACE_OUTER_BOUND ( 'NONE', #111, .T. ) ;
#16 = CARTESIAN_POINT ( 'NONE',  ( 3.491481338843133355E-14, 1.409774195702140568E-32, 10.00000000000000000 ) ) ;
#17 = CARTESIAN_POINT ( 'NONE',  ( 2.444036937190193601E-13, 1.199999999999992628, 70.00000000000000000 ) ) ;
#18 = DIRECTION ( 'NONE',  ( -3.491481338843133355E-15, 1.224646799147353207E-16, -1.000000000000000000 ) ) ;
#19 = EDGE_CURVE ( 'NONE', #4, #4, #188, .T. ) ;
#20 = FACE_OUTER_BOUND ( 'NONE', #38, .T. ) ;
#21 = DIRECTION ( 'NONE',  ( 0.0000000000000000000, 1.000000000000000000, 0.0000000000000000000 ) ) ;
#22 = FACE_BOUND ( 'NONE', #12, .T. ) ;
#23 = EDGE_CURVE ( 'NONE', #49, #49, #147, .T. ) ;
#24 = PLANE ( 'NONE',  #261 ) ;
#25 = VERTEX_POINT ( 'NONE', #17 ) ;
#26 = CONICAL_SURFACE ( 'NONE', #301, 1.629999999999994120, 0.7853981633974500554 ) ;
#27 = AXIS2_PLACEMENT_3D ( 'NONE', #231, #293, #254 ) ;
#28 = PRODUCT_DEFINITION_FORMATION_WITH_SPECIFIED_SOURCE ( 'ANY', '', #140, .NOT_KNOWN. ) ;
#29 = CARTESIAN_POINT ( 'NONE',  ( 2.433562493173664138E-13, 1.499999999999992673, 69.70000000000001705 ) ) ;
#30 = APPLICATION_PROTOCOL_DEFINITION ( 'international standard', 'config_control_design', 1994, #179 ) ;
#31 = CARTESIAN_POINT ( 'NONE',  ( 8.728703347107833388E-16, 1.879999999999995008, 0.2500000000000000000 ) ) ;
#32 = CARTESIAN_POINT ( 'NONE',  ( 3.491481338843133355E-14, -1.224646799147353256E-15, 10.00000000000000000 ) ) ;
#33 = DIRECTION ( 'NONE',  ( 0.0000000000000000000, 0.0000000000000000000, 1.000000000000000000 ) ) ;
#34 = APPROVAL ( #64, 'UNSPECIFIED' ) ;
#35 = LOCAL_TIME ( 10, 36, 1.000000000000000000, #183 ) ;
#36 = ORIENTED_EDGE ( 'NONE', *, *, #195, .T. ) ;
#37 = PERSON_AND_ORGANIZATION_ROLE ( 'design_supplier' ) ;
#38 = EDGE_LOOP ( 'NONE', ( #291 ) ) ;
#39 = EDGE_LOOP ( 'NONE', ( #102 ) ) ;
#40 = DIRECTION ( 'NONE',  ( -3.491481338843133355E-15, 1.224646799147353207E-16, -1.000000000000000000 ) ) ;
#41 = FACE_OUTER_BOUND ( 'NONE', #287, .T. ) ;
#42 = APPROVAL_ROLE ( '' ) ;
#43 = FACE_BOUND ( 'NONE', #113, .T. ) ;
#44 = PERSON_AND_ORGANIZATION ( #76, #296 ) ;
#45 = FACE_OUTER_BOUND ( 'NONE', #126, .T. ) ;
#46 = ADVANCED_FACE ( 'NONE', ( #20 ), #24, .F. ) ;
#47 = DIRECTION ( 'NONE',  ( 0.0000000000000000000, 1.000000000000000000, 0.0000000000000000000 ) ) ;
#48 = ADVANCED_FACE ( 'NONE', ( #71 ), #184, .F. ) ;
#49 = VERTEX_POINT ( 'NONE', #303 ) ;
#50 = CARTESIAN_POINT ( 'NONE',  ( 2.444036937190193601E-13, -8.572527594031472993E-15, 70.00000000000000000 ) ) ;
#51 = DIRECTION ( 'NONE',  ( -3.491481338843133355E-15, 1.224646799147353207E-16, -1.000000000000000000 ) ) ;
#52 = COORDINATED_UNIVERSAL_TIME_OFFSET ( 1, 0, .AHEAD. ) ;
#53 = CARTESIAN_POINT ( 'NONE',  ( 0.0000000000000000000, 1.629999999999994120, 0.0000000000000000000 ) ) ;
#54 = DIRECTION ( 'NONE',  ( 4.275831445896958607E-31, 1.000000000000000000, 1.224646799147353207E-16 ) ) ;
#55 = AXIS2_PLACEMENT_3D ( 'NONE', #170, #70, #47 ) ;
#56 = MANIFOLD_SOLID_BREP ( 'Corps-Déplacer/Copier1[1]', #62 ) ;
#57 = DIRECTION ( 'NONE',  ( -3.491481338843133355E-15, 1.224646799147353207E-16, -1.000000000000000000 ) ) ;
#58 = FACE_OUTER_BOUND ( 'NONE', #94, .T. ) ;
#59 = SECURITY_CLASSIFICATION_LEVEL ( 'unclassified' ) ;
#60 = ORIENTED_EDGE ( 'NONE', *, *, #168, .F. ) ;
#61 = AXIS2_PLACEMENT_3D ( 'NONE', #107, #230, #13 ) ;
#62 = CLOSED_SHELL ( 'NONE', ( #190, #1, #235, #136, #48 ) ) ;
#63 = FACE_BOUND ( 'NONE', #10, .T. ) ;
#64 = APPROVAL_STATUS ( 'not_yet_approved' ) ;
#65 = DIRECTION ( 'NONE',  ( 4.275831445896958607E-31, 1.000000000000000000, 1.224646799147353207E-16 ) ) ;
#66 = CIRCLE ( 'NONE', #27, 1.200000000000001510 ) ;
#67 = ORIENTED_EDGE ( 'NONE', *, *, #23, .T. ) ;
#68 = DIRECTION ( 'NONE',  ( 1.000000000000000000, 0.0000000000000000000, 0.0000000000000000000 ) ) ;
#69 = CARTESIAN_POINT ( 'NONE',  ( 3.491481338843133355E-14, 1.879999999999993676, 10.00000000000000000 ) ) ;
#70 = DIRECTION ( 'NONE',  ( -3.491481338843133355E-15, 1.224646799147353207E-16, -1.000000000000000000 ) ) ;
#71 = FACE_OUTER_BOUND ( 'NONE', #244, .T. ) ;
#72 = EDGE_LOOP ( 'NONE', ( #103 ) ) ;
#73 = DIRECTION ( 'NONE',  ( -3.491481338843133355E-15, 1.224646799147353207E-16, -1.000000000000000000 ) ) ;
#74 =( NAMED_UNIT ( * ) SI_UNIT ( $, .STERADIAN. ) SOLID_ANGLE_UNIT ( ) );
#75 = CONICAL_SURFACE ( 'NONE', #243, 1.879999999999995008, 0.5235987755983009251 ) ;
#76 = PERSON ( 'UNSPECIFIED', 'UNSPECIFIED', 'UNSPECIFIED', ('UNSPECIFIED'), ('UNSPECIFIED'), ('UNSPECIFIED') ) ;
#77 = APPROVAL_DATE_TIME ( #215, #282 ) ;
#78 = VERTEX_POINT ( 'NONE', #69 ) ;
#79 = CONICAL_SURFACE ( 'NONE', #11, 1.200000000000001510, 0.7853981633974566057 ) ;
#80 = LOCAL_TIME ( 10, 36, 1.000000000000000000, #52 ) ;
#81 = DATE_AND_TIME ( #159, #272 ) ;
#82 = PERSON_AND_ORGANIZATION ( #76, #296 ) ;
#83 = CARTESIAN_POINT ( 'NONE',  ( 0.0000000000000000000, 0.0000000000000000000, 0.0000000000000000000 ) ) ;
#84 = DIRECTION ( 'NONE',  ( -3.491481338843133355E-15, 1.224646799147353207E-16, -1.000000000000000000 ) ) ;
#85 = CC_DESIGN_PERSON_AND_ORGANIZATION_ASSIGNMENT ( #82, #37, ( #28 ) ) ;
#86 = AXIS2_PLACEMENT_3D ( 'NONE', #277, #51, #264 ) ;
#87 = DIRECTION ( 'NONE',  ( -3.491481338843133355E-15, 1.224646799147353207E-16, -1.000000000000000000 ) ) ;
#88 = DIRECTION ( 'NONE',  ( -4.275831445896958607E-31, -1.000000000000000000, -1.224646799147353207E-16 ) ) ;
#89 = EDGE_CURVE ( 'NONE', #25, #25, #207, .T. ) ;
#90 = VERTEX_POINT ( 'NONE', #121 ) ;
#91 = AXIS2_PLACEMENT_3D ( 'NONE', #300, #87, #65 ) ;
#92 =( GEOMETRIC_REPRESENTATION_CONTEXT ( 3 ) GLOBAL_UNCERTAINTY_ASSIGNED_CONTEXT ( ( #265 ) ) GLOBAL_UNIT_ASSIGNED_CONTEXT ( ( #145, #7, #74 ) ) REPRESENTATION_CONTEXT ( 'NONE', 'WORKASPACE' ) );
#93 = CARTESIAN_POINT ( 'NONE',  ( 3.721283415600220529E-14, -1.305250517290446362E-15, 10.65817930687617476 ) ) ;
#94 = EDGE_LOOP ( 'NONE', ( #197 ) ) ;
#95 = CONICAL_SURFACE ( 'NONE', #248, 1.879999999999995008, 0.5235987755983009251 ) ;
#96 = LOCAL_TIME ( 10, 36, 1.000000000000000000, #284 ) ;
#97 = DIRECTION ( 'NONE',  ( -3.491481338843133355E-15, 1.224646799147353207E-16, -1.000000000000000000 ) ) ;
#98 = CARTESIAN_POINT ( 'NONE',  ( 3.721283415600220529E-14, -1.305250517290446362E-15, 10.65817930687617476 ) ) ;
#99 = CC_DESIGN_PERSON_AND_ORGANIZATION_ASSIGNMENT ( #5, #2, ( #266 ) ) ;
#100 = AXIS2_PLACEMENT_3D ( 'NONE', #191, #138, #210 ) ;
#101 = CALENDAR_DATE ( 2021, 2, 12 ) ;
#102 = ORIENTED_EDGE ( 'NONE', *, *, #19, .T. ) ;
#103 = ORIENTED_EDGE ( 'NONE', *, *, #3, .F. ) ;
#104 = CARTESIAN_POINT ( 'NONE',  ( 2.433562493173664138E-13, -8.535788190057053710E-15, 69.70000000000001705 ) ) ;
#105 = CIRCLE ( 'NONE', #118, 1.879999999999995008 ) ;
#106 = EDGE_LOOP ( 'NONE', ( #295 ) ) ;
#107 = CARTESIAN_POINT ( 'NONE',  ( -6.969605256812016832E-31, 2.444608445738818924E-32, -1.996174282610178349E-16 ) ) ;
#108 = DATE_TIME_ROLE ( 'classification_date' ) ;
#109 = ORIENTED_EDGE ( 'NONE', *, *, #211, .F. ) ;
#110 = DIRECTION ( 'NONE',  ( 0.0000000000000000000, 1.000000000000000000, 0.0000000000000000000 ) ) ;
#111 = EDGE_LOOP ( 'NONE', ( #234 ) ) ;
#112 = DIRECTION ( 'NONE',  ( 0.0000000000000000000, 1.000000000000000000, 0.0000000000000000000 ) ) ;
#113 = EDGE_LOOP ( 'NONE', ( #128 ) ) ;
#114 = DIRECTION ( 'NONE',  ( -4.275831445896958607E-31, -1.000000000000000000, -1.224646799147353207E-16 ) ) ;
#115 = AXIS2_PLACEMENT_3D ( 'NONE', #104, #220, #134 ) ;
#116 = APPROVAL_PERSON_ORGANIZATION ( #171, #282, #144 ) ;
#117 = EDGE_LOOP ( 'NONE', ( #109 ) ) ;
#118 = AXIS2_PLACEMENT_3D ( 'NONE', #250, #129, #192 ) ;
#119 = FACE_OUTER_BOUND ( 'NONE', #202, .T. ) ;
#120 = PERSON_AND_ORGANIZATION_ROLE ( 'design_owner' ) ;
#121 = CARTESIAN_POINT ( 'NONE',  ( 2.444036937190193601E-13, 1.199999999999992628, 70.00000000000000000 ) ) ;
#122 = APPLICATION_PROTOCOL_DEFINITION ( 'international standard', 'config_control_design', 1994, #149 ) ;
#123 = CIRCLE ( 'NONE', #61, 1.629999999999994120 ) ;
#124 = CC_DESIGN_APPROVAL ( #282, ( #266 ) ) ;
#125 = CC_DESIGN_PERSON_AND_ORGANIZATION_ASSIGNMENT ( #212, #120, ( #140 ) ) ;
#126 = EDGE_LOOP ( 'NONE', ( #258 ) ) ;
#127 = PERSON_AND_ORGANIZATION ( #76, #296 ) ;
#128 = ORIENTED_EDGE ( 'NONE', *, *, #195, .F. ) ;
#129 = DIRECTION ( 'NONE',  ( -3.491481338843133355E-15, 1.224646799147353207E-16, -1.000000000000000000 ) ) ;
#130 = CC_DESIGN_APPROVAL ( #213, ( #28 ) ) ;
#131 = DIRECTION ( 'NONE',  ( -3.491481338843133355E-15, 1.224646799147353207E-16, -1.000000000000000000 ) ) ;
#132 = EDGE_LOOP ( 'NONE', ( #224 ) ) ;
#133 = DIRECTION ( 'NONE',  ( 3.491481338843133355E-15, -1.224646799147353207E-16, 1.000000000000000000 ) ) ;
#134 = DIRECTION ( 'NONE',  ( 0.0000000000000000000, 1.000000000000000000, 0.0000000000000000000 ) ) ;
#135 = CARTESIAN_POINT ( 'NONE',  ( 2.444036937190193601E-13, -8.572527594031472993E-15, 70.00000000000000000 ) ) ;
#136 = ADVANCED_FACE ( 'NONE', ( #189, #63 ), #79, .T. ) ;
#137 = CONICAL_SURFACE ( 'NONE', #288, 1.200000000000001510, 0.7853981633974566057 ) ;
#138 = DIRECTION ( 'NONE',  ( -3.491481338843133355E-15, 1.224646799147353207E-16, -1.000000000000000000 ) ) ;
#139 = CARTESIAN_POINT ( 'NONE',  ( 3.491481338843133355E-14, -1.224646799147353256E-15, 10.00000000000000000 ) ) ;
#140 = PRODUCT ( '321602', '321602', '', ( #285 ) ) ;
#141 = CARTESIAN_POINT ( 'NONE',  ( 3.721283415600220529E-14, 1.499999999999991562, 10.65817930687617476 ) ) ;
#142 = CC_DESIGN_PERSON_AND_ORGANIZATION_ASSIGNMENT ( #44, #9, ( #148 ) ) ;
#143 = CARTESIAN_POINT ( 'NONE',  ( 2.433562493173664138E-13, 1.499999999999992673, 69.70000000000001705 ) ) ;
#144 = APPROVAL_ROLE ( '' ) ;
#145 =( LENGTH_UNIT ( ) NAMED_UNIT ( * ) SI_UNIT ( .MILLI., .METRE. ) );
#146 = COORDINATED_UNIVERSAL_TIME_OFFSET ( 1, 0, .AHEAD. ) ;
#147 = CIRCLE ( 'NONE', #283, 1.879999999999995008 ) ;
#148 = SECURITY_CLASSIFICATION ( '', '', #59 ) ;
#149 = APPLICATION_CONTEXT ( 'configuration controlled 3d designs of mechanical parts and assemblies' ) ;
#150 = ORIENTED_EDGE ( 'NONE', *, *, #211, .T. ) ;
#151 = EDGE_LOOP ( 'NONE', ( #290 ) ) ;
#152 = CYLINDRICAL_SURFACE ( 'NONE', #271, 1.879999999999995008 ) ;
#153 = COORDINATED_UNIVERSAL_TIME_OFFSET ( 1, 0, .AHEAD. ) ;
#154 = EDGE_LOOP ( 'NONE', ( #251 ) ) ;
#155 = CARTESIAN_POINT ( 'NONE',  ( 2.444036937190193601E-13, 8.998558695971026591E-33, 70.00000000000000000 ) ) ;
#156 = PERSON_AND_ORGANIZATION_ROLE ( 'creator' ) ;
#157 = MANIFOLD_SOLID_BREP ( 'Corps-Déplacer/Copier1[2]', #242 ) ;
#158 = CARTESIAN_POINT ( 'NONE',  ( 2.444036937190193601E-13, -8.572527594031472993E-15, 70.00000000000000000 ) ) ;
#159 = CALENDAR_DATE ( 2021, 2, 12 ) ;
#160 = ADVANCED_FACE ( 'NONE', ( #205, #269 ), #137, .T. ) ;
#161 = DIRECTION ( 'NONE',  ( 4.275831445896958607E-31, 1.000000000000000000, 1.224646799147353207E-16 ) ) ;
#162 = CARTESIAN_POINT ( 'NONE',  ( 2.444036937190193601E-13, -8.572527594031472993E-15, 70.00000000000000000 ) ) ;
#163 = CIRCLE ( 'NONE', #225, 1.879999999999995008 ) ;
#164 = AXIS2_PLACEMENT_3D ( 'NONE', #98, #97, #236 ) ;
#165 = CARTESIAN_POINT ( 'NONE',  ( 0.0000000000000000000, 0.0000000000000000000, 0.0000000000000000000 ) ) ;
#166 = CC_DESIGN_DATE_AND_TIME_ASSIGNMENT ( #81, #108, ( #148 ) ) ;
#167 = AXIS2_PLACEMENT_3D ( 'NONE', #165, #33, #68 ) ;
#168 = EDGE_CURVE ( 'NONE', #90, #90, #66, .T. ) ;
#169 = FACE_BOUND ( 'NONE', #106, .T. ) ;
#170 = CARTESIAN_POINT ( 'NONE',  ( 2.433562493173664138E-13, -8.535788190057053710E-15, 69.70000000000001705 ) ) ;
#171 = PERSON_AND_ORGANIZATION ( #76, #296 ) ;
#172 = CIRCLE ( 'NONE', #8, 1.499999999999992895 ) ;
#173 = CC_DESIGN_SECURITY_CLASSIFICATION ( #148, ( #28 ) ) ;
#174 = CYLINDRICAL_SURFACE ( 'NONE', #86, 1.499999999999996891 ) ;
#175 = DATE_AND_TIME ( #101, #80 ) ;
#176 = CALENDAR_DATE ( 2021, 2, 12 ) ;
#177 = CARTESIAN_POINT ( 'NONE',  ( 3.721283415600220529E-14, 1.499999999999991562, 10.65817930687617476 ) ) ;
#178 = ADVANCED_FACE ( 'NONE', ( #15, #43 ), #26, .T. ) ;
#179 = APPLICATION_CONTEXT ( 'configuration controlled 3d designs of mechanical parts and assemblies' ) ;
#180 = DATE_AND_TIME ( #176, #96 ) ;
#181 = ORIENTED_EDGE ( 'NONE', *, *, #270, .F. ) ;
#182 = AXIS2_PLACEMENT_3D ( 'NONE', #158, #84, #110 ) ;
#183 = COORDINATED_UNIVERSAL_TIME_OFFSET ( 1, 0, .AHEAD. ) ;
#184 = PLANE ( 'NONE',  #214 ) ;
#185 = ORIENTED_EDGE ( 'NONE', *, *, #270, .T. ) ;
#186 = DIRECTION ( 'NONE',  ( 0.0000000000000000000, 1.000000000000000000, 0.0000000000000000000 ) ) ;
#187 = CALENDAR_DATE ( 2021, 2, 12 ) ;
#188 = CIRCLE ( 'NONE', #115, 1.500000000000001110 ) ;
#189 = FACE_OUTER_BOUND ( 'NONE', #72, .T. ) ;
#190 = ADVANCED_FACE ( 'NONE', ( #226 ), #294, .F. ) ;
#191 = CARTESIAN_POINT ( 'NONE',  ( 0.0000000000000000000, 0.0000000000000000000, 0.0000000000000000000 ) ) ;
#192 = DIRECTION ( 'NONE',  ( 0.0000000000000000000, 1.000000000000000000, 0.0000000000000000000 ) ) ;
#193 = ORIENTED_EDGE ( 'NONE', *, *, #168, .T. ) ;
#194 = DIRECTION ( 'NONE',  ( 0.0000000000000000000, 1.000000000000000000, 0.0000000000000000000 ) ) ;
#195 = EDGE_CURVE ( 'NONE', #278, #278, #123, .T. ) ;
#196 = CALENDAR_DATE ( 2021, 2, 12 ) ;
#197 = ORIENTED_EDGE ( 'NONE', *, *, #223, .F. ) ;
#198 = DIRECTION ( 'NONE',  ( -3.491481338843133355E-15, 1.224646799147353207E-16, -1.000000000000000000 ) ) ;
#199 = CIRCLE ( 'NONE', #55, 1.500000000000001110 ) ;
#200 = APPROVAL_PERSON_ORGANIZATION ( #127, #34, #42 ) ;
#201 = DIRECTION ( 'NONE',  ( 0.0000000000000000000, 1.000000000000000000, 0.0000000000000000000 ) ) ;
#202 = EDGE_LOOP ( 'NONE', ( #237 ) ) ;
#203 = FACE_OUTER_BOUND ( 'NONE', #268, .T. ) ;
#204 = ADVANCED_BREP_SHAPE_REPRESENTATION ( '321602', ( #56, #157, #167 ), #92 ) ;
#205 = FACE_OUTER_BOUND ( 'NONE', #151, .T. ) ;
#206 = EDGE_LOOP ( 'NONE', ( #181 ) ) ;
#207 = CIRCLE ( 'NONE', #182, 1.200000000000001510 ) ;
#208 = CARTESIAN_POINT ( 'NONE',  ( 8.728703347107825500E-16, -3.061616997868380553E-17, 0.2499999999999997780 ) ) ;
#209 = DIRECTION ( 'NONE',  ( 3.491481338843133355E-15, -1.224646799147353207E-16, 1.000000000000000000 ) ) ;
#210 = DIRECTION ( 'NONE',  ( 4.275831445896958607E-31, 1.000000000000000000, 1.224646799147353454E-16 ) ) ;
#211 = EDGE_CURVE ( 'NONE', #78, #78, #105, .T. ) ;
#212 = PERSON_AND_ORGANIZATION ( #76, #296 ) ;
#213 = APPROVAL ( #246, 'UNSPECIFIED' ) ;
#214 = AXIS2_PLACEMENT_3D ( 'NONE', #155, #245, #161 ) ;
#215 = DATE_AND_TIME ( #196, #289 ) ;
#216 = APPROVAL_DATE_TIME ( #180, #213 ) ;
#217 = VERTEX_POINT ( 'NONE', #141 ) ;
#218 = CARTESIAN_POINT ( 'NONE',  ( 3.491481338843133355E-14, -1.224646799147353256E-15, 10.00000000000000000 ) ) ;
#219 = CC_DESIGN_DATE_AND_TIME_ASSIGNMENT ( #175, #241, ( #266 ) ) ;
#220 = DIRECTION ( 'NONE',  ( -3.491481338843133355E-15, 1.224646799147353207E-16, -1.000000000000000000 ) ) ;
#221 = VERTEX_POINT ( 'NONE', #29 ) ;
#222 = FACE_OUTER_BOUND ( 'NONE', #117, .T. ) ;
#223 = EDGE_CURVE ( 'NONE', #259, #259, #163, .T. ) ;
#224 = ORIENTED_EDGE ( 'NONE', *, *, #89, .T. ) ;
#225 = AXIS2_PLACEMENT_3D ( 'NONE', #208, #297, #276 ) ;
#226 = FACE_OUTER_BOUND ( 'NONE', #247, .T. ) ;
#227 = DIRECTION ( 'NONE',  ( 4.275831445896957731E-31, 1.000000000000000000, 1.224646799147353207E-16 ) ) ;
#228 = APPROVAL_ROLE ( '' ) ;
#229 = ADVANCED_FACE ( 'NONE', ( #203 ), #232, .T. ) ;
#230 = DIRECTION ( 'NONE',  ( -3.491481338843133355E-15, 1.224646799147353207E-16, -1.000000000000000000 ) ) ;
#231 = CARTESIAN_POINT ( 'NONE',  ( 2.444036937190193601E-13, -8.572527594031472993E-15, 70.00000000000000000 ) ) ;
#232 = PLANE ( 'NONE',  #91 ) ;
#233 = PRODUCT_RELATED_PRODUCT_CATEGORY ( 'detail', '', ( #140 ) ) ;
#234 = ORIENTED_EDGE ( 'NONE', *, *, #223, .T. ) ;
#235 = ADVANCED_FACE ( 'NONE', ( #256, #45 ), #267, .T. ) ;
#236 = DIRECTION ( 'NONE',  ( 0.0000000000000000000, 1.000000000000000000, 0.0000000000000000000 ) ) ;
#237 = ORIENTED_EDGE ( 'NONE', *, *, #292, .F. ) ;
#238 = CIRCLE ( 'NONE', #164, 1.499999999999992895 ) ;
#239 = DIRECTION ( 'NONE',  ( -3.491481338843133355E-15, 1.224646799147353207E-16, -1.000000000000000000 ) ) ;
#240 = FACE_OUTER_BOUND ( 'NONE', #39, .T. ) ;
#241 = DATE_TIME_ROLE ( 'creation_date' ) ;
#242 = CLOSED_SHELL ( 'NONE', ( #275, #257, #178, #229, #46, #160, #279 ) ) ;
#243 = AXIS2_PLACEMENT_3D ( 'NONE', #218, #73, #260 ) ;
#244 = EDGE_LOOP ( 'NONE', ( #60 ) ) ;
#245 = DIRECTION ( 'NONE',  ( -3.491481338843133355E-15, 1.224646799147353207E-16, -1.000000000000000000 ) ) ;
#246 = APPROVAL_STATUS ( 'not_yet_approved' ) ;
#247 = EDGE_LOOP ( 'NONE', ( #150 ) ) ;
#248 = AXIS2_PLACEMENT_3D ( 'NONE', #32, #198, #201 ) ;
#249 = CC_DESIGN_APPROVAL ( #34, ( #148 ) ) ;
#250 = CARTESIAN_POINT ( 'NONE',  ( 3.491481338843133355E-14, -1.224646799147353256E-15, 10.00000000000000000 ) ) ;
#251 = ORIENTED_EDGE ( 'NONE', *, *, #23, .F. ) ;
#252 = SHAPE_DEFINITION_REPRESENTATION ( #298, #204 ) ;
#253 = CC_DESIGN_PERSON_AND_ORGANIZATION_ASSIGNMENT ( #280, #156, ( #28 ) ) ;
#254 = DIRECTION ( 'NONE',  ( 0.0000000000000000000, 1.000000000000000000, 0.0000000000000000000 ) ) ;
#255 = APPROVAL_DATE_TIME ( #274, #34 ) ;
#256 = FACE_OUTER_BOUND ( 'NONE', #206, .T. ) ;
#257 = ADVANCED_FACE ( 'NONE', ( #41, #58 ), #152, .T. ) ;
#258 = ORIENTED_EDGE ( 'NONE', *, *, #3, .T. ) ;
#259 = VERTEX_POINT ( 'NONE', #31 ) ;
#260 = DIRECTION ( 'NONE',  ( 0.0000000000000000000, 1.000000000000000000, 0.0000000000000000000 ) ) ;
#261 = AXIS2_PLACEMENT_3D ( 'NONE', #50, #57, #54 ) ;
#262 = APPROVAL_STATUS ( 'not_yet_approved' ) ;
#263 = PERSON_AND_ORGANIZATION ( #76, #296 ) ;
#264 = DIRECTION ( 'NONE',  ( 4.275831445896958607E-31, 1.000000000000000000, 1.224646799147353454E-16 ) ) ;
#265 = UNCERTAINTY_MEASURE_WITH_UNIT (LENGTH_MEASURE( 1.000000000000000082E-05 ), #145, 'distance_accuracy_value', 'NONE');
#266 = PRODUCT_DEFINITION ( 'UNKNOWN', '', #28, #286 ) ;
#267 = CYLINDRICAL_SURFACE ( 'NONE', #100, 1.499999999999996891 ) ;
#268 = EDGE_LOOP ( 'NONE', ( #36 ) ) ;
#269 = FACE_BOUND ( 'NONE', #132, .T. ) ;
#270 = EDGE_CURVE ( 'NONE', #6, #6, #172, .T. ) ;
#271 = AXIS2_PLACEMENT_3D ( 'NONE', #83, #131, #227 ) ;
#272 = LOCAL_TIME ( 10, 36, 1.000000000000000000, #153 ) ;
#273 = DIRECTION ( 'NONE',  ( -3.491481338843133355E-15, 1.224646799147353207E-16, -1.000000000000000000 ) ) ;
#274 = DATE_AND_TIME ( #187, #35 ) ;
#275 = ADVANCED_FACE ( 'NONE', ( #169, #281 ), #75, .T. ) ;
#276 = DIRECTION ( 'NONE',  ( 4.097723285930300006E-31, 1.000000000000000000, 1.153406566473943971E-16 ) ) ;
#277 = CARTESIAN_POINT ( 'NONE',  ( 0.0000000000000000000, 0.0000000000000000000, 0.0000000000000000000 ) ) ;
#278 = VERTEX_POINT ( 'NONE', #53 ) ;
#279 = ADVANCED_FACE ( 'NONE', ( #119, #240 ), #174, .T. ) ;
#280 = PERSON_AND_ORGANIZATION ( #76, #296 ) ;
#281 = FACE_OUTER_BOUND ( 'NONE', #154, .T. ) ;
#282 = APPROVAL ( #262, 'UNSPECIFIED' ) ;
#283 = AXIS2_PLACEMENT_3D ( 'NONE', #139, #18, #21 ) ;
#284 = COORDINATED_UNIVERSAL_TIME_OFFSET ( 1, 0, .AHEAD. ) ;
#285 = MECHANICAL_CONTEXT ( 'NONE', #149, 'mechanical' ) ;
#286 = DESIGN_CONTEXT ( 'detailed design', #179, 'design' ) ;
#287 = EDGE_LOOP ( 'NONE', ( #67 ) ) ;
#288 = AXIS2_PLACEMENT_3D ( 'NONE', #135, #40, #186 ) ;
#289 = LOCAL_TIME ( 10, 36, 1.000000000000000000, #146 ) ;
#290 = ORIENTED_EDGE ( 'NONE', *, *, #19, .F. ) ;
#291 = ORIENTED_EDGE ( 'NONE', *, *, #89, .F. ) ;
#292 = EDGE_CURVE ( 'NONE', #217, #217, #238, .T. ) ;
#293 = DIRECTION ( 'NONE',  ( -3.491481338843133355E-15, 1.224646799147353207E-16, -1.000000000000000000 ) ) ;
#294 = PLANE ( 'NONE',  #14 ) ;
#295 = ORIENTED_EDGE ( 'NONE', *, *, #292, .T. ) ;
#296 = ORGANIZATION ( 'UNSPECIFIED', 'UNSPECIFIED', '' ) ;
#297 = DIRECTION ( 'NONE',  ( -3.491481338843133355E-15, 1.224646799147353207E-16, -1.000000000000000000 ) ) ;
#298 = PRODUCT_DEFINITION_SHAPE ( 'NONE', 'NONE',  #266 ) ;
#299 = CARTESIAN_POINT ( 'NONE',  ( -6.969605256812016832E-31, 2.444608445738818924E-32, -1.996174282610178349E-16 ) ) ;
#300 = CARTESIAN_POINT ( 'NONE',  ( -3.484802628406008416E-31, 1.222304222869409462E-32, -9.980871413050891747E-17 ) ) ;
#301 = AXIS2_PLACEMENT_3D ( 'NONE', #299, #209, #88 ) ;
#302 = APPROVAL_PERSON_ORGANIZATION ( #263, #213, #228 ) ;
#303 = CARTESIAN_POINT ( 'NONE',  ( 3.491481338843133355E-14, 1.879999999999993676, 10.00000000000000000 ) ) ;
ENDSEC;
END-ISO-10303-21;
