ISO-10303-21;
HEADER;
FILE_DESCRIPTION (( 'STEP AP203' ),
    '1' );
FILE_NAME ('321601.step',
    '2021-12-02T09:36:00',
    ( '' ),
    ( '' ),
    'SwSTEP 2.0',
    'SolidWorks 2019',
    '' );
FILE_SCHEMA (( 'CONFIG_CONTROL_DESIGN' ));
ENDSEC;

DATA;
#1 = AXIS2_PLACEMENT_3D ( 'NONE', #57, #224, #210 ) ;
#2 = ORGANIZATION ( 'UNSPECIFIED', 'UNSPECIFIED', '' ) ;
#3 = EDGE_LOOP ( 'NONE', ( #222 ) ) ;
#4 = DATE_AND_TIME ( #247, #229 ) ;
#5 = ORIENTED_EDGE ( 'NONE', *, *, #202, .T. ) ;
#6 = AXIS2_PLACEMENT_3D ( 'NONE', #254, #145, #23 ) ;
#7 = DIRECTION ( 'NONE',  ( -3.491481338843133355E-15, 1.224646799147353207E-16, -1.000000000000000000 ) ) ;
#8 = DATE_AND_TIME ( #223, #83 ) ;
#9 = EDGE_LOOP ( 'NONE', ( #195 ) ) ;
#10 = ORIENTED_EDGE ( 'NONE', *, *, #26, .F. ) ;
#11 = CIRCLE ( 'NONE', #227, 1.500000000000001110 ) ;
#12 = DIRECTION ( 'NONE',  ( 0.0000000000000000000, 1.000000000000000000, 0.0000000000000000000 ) ) ;
#13 = DATE_AND_TIME ( #238, #243 ) ;
#14 = DIRECTION ( 'NONE',  ( 0.0000000000000000000, 1.000000000000000000, 0.0000000000000000000 ) ) ;
#15 = EDGE_CURVE ( 'NONE', #62, #62, #112, .T. ) ;
#16 = AXIS2_PLACEMENT_3D ( 'NONE', #278, #138, #14 ) ;
#17 = CARTESIAN_POINT ( 'NONE',  ( 8.552847072295026068E-47, 1.624999999999994005, 0.0000000000000000000 ) ) ;
#18 = EDGE_CURVE ( 'NONE', #122, #122, #258, .T. ) ;
#19 = DIRECTION ( 'NONE',  ( 0.0000000000000000000, 1.000000000000000000, 0.0000000000000000000 ) ) ;
#20 = AXIS2_PLACEMENT_3D ( 'NONE', #132, #240, #34 ) ;
#21 = CARTESIAN_POINT ( 'NONE',  ( 3.718259704063943024E-14, -1.304189942051721515E-15, 10.64951905283833078 ) ) ;
#22 = DIRECTION ( 'NONE',  ( -3.491481338843133355E-15, 1.224646799147353207E-16, -1.000000000000000000 ) ) ;
#23 = DIRECTION ( 'NONE',  ( 4.275831445896959482E-31, 1.000000000000000000, 1.224646799147353207E-16 ) ) ;
#24 = DIRECTION ( 'NONE',  ( -3.491481338843133355E-15, 1.224646799147353207E-16, -1.000000000000000000 ) ) ;
#25 = CIRCLE ( 'NONE', #6, 1.624999999999994005 ) ;
#26 = EDGE_CURVE ( 'NONE', #186, #186, #134, .T. ) ;
#27 = COORDINATED_UNIVERSAL_TIME_OFFSET ( 1, 0, .AHEAD. ) ;
#28 = COORDINATED_UNIVERSAL_TIME_OFFSET ( 1, 0, .AHEAD. ) ;
#29 = EDGE_LOOP ( 'NONE', ( #10 ) ) ;
#30 = DIRECTION ( 'NONE',  ( -4.275831445896959482E-31, -1.000000000000000000, -1.224646799147353207E-16 ) ) ;
#31 = PERSON_AND_ORGANIZATION_ROLE ( 'creator' ) ;
#32 = DIRECTION ( 'NONE',  ( -3.491481338843133355E-15, 1.224646799147353207E-16, -1.000000000000000000 ) ) ;
#33 = CARTESIAN_POINT ( 'NONE',  ( 3.718259704063943024E-14, -1.304189942051721515E-15, 10.64951905283833078 ) ) ;
#34 = DIRECTION ( 'NONE',  ( 0.0000000000000000000, 1.000000000000000000, 0.0000000000000000000 ) ) ;
#35 = DIRECTION ( 'NONE',  ( -3.491481338843133355E-15, 1.224646799147353207E-16, -1.000000000000000000 ) ) ;
#36 = VERTEX_POINT ( 'NONE', #45 ) ;
#37 = AXIS2_PLACEMENT_3D ( 'NONE', #212, #296, #81 ) ;
#38 = ORIENTED_EDGE ( 'NONE', *, *, #15, .F. ) ;
#39 = DIRECTION ( 'NONE',  ( 4.275831445896958607E-31, 1.000000000000000000, 1.224646799147353207E-16 ) ) ;
#40 = DIRECTION ( 'NONE',  ( -3.491481338843133355E-15, 1.224646799147353207E-16, -1.000000000000000000 ) ) ;
#41 = VERTEX_POINT ( 'NONE', #257 ) ;
#42 = AXIS2_PLACEMENT_3D ( 'NONE', #272, #204, #89 ) ;
#43 = PERSON_AND_ORGANIZATION ( #259, #2 ) ;
#44 = APPROVAL_PERSON_ORGANIZATION ( #158, #274, #162 ) ;
#45 = CARTESIAN_POINT ( 'NONE',  ( 3.491481338843133355E-14, 1.874999999999993561, 10.00000000000000000 ) ) ;
#46 = ORIENTED_EDGE ( 'NONE', *, *, #155, .F. ) ;
#47 = CC_DESIGN_PERSON_AND_ORGANIZATION_ASSIGNMENT ( #43, #299, ( #252 ) ) ;
#48 = ADVANCED_FACE ( 'NONE', ( #276, #288 ), #200, .T. ) ;
#49 = CYLINDRICAL_SURFACE ( 'NONE', #174, 1.499999999999996891 ) ;
#50 = DIRECTION ( 'NONE',  ( 0.0000000000000000000, 1.000000000000000000, 0.0000000000000000000 ) ) ;
#51 = CLOSED_SHELL ( 'NONE', ( #295, #98, #48, #72, #300 ) ) ;
#52 = ORIENTED_EDGE ( 'NONE', *, *, #18, .F. ) ;
#53 = APPROVAL ( #215, 'UNSPECIFIED' ) ;
#54 = ORIENTED_EDGE ( 'NONE', *, *, #131, .F. ) ;
#55 = PERSON_AND_ORGANIZATION_ROLE ( 'design_owner' ) ;
#56 = FACE_OUTER_BOUND ( 'NONE', #135, .T. ) ;
#57 = CARTESIAN_POINT ( 'NONE',  ( 0.0000000000000000000, 0.0000000000000000000, 0.0000000000000000000 ) ) ;
#58 = AXIS2_PLACEMENT_3D ( 'NONE', #149, #24, #19 ) ;
#59 = EDGE_LOOP ( 'NONE', ( #188 ) ) ;
#60 = FACE_BOUND ( 'NONE', #95, .T. ) ;
#61 = ORIENTED_EDGE ( 'NONE', *, *, #192, .F. ) ;
#62 = VERTEX_POINT ( 'NONE', #260 ) ;
#63 = DIRECTION ( 'NONE',  ( 3.491481338843133355E-15, -1.224646799147353207E-16, 1.000000000000000000 ) ) ;
#64 = CARTESIAN_POINT ( 'NONE',  ( 2.444036937190193601E-13, -8.572527594031472993E-15, 70.00000000000000000 ) ) ;
#65 = CONICAL_SURFACE ( 'NONE', #267, 1.624999999999994005, 0.7853981633974500554 ) ;
#66 = CC_DESIGN_SECURITY_CLASSIFICATION ( #109, ( #252 ) ) ;
#67 = APPROVAL_PERSON_ORGANIZATION ( #88, #169, #160 ) ;
#68 = CC_DESIGN_APPROVAL ( #169, ( #252 ) ) ;
#69 = FACE_OUTER_BOUND ( 'NONE', #118, .T. ) ;
#70 = MANIFOLD_SOLID_BREP ( 'Corps-Déplacer/Copier1[1]', #51 ) ;
#71 = CARTESIAN_POINT ( 'NONE',  ( 3.491481338843133355E-14, 1.874999999999993561, 10.00000000000000000 ) ) ;
#72 = ADVANCED_FACE ( 'NONE', ( #165, #293 ), #179, .T. ) ;
#73 = APPROVAL_DATE_TIME ( #13, #169 ) ;
#74 = VERTEX_POINT ( 'NONE', #277 ) ;
#75 = DIRECTION ( 'NONE',  ( 4.275831445896958607E-31, 1.000000000000000000, 1.224646799147353207E-16 ) ) ;
#76 = PERSON_AND_ORGANIZATION ( #259, #2 ) ;
#77 = EDGE_CURVE ( 'NONE', #168, #168, #220, .T. ) ;
#78 = FACE_OUTER_BOUND ( 'NONE', #196, .T. ) ;
#79 = CLOSED_SHELL ( 'NONE', ( #199, #104, #209, #187, #107, #289, #236 ) ) ;
#80 = CARTESIAN_POINT ( 'NONE',  ( 2.444036937190193601E-13, -8.572527594031472993E-15, 70.00000000000000000 ) ) ;
#81 = DIRECTION ( 'NONE',  ( 0.0000000000000000000, 1.000000000000000000, 0.0000000000000000000 ) ) ;
#82 = CC_DESIGN_DATE_AND_TIME_ASSIGNMENT ( #153, #266, ( #109 ) ) ;
#83 = LOCAL_TIME ( 10, 36, 0.0000000000000000000, #28 ) ;
#84 = DESIGN_CONTEXT ( 'detailed design', #125, 'design' ) ;
#85 = DATE_AND_TIME ( #265, #90 ) ;
#86 = PERSON_AND_ORGANIZATION ( #259, #2 ) ;
#87 = ORIENTED_EDGE ( 'NONE', *, *, #15, .T. ) ;
#88 = PERSON_AND_ORGANIZATION ( #259, #2 ) ;
#89 = DIRECTION ( 'NONE',  ( 0.0000000000000000000, 1.000000000000000000, 0.0000000000000000000 ) ) ;
#90 = LOCAL_TIME ( 10, 36, 0.0000000000000000000, #27 ) ;
#91 = PERSON_AND_ORGANIZATION ( #259, #2 ) ;
#92 = DIRECTION ( 'NONE',  ( -3.491481338843133355E-15, 1.224646799147353207E-16, -1.000000000000000000 ) ) ;
#93 = DIRECTION ( 'NONE',  ( 0.0000000000000000000, 1.000000000000000000, 0.0000000000000000000 ) ) ;
#94 = DIRECTION ( 'NONE',  ( -3.491481338843133355E-15, 1.224646799147353207E-16, -1.000000000000000000 ) ) ;
#95 = EDGE_LOOP ( 'NONE', ( #231 ) ) ;
#96 = PRODUCT ( '321601', '321601', '', ( #230 ) ) ;
#97 = CARTESIAN_POINT ( 'NONE',  ( 0.0000000000000000000, 0.0000000000000000000, 0.0000000000000000000 ) ) ;
#98 = ADVANCED_FACE ( 'NONE', ( #159, #163 ), #216, .T. ) ;
#99 = ADVANCED_BREP_SHAPE_REPRESENTATION ( '321601', ( #70, #172, #103 ), #221 ) ;
#100 = VERTEX_POINT ( 'NONE', #164 ) ;
#101 = ORIENTED_EDGE ( 'NONE', *, *, #269, .T. ) ;
#102 = CIRCLE ( 'NONE', #142, 1.874999999999994893 ) ;
#103 = AXIS2_PLACEMENT_3D ( 'NONE', #97, #170, #191 ) ;
#104 = ADVANCED_FACE ( 'NONE', ( #69, #146 ), #248, .T. ) ;
#105 = FACE_BOUND ( 'NONE', #110, .T. ) ;
#106 = PRODUCT_RELATED_PRODUCT_CATEGORY ( 'detail', '', ( #96 ) ) ;
#107 = ADVANCED_FACE ( 'NONE', ( #246 ), #286, .F. ) ;
#108 = AXIS2_PLACEMENT_3D ( 'NONE', #80, #301, #124 ) ;
#109 = SECURITY_CLASSIFICATION ( '', '', #250 ) ;
#110 = EDGE_LOOP ( 'NONE', ( #144 ) ) ;
#111 = PERSON_AND_ORGANIZATION_ROLE ( 'design_supplier' ) ;
#112 = CIRCLE ( 'NONE', #16, 1.500000000000001110 ) ;
#113 = PERSON_AND_ORGANIZATION ( #259, #2 ) ;
#114 = COORDINATED_UNIVERSAL_TIME_OFFSET ( 1, 0, .AHEAD. ) ;
#115 = CARTESIAN_POINT ( 'NONE',  ( 3.491481338843133355E-14, -1.224646799147353256E-15, 10.00000000000000000 ) ) ;
#116 = DATE_TIME_ROLE ( 'creation_date' ) ;
#117 = DIRECTION ( 'NONE',  ( -3.491481338843133355E-15, 1.224646799147353207E-16, -1.000000000000000000 ) ) ;
#118 = EDGE_LOOP ( 'NONE', ( #157 ) ) ;
#119 = CARTESIAN_POINT ( 'NONE',  ( 0.0000000000000000000, 0.0000000000000000000, 0.0000000000000000000 ) ) ;
#120 = DIRECTION ( 'NONE',  ( -3.491481338843133355E-15, 1.224646799147353207E-16, -1.000000000000000000 ) ) ;
#121 = APPROVAL_DATE_TIME ( #85, #53 ) ;
#122 = VERTEX_POINT ( 'NONE', #213 ) ;
#123 = DIRECTION ( 'NONE',  ( 0.0000000000000000000, 1.000000000000000000, 0.0000000000000000000 ) ) ;
#124 = DIRECTION ( 'NONE',  ( 0.0000000000000000000, 1.000000000000000000, 0.0000000000000000000 ) ) ;
#125 = APPLICATION_CONTEXT ( 'configuration controlled 3d designs of mechanical parts and assemblies' ) ;
#126 = PLANE ( 'NONE',  #141 ) ;
#127 = APPROVAL_ROLE ( '' ) ;
#128 = PLANE ( 'NONE',  #136 ) ;
#129 = FACE_OUTER_BOUND ( 'NONE', #255, .T. ) ;
#130 = EDGE_LOOP ( 'NONE', ( #273 ) ) ;
#131 = EDGE_CURVE ( 'NONE', #74, #74, #11, .T. ) ;
#132 = CARTESIAN_POINT ( 'NONE',  ( 3.491481338843133355E-14, -1.224646799147353256E-15, 10.00000000000000000 ) ) ;
#133 = AXIS2_PLACEMENT_3D ( 'NONE', #115, #117, #181 ) ;
#134 = CIRCLE ( 'NONE', #302, 1.200000000000001510 ) ;
#135 = EDGE_LOOP ( 'NONE', ( #38 ) ) ;
#136 = AXIS2_PLACEMENT_3D ( 'NONE', #189, #94, #39 ) ;
#137 = DIRECTION ( 'NONE',  ( 4.108650548026113955E-31, 1.000000000000000000, 1.156482317317874437E-16 ) ) ;
#138 = DIRECTION ( 'NONE',  ( -3.491481338843133355E-15, 1.224646799147353207E-16, -1.000000000000000000 ) ) ;
#139 = CC_DESIGN_PERSON_AND_ORGANIZATION_ASSIGNMENT ( #113, #55, ( #96 ) ) ;
#140 = ORIENTED_EDGE ( 'NONE', *, *, #268, .F. ) ;
#141 = AXIS2_PLACEMENT_3D ( 'NONE', #235, #194, #75 ) ;
#142 = AXIS2_PLACEMENT_3D ( 'NONE', #270, #32, #137 ) ;
#143 = CC_DESIGN_APPROVAL ( #274, ( #303 ) ) ;
#144 = ORIENTED_EDGE ( 'NONE', *, *, #18, .T. ) ;
#145 = DIRECTION ( 'NONE',  ( -3.491481338843133355E-15, 1.224646799147353207E-16, -1.000000000000000000 ) ) ;
#146 = FACE_OUTER_BOUND ( 'NONE', #241, .T. ) ;
#147 =( LENGTH_UNIT ( ) NAMED_UNIT ( * ) SI_UNIT ( .MILLI., .METRE. ) );
#148 = CALENDAR_DATE ( 2021, 2, 12 ) ;
#149 = CARTESIAN_POINT ( 'NONE',  ( 3.491481338843133355E-14, -1.224646799147353256E-15, 10.00000000000000000 ) ) ;
#150 = DIRECTION ( 'NONE',  ( -4.275831445896958607E-31, -1.000000000000000000, -1.224646799147353207E-16 ) ) ;
#151 = VERTEX_POINT ( 'NONE', #71 ) ;
#152 = DIRECTION ( 'NONE',  ( 4.275831445896958607E-31, 1.000000000000000000, 1.224646799147353454E-16 ) ) ;
#153 = DATE_AND_TIME ( #148, #228 ) ;
#154 = AXIS2_PLACEMENT_3D ( 'NONE', #167, #35, #178 ) ;
#155 = EDGE_CURVE ( 'NONE', #100, #100, #102, .T. ) ;
#156 = APPROVAL_DATE_TIME ( #4, #274 ) ;
#157 = ORIENTED_EDGE ( 'NONE', *, *, #192, .T. ) ;
#158 = PERSON_AND_ORGANIZATION ( #259, #2 ) ;
#159 = FACE_BOUND ( 'NONE', #177, .T. ) ;
#160 = APPROVAL_ROLE ( '' ) ;
#161 = DIRECTION ( 'NONE',  ( 4.275831445896959482E-31, 1.000000000000000000, 1.224646799147353207E-16 ) ) ;
#162 = APPROVAL_ROLE ( '' ) ;
#163 = FACE_OUTER_BOUND ( 'NONE', #193, .T. ) ;
#164 = CARTESIAN_POINT ( 'NONE',  ( 8.728703347107833388E-16, 1.874999999999994893, 0.2500000000000000000 ) ) ;
#165 = FACE_OUTER_BOUND ( 'NONE', #234, .T. ) ;
#166 = FACE_OUTER_BOUND ( 'NONE', #29, .T. ) ;
#167 = CARTESIAN_POINT ( 'NONE',  ( 2.444036937190193601E-13, -8.572527594031472993E-15, 70.00000000000000000 ) ) ;
#168 = VERTEX_POINT ( 'NONE', #279 ) ;
#169 = APPROVAL ( #180, 'UNSPECIFIED' ) ;
#170 = DIRECTION ( 'NONE',  ( 0.0000000000000000000, 0.0000000000000000000, 1.000000000000000000 ) ) ;
#171 = CARTESIAN_POINT ( 'NONE',  ( 3.491481338843133355E-14, 1.406024796245485623E-32, 10.00000000000000000 ) ) ;
#172 = MANIFOLD_SOLID_BREP ( 'Corps-Déplacer/Copier1[2]', #79 ) ;
#173 = CC_DESIGN_DATE_AND_TIME_ASSIGNMENT ( #8, #116, ( #303 ) ) ;
#174 = AXIS2_PLACEMENT_3D ( 'NONE', #119, #219, #152 ) ;
#175 = FACE_OUTER_BOUND ( 'NONE', #285, .T. ) ;
#176 = PERSON_AND_ORGANIZATION ( #259, #2 ) ;
#177 = EDGE_LOOP ( 'NONE', ( #101 ) ) ;
#178 = DIRECTION ( 'NONE',  ( 4.275831445896958607E-31, 1.000000000000000000, 1.224646799147353207E-16 ) ) ;
#179 = CONICAL_SURFACE ( 'NONE', #42, 1.200000000000001510, 0.7853981633974566057 ) ;
#180 = APPROVAL_STATUS ( 'not_yet_approved' ) ;
#181 = DIRECTION ( 'NONE',  ( 0.0000000000000000000, 1.000000000000000000, 0.0000000000000000000 ) ) ;
#182 = CIRCLE ( 'NONE', #37, 1.874999999999994893 ) ;
#183 = DIRECTION ( 'NONE',  ( -3.491481338843133355E-15, 1.224646799147353207E-16, -1.000000000000000000 ) ) ;
#184 = UNCERTAINTY_MEASURE_WITH_UNIT (LENGTH_MEASURE( 1.000000000000000082E-05 ), #147, 'distance_accuracy_value', 'NONE');
#185 = CARTESIAN_POINT ( 'NONE',  ( 2.433562493173664138E-13, -8.535788190057053710E-15, 69.70000000000001705 ) ) ;
#186 = VERTEX_POINT ( 'NONE', #233 ) ;
#187 = ADVANCED_FACE ( 'NONE', ( #129 ), #126, .T. ) ;
#188 = ORIENTED_EDGE ( 'NONE', *, *, #26, .T. ) ;
#189 = CARTESIAN_POINT ( 'NONE',  ( 2.444036937190193601E-13, 8.998558695971026591E-33, 70.00000000000000000 ) ) ;
#190 = PERSON_AND_ORGANIZATION_ROLE ( 'classification_officer' ) ;
#191 = DIRECTION ( 'NONE',  ( 1.000000000000000000, 0.0000000000000000000, 0.0000000000000000000 ) ) ;
#192 = EDGE_CURVE ( 'NONE', #151, #151, #182, .T. ) ;
#193 = EDGE_LOOP ( 'NONE', ( #140 ) ) ;
#194 = DIRECTION ( 'NONE',  ( -3.491481338843133355E-15, 1.224646799147353207E-16, -1.000000000000000000 ) ) ;
#195 = ORIENTED_EDGE ( 'NONE', *, *, #155, .T. ) ;
#196 = EDGE_LOOP ( 'NONE', ( #87 ) ) ;
#197 = CC_DESIGN_PERSON_AND_ORGANIZATION_ASSIGNMENT ( #91, #190, ( #109 ) ) ;
#198 = DIRECTION ( 'NONE',  ( 0.0000000000000000000, 1.000000000000000000, 0.0000000000000000000 ) ) ;
#199 = ADVANCED_FACE ( 'NONE', ( #105, #264 ), #283, .T. ) ;
#200 = CYLINDRICAL_SURFACE ( 'NONE', #1, 1.499999999999996891 ) ;
#201 = CARTESIAN_POINT ( 'NONE',  ( -6.948226099582532118E-31, 2.437109646825509855E-32, -1.990051048614441720E-16 ) ) ;
#202 = EDGE_CURVE ( 'NONE', #249, #249, #25, .T. ) ;
#203 = APPLICATION_PROTOCOL_DEFINITION ( 'international standard', 'config_control_design', 1994, #125 ) ;
#204 = DIRECTION ( 'NONE',  ( -3.491481338843133355E-15, 1.224646799147353207E-16, -1.000000000000000000 ) ) ;
#205 = CIRCLE ( 'NONE', #58, 1.874999999999994893 ) ;
#206 = SHAPE_DEFINITION_REPRESENTATION ( #256, #99 ) ;
#207 = FACE_BOUND ( 'NONE', #3, .T. ) ;
#208 = EDGE_LOOP ( 'NONE', ( #61 ) ) ;
#209 = ADVANCED_FACE ( 'NONE', ( #225, #207 ), #65, .T. ) ;
#210 = DIRECTION ( 'NONE',  ( 4.275831445896958607E-31, 1.000000000000000000, 1.224646799147353454E-16 ) ) ;
#211 = PLANE ( 'NONE',  #271 ) ;
#212 = CARTESIAN_POINT ( 'NONE',  ( 3.491481338843133355E-14, -1.224646799147353256E-15, 10.00000000000000000 ) ) ;
#213 = CARTESIAN_POINT ( 'NONE',  ( 3.718259704063943024E-14, 1.499999999999991562, 10.64951905283833078 ) ) ;
#214 = ORIENTED_EDGE ( 'NONE', *, *, #77, .F. ) ;
#215 = APPROVAL_STATUS ( 'not_yet_approved' ) ;
#216 = CONICAL_SURFACE ( 'NONE', #133, 1.874999999999994893, 0.5235987755983003700 ) ;
#217 = CC_DESIGN_PERSON_AND_ORGANIZATION_ASSIGNMENT ( #86, #31, ( #303 ) ) ;
#218 = ORIENTED_EDGE ( 'NONE', *, *, #268, .T. ) ;
#219 = DIRECTION ( 'NONE',  ( -3.491481338843133355E-15, 1.224646799147353207E-16, -1.000000000000000000 ) ) ;
#220 = CIRCLE ( 'NONE', #282, 1.200000000000001510 ) ;
#221 =( GEOMETRIC_REPRESENTATION_CONTEXT ( 3 ) GLOBAL_UNCERTAINTY_ASSIGNED_CONTEXT ( ( #184 ) ) GLOBAL_UNIT_ASSIGNED_CONTEXT ( ( #147, #298, #294 ) ) REPRESENTATION_CONTEXT ( 'NONE', 'WORKASPACE' ) );
#222 = ORIENTED_EDGE ( 'NONE', *, *, #202, .F. ) ;
#223 = CALENDAR_DATE ( 2021, 2, 12 ) ;
#224 = DIRECTION ( 'NONE',  ( -3.491481338843133355E-15, 1.224646799147353207E-16, -1.000000000000000000 ) ) ;
#225 = FACE_OUTER_BOUND ( 'NONE', #9, .T. ) ;
#226 = EDGE_LOOP ( 'NONE', ( #218 ) ) ;
#227 = AXIS2_PLACEMENT_3D ( 'NONE', #185, #40, #198 ) ;
#228 = LOCAL_TIME ( 10, 36, 0.0000000000000000000, #280 ) ;
#229 = LOCAL_TIME ( 10, 36, 0.0000000000000000000, #114 ) ;
#230 = MECHANICAL_CONTEXT ( 'NONE', #281, 'mechanical' ) ;
#231 = ORIENTED_EDGE ( 'NONE', *, *, #77, .T. ) ;
#232 = CONICAL_SURFACE ( 'NONE', #108, 1.200000000000001510, 0.7853981633974566057 ) ;
#233 = CARTESIAN_POINT ( 'NONE',  ( 2.444036937190193601E-13, 1.199999999999992628, 70.00000000000000000 ) ) ;
#234 = EDGE_LOOP ( 'NONE', ( #54 ) ) ;
#235 = CARTESIAN_POINT ( 'NONE',  ( -3.474113049791266059E-31, 1.218554823412754927E-32, -9.950255243072208601E-17 ) ) ;
#236 = ADVANCED_FACE ( 'NONE', ( #175, #78 ), #49, .T. ) ;
#237 = CIRCLE ( 'NONE', #263, 1.499999999999992895 ) ;
#238 = CALENDAR_DATE ( 2021, 2, 12 ) ;
#239 = CC_DESIGN_APPROVAL ( #53, ( #109 ) ) ;
#240 = DIRECTION ( 'NONE',  ( -3.491481338843133355E-15, 1.224646799147353207E-16, -1.000000000000000000 ) ) ;
#241 = EDGE_LOOP ( 'NONE', ( #46 ) ) ;
#242 = AXIS2_PLACEMENT_3D ( 'NONE', #33, #120, #123 ) ;
#243 = LOCAL_TIME ( 10, 36, 0.0000000000000000000, #245 ) ;
#244 = CARTESIAN_POINT ( 'NONE',  ( 2.444036937190193601E-13, -8.572527594031472993E-15, 70.00000000000000000 ) ) ;
#245 = COORDINATED_UNIVERSAL_TIME_OFFSET ( 1, 0, .AHEAD. ) ;
#246 = FACE_OUTER_BOUND ( 'NONE', #251, .T. ) ;
#247 = CALENDAR_DATE ( 2021, 2, 12 ) ;
#248 = CYLINDRICAL_SURFACE ( 'NONE', #262, 1.874999999999994893 ) ;
#249 = VERTEX_POINT ( 'NONE', #17 ) ;
#250 = SECURITY_CLASSIFICATION_LEVEL ( 'unclassified' ) ;
#251 = EDGE_LOOP ( 'NONE', ( #214 ) ) ;
#252 = PRODUCT_DEFINITION_FORMATION_WITH_SPECIFIED_SOURCE ( 'ANY', '', #96, .NOT_KNOWN. ) ;
#253 = FACE_OUTER_BOUND ( 'NONE', #226, .T. ) ;
#254 = CARTESIAN_POINT ( 'NONE',  ( -6.948226099582532118E-31, 2.437109646825509855E-32, -1.990051048614441720E-16 ) ) ;
#255 = EDGE_LOOP ( 'NONE', ( #5 ) ) ;
#256 = PRODUCT_DEFINITION_SHAPE ( 'NONE', 'NONE',  #303 ) ;
#257 = CARTESIAN_POINT ( 'NONE',  ( 3.718259704063943024E-14, 1.499999999999991562, 10.64951905283833078 ) ) ;
#258 = CIRCLE ( 'NONE', #242, 1.499999999999992895 ) ;
#259 = PERSON ( 'UNSPECIFIED', 'UNSPECIFIED', 'UNSPECIFIED', ('UNSPECIFIED'), ('UNSPECIFIED'), ('UNSPECIFIED') ) ;
#260 = CARTESIAN_POINT ( 'NONE',  ( 2.433562493173664138E-13, 1.499999999999992673, 69.70000000000001705 ) ) ;
#261 = EDGE_LOOP ( 'NONE', ( #287 ) ) ;
#262 = AXIS2_PLACEMENT_3D ( 'NONE', #290, #7, #161 ) ;
#263 = AXIS2_PLACEMENT_3D ( 'NONE', #21, #22, #50 ) ;
#264 = FACE_OUTER_BOUND ( 'NONE', #208, .T. ) ;
#265 = CALENDAR_DATE ( 2021, 2, 12 ) ;
#266 = DATE_TIME_ROLE ( 'classification_date' ) ;
#267 = AXIS2_PLACEMENT_3D ( 'NONE', #201, #63, #30 ) ;
#268 = EDGE_CURVE ( 'NONE', #36, #36, #205, .T. ) ;
#269 = EDGE_CURVE ( 'NONE', #41, #41, #237, .T. ) ;
#270 = CARTESIAN_POINT ( 'NONE',  ( 8.728703347107825500E-16, -3.061616997868380553E-17, 0.2499999999999997780 ) ) ;
#271 = AXIS2_PLACEMENT_3D ( 'NONE', #171, #275, #150 ) ;
#272 = CARTESIAN_POINT ( 'NONE',  ( 2.444036937190193601E-13, -8.572527594031472993E-15, 70.00000000000000000 ) ) ;
#273 = ORIENTED_EDGE ( 'NONE', *, *, #131, .T. ) ;
#274 = APPROVAL ( #284, 'UNSPECIFIED' ) ;
#275 = DIRECTION ( 'NONE',  ( 3.491481338843133355E-15, -1.224646799147353207E-16, 1.000000000000000000 ) ) ;
#276 = FACE_OUTER_BOUND ( 'NONE', #261, .T. ) ;
#277 = CARTESIAN_POINT ( 'NONE',  ( 2.433562493173664138E-13, 1.499999999999992673, 69.70000000000001705 ) ) ;
#278 = CARTESIAN_POINT ( 'NONE',  ( 2.433562493173664138E-13, -8.535788190057053710E-15, 69.70000000000001705 ) ) ;
#279 = CARTESIAN_POINT ( 'NONE',  ( 2.444036937190193601E-13, 1.199999999999992628, 70.00000000000000000 ) ) ;
#280 = COORDINATED_UNIVERSAL_TIME_OFFSET ( 1, 0, .AHEAD. ) ;
#281 = APPLICATION_CONTEXT ( 'configuration controlled 3d designs of mechanical parts and assemblies' ) ;
#282 = AXIS2_PLACEMENT_3D ( 'NONE', #64, #92, #12 ) ;
#283 = CONICAL_SURFACE ( 'NONE', #20, 1.874999999999994893, 0.5235987755983003700 ) ;
#284 = APPROVAL_STATUS ( 'not_yet_approved' ) ;
#285 = EDGE_LOOP ( 'NONE', ( #52 ) ) ;
#286 = PLANE ( 'NONE',  #154 ) ;
#287 = ORIENTED_EDGE ( 'NONE', *, *, #269, .F. ) ;
#288 = FACE_OUTER_BOUND ( 'NONE', #130, .T. ) ;
#289 = ADVANCED_FACE ( 'NONE', ( #56, #60 ), #232, .T. ) ;
#290 = CARTESIAN_POINT ( 'NONE',  ( 0.0000000000000000000, 0.0000000000000000000, 0.0000000000000000000 ) ) ;
#291 = CC_DESIGN_PERSON_AND_ORGANIZATION_ASSIGNMENT ( #176, #111, ( #252 ) ) ;
#292 = APPLICATION_PROTOCOL_DEFINITION ( 'international standard', 'config_control_design', 1994, #281 ) ;
#293 = FACE_BOUND ( 'NONE', #59, .T. ) ;
#294 =( NAMED_UNIT ( * ) SI_UNIT ( $, .STERADIAN. ) SOLID_ANGLE_UNIT ( ) );
#295 = ADVANCED_FACE ( 'NONE', ( #253 ), #211, .F. ) ;
#296 = DIRECTION ( 'NONE',  ( -3.491481338843133355E-15, 1.224646799147353207E-16, -1.000000000000000000 ) ) ;
#297 = APPROVAL_PERSON_ORGANIZATION ( #76, #53, #127 ) ;
#298 =( NAMED_UNIT ( * ) PLANE_ANGLE_UNIT ( ) SI_UNIT ( $, .RADIAN. ) );
#299 = PERSON_AND_ORGANIZATION_ROLE ( 'creator' ) ;
#300 = ADVANCED_FACE ( 'NONE', ( #166 ), #128, .F. ) ;
#301 = DIRECTION ( 'NONE',  ( -3.491481338843133355E-15, 1.224646799147353207E-16, -1.000000000000000000 ) ) ;
#302 = AXIS2_PLACEMENT_3D ( 'NONE', #244, #183, #93 ) ;
#303 = PRODUCT_DEFINITION ( 'UNKNOWN', '', #252, #84 ) ;
ENDSEC;
END-ISO-10303-21;
