ISO-10303-21;
HEADER;
FILE_DESCRIPTION (( 'STEP AP203' ),
    '1' );
FILE_NAME ('321600.step',
    '2021-12-02T09:36:00',
    ( '' ),
    ( '' ),
    'SwSTEP 2.0',
    'SolidWorks 2019',
    '' );
FILE_SCHEMA (( 'CONFIG_CONTROL_DESIGN' ));
ENDSEC;

DATA;
#1 = FACE_OUTER_BOUND ( 'NONE', #235, .T. ) ;
#2 = CIRCLE ( 'NONE', #260, 1.499999999999992895 ) ;
#3 = EDGE_LOOP ( 'NONE', ( #43 ) ) ;
#4 = EDGE_CURVE ( 'NONE', #159, #159, #99, .T. ) ;
#5 =( NAMED_UNIT ( * ) SI_UNIT ( $, .STERADIAN. ) SOLID_ANGLE_UNIT ( ) );
#6 = CARTESIAN_POINT ( 'NONE',  ( 2.444036937190193601E-13, -8.572527594031472993E-15, 70.00000000000000000 ) ) ;
#7 = APPROVAL_DATE_TIME ( #143, #204 ) ;
#8 = CIRCLE ( 'NONE', #219, 1.619999999999994111 ) ;
#9 = APPROVAL_PERSON_ORGANIZATION ( #269, #204, #52 ) ;
#10 = APPROVAL_DATE_TIME ( #292, #223 ) ;
#11 = AXIS2_PLACEMENT_3D ( 'NONE', #6, #233, #47 ) ;
#12 = FACE_BOUND ( 'NONE', #74, .T. ) ;
#13 = DIRECTION ( 'NONE',  ( 4.275831445896958607E-31, 1.000000000000000000, 1.224646799147353454E-16 ) ) ;
#14 = EDGE_CURVE ( 'NONE', #114, #114, #120, .T. ) ;
#15 = EDGE_LOOP ( 'NONE', ( #135 ) ) ;
#16 = CARTESIAN_POINT ( 'NONE',  ( 0.0000000000000000000, 0.0000000000000000000, 0.0000000000000000000 ) ) ;
#17 = EDGE_LOOP ( 'NONE', ( #205 ) ) ;
#18 = FACE_OUTER_BOUND ( 'NONE', #90, .T. ) ;
#19 = UNCERTAINTY_MEASURE_WITH_UNIT (LENGTH_MEASURE( 1.000000000000000082E-05 ), #290, 'distance_accuracy_value', 'NONE');
#20 = PERSON_AND_ORGANIZATION_ROLE ( 'creator' ) ;
#21 = CARTESIAN_POINT ( 'NONE',  ( 3.491481338843133355E-14, 1.402275396788831225E-32, 10.00000000000000000 ) ) ;
#22 = DIRECTION ( 'NONE',  ( 4.275831445896958607E-31, 1.000000000000000000, 1.224646799147353207E-16 ) ) ;
#23 = ORGANIZATION ( 'UNSPECIFIED', 'UNSPECIFIED', '' ) ;
#24 = PLANE ( 'NONE',  #302 ) ;
#25 = ORIENTED_EDGE ( 'NONE', *, *, #109, .F. ) ;
#26 = DIRECTION ( 'NONE',  ( 3.491481338843133355E-15, -1.224646799147353207E-16, 1.000000000000000000 ) ) ;
#27 = CARTESIAN_POINT ( 'NONE',  ( 2.444036937190193601E-13, -8.572527594031472993E-15, 70.00000000000000000 ) ) ;
#28 = ADVANCED_FACE ( 'NONE', ( #147, #241 ), #138, .T. ) ;
#29 = DIRECTION ( 'NONE',  ( -4.275831445896958607E-31, -1.000000000000000000, -1.224646799147353207E-16 ) ) ;
#30 = DIRECTION ( 'NONE',  ( 0.0000000000000000000, 0.0000000000000000000, 1.000000000000000000 ) ) ;
#31 = CIRCLE ( 'NONE', #261, 1.869999999999995000 ) ;
#32 = ORIENTED_EDGE ( 'NONE', *, *, #4, .T. ) ;
#33 = APPLICATION_PROTOCOL_DEFINITION ( 'international standard', 'config_control_design', 1994, #89 ) ;
#34 = CARTESIAN_POINT ( 'NONE',  ( 3.491481338843133355E-14, 1.869999999999993667, 10.00000000000000000 ) ) ;
#35 = CARTESIAN_POINT ( 'NONE',  ( 8.728703347107833388E-16, 1.869999999999995000, 0.2500000000000000000 ) ) ;
#36 = ADVANCED_FACE ( 'NONE', ( #237, #171 ), #193, .T. ) ;
#37 = VERTEX_POINT ( 'NONE', #108 ) ;
#38 = DIRECTION ( 'NONE',  ( -3.491481338843133355E-15, 1.224646799147353207E-16, -1.000000000000000000 ) ) ;
#39 = EDGE_LOOP ( 'NONE', ( #112 ) ) ;
#40 = DIRECTION ( 'NONE',  ( 4.275831445896958607E-31, 1.000000000000000000, 1.224646799147353207E-16 ) ) ;
#41 = CIRCLE ( 'NONE', #196, 1.499999999999992895 ) ;
#42 = FACE_BOUND ( 'NONE', #239, .T. ) ;
#43 = ORIENTED_EDGE ( 'NONE', *, *, #45, .T. ) ;
#44 = PERSON_AND_ORGANIZATION ( #199, #23 ) ;
#45 = EDGE_CURVE ( 'NONE', #37, #37, #2, .T. ) ;
#46 = DIRECTION ( 'NONE',  ( -3.491481338843133355E-15, 1.224646799147353207E-16, -1.000000000000000000 ) ) ;
#47 = DIRECTION ( 'NONE',  ( 0.0000000000000000000, 1.000000000000000000, 0.0000000000000000000 ) ) ;
#48 = ORIENTED_EDGE ( 'NONE', *, *, #68, .T. ) ;
#49 = CARTESIAN_POINT ( 'NONE',  ( 2.433562493173664138E-13, -8.535788190057053710E-15, 69.70000000000001705 ) ) ;
#50 = AXIS2_PLACEMENT_3D ( 'NONE', #162, #250, #186 ) ;
#51 = EDGE_LOOP ( 'NONE', ( #278 ) ) ;
#52 = APPROVAL_ROLE ( '' ) ;
#53 = EDGE_CURVE ( 'NONE', #295, #295, #125, .T. ) ;
#54 = COORDINATED_UNIVERSAL_TIME_OFFSET ( 1, 0, .AHEAD. ) ;
#55 = DIRECTION ( 'NONE',  ( -3.491481338843133355E-15, 1.224646799147353207E-16, -1.000000000000000000 ) ) ;
#56 = APPROVAL_STATUS ( 'not_yet_approved' ) ;
#57 = ADVANCED_FACE ( 'NONE', ( #1 ), #117, .F. ) ;
#58 = DIRECTION ( 'NONE',  ( 0.0000000000000000000, 1.000000000000000000, 0.0000000000000000000 ) ) ;
#59 = CYLINDRICAL_SURFACE ( 'NONE', #65, 1.499999999999996891 ) ;
#60 = CIRCLE ( 'NONE', #156, 1.500000000000001110 ) ;
#61 = LOCAL_TIME ( 10, 36, 0.0000000000000000000, #54 ) ;
#62 = DATE_AND_TIME ( #158, #73 ) ;
#63 = DIRECTION ( 'NONE',  ( -4.275831445896958607E-31, -1.000000000000000000, -1.224646799147353207E-16 ) ) ;
#64 = DIRECTION ( 'NONE',  ( 0.0000000000000000000, 1.000000000000000000, 0.0000000000000000000 ) ) ;
#65 = AXIS2_PLACEMENT_3D ( 'NONE', #16, #91, #13 ) ;
#66 = DIRECTION ( 'NONE',  ( -3.491481338843133355E-15, 1.224646799147353207E-16, -1.000000000000000000 ) ) ;
#67 = CALENDAR_DATE ( 2021, 2, 12 ) ;
#68 = EDGE_CURVE ( 'NONE', #180, #180, #41, .T. ) ;
#69 = PERSON_AND_ORGANIZATION ( #199, #23 ) ;
#70 = CLOSED_SHELL ( 'NONE', ( #28, #36, #202, #285, #288, #279, #236 ) ) ;
#71 = AXIS2_PLACEMENT_3D ( 'NONE', #228, #227, #113 ) ;
#72 = CARTESIAN_POINT ( 'NONE',  ( 2.444036937190193601E-13, 8.998558695971026591E-33, 70.00000000000000000 ) ) ;
#73 = LOCAL_TIME ( 10, 36, 0.0000000000000000000, #225 ) ;
#74 = EDGE_LOOP ( 'NONE', ( #48 ) ) ;
#75 = FACE_OUTER_BOUND ( 'NONE', #217, .T. ) ;
#76 = CARTESIAN_POINT ( 'NONE',  ( 3.491481338843133355E-14, -1.224646799147353256E-15, 10.00000000000000000 ) ) ;
#77 = ORIENTED_EDGE ( 'NONE', *, *, #14, .F. ) ;
#78 = CARTESIAN_POINT ( 'NONE',  ( 3.715235992527665520E-14, -1.303129366812996274E-15, 10.64085879880048502 ) ) ;
#79 = MECHANICAL_CONTEXT ( 'NONE', #89, 'mechanical' ) ;
#80 = EDGE_LOOP ( 'NONE', ( #214 ) ) ;
#81 = APPROVAL ( #244, 'UNSPECIFIED' ) ;
#82 = DIRECTION ( 'NONE',  ( 0.0000000000000000000, 1.000000000000000000, 0.0000000000000000000 ) ) ;
#83 = VERTEX_POINT ( 'NONE', #194 ) ;
#84 = LOCAL_TIME ( 10, 36, 0.0000000000000000000, #220 ) ;
#85 = CARTESIAN_POINT ( 'NONE',  ( 2.433562493173664138E-13, 1.499999999999992673, 69.70000000000001705 ) ) ;
#86 = DIRECTION ( 'NONE',  ( -3.491481338843133355E-15, 1.224646799147353207E-16, -1.000000000000000000 ) ) ;
#87 = CC_DESIGN_PERSON_AND_ORGANIZATION_ASSIGNMENT ( #271, #218, ( #221 ) ) ;
#88 = CARTESIAN_POINT ( 'NONE',  ( 2.444036937190193601E-13, -8.572527594031472993E-15, 70.00000000000000000 ) ) ;
#89 = APPLICATION_CONTEXT ( 'configuration controlled 3d designs of mechanical parts and assemblies' ) ;
#90 = EDGE_LOOP ( 'NONE', ( #98 ) ) ;
#91 = DIRECTION ( 'NONE',  ( -3.491481338843133355E-15, 1.224646799147353207E-16, -1.000000000000000000 ) ) ;
#92 = EDGE_LOOP ( 'NONE', ( #25 ) ) ;
#93 = ADVANCED_FACE ( 'NONE', ( #12, #300 ), #94, .T. ) ;
#94 = CONICAL_SURFACE ( 'NONE', #130, 1.869999999999995000, 0.5235987755983009251 ) ;
#95 = APPROVAL_PERSON_ORGANIZATION ( #284, #81, #126 ) ;
#96 = PERSON_AND_ORGANIZATION_ROLE ( 'creator' ) ;
#97 = CARTESIAN_POINT ( 'NONE',  ( 3.715235992527665520E-14, -1.303129366812996274E-15, 10.64085879880048502 ) ) ;
#98 = ORIENTED_EDGE ( 'NONE', *, *, #45, .F. ) ;
#99 = CIRCLE ( 'NONE', #11, 1.200000000000001510 ) ;
#100 = AXIS2_PLACEMENT_3D ( 'NONE', #273, #86, #40 ) ;
#101 = DIRECTION ( 'NONE',  ( -3.491481338843133355E-15, 1.224646799147353207E-16, -1.000000000000000000 ) ) ;
#102 = ORIENTED_EDGE ( 'NONE', *, *, #4, .F. ) ;
#103 = DESIGN_CONTEXT ( 'detailed design', #166, 'design' ) ;
#104 = CLOSED_SHELL ( 'NONE', ( #123, #93, #294, #275, #57 ) ) ;
#105 = DATE_TIME_ROLE ( 'creation_date' ) ;
#106 =( GEOMETRIC_REPRESENTATION_CONTEXT ( 3 ) GLOBAL_UNCERTAINTY_ASSIGNED_CONTEXT ( ( #19 ) ) GLOBAL_UNIT_ASSIGNED_CONTEXT ( ( #290, #124, #5 ) ) REPRESENTATION_CONTEXT ( 'NONE', 'WORKASPACE' ) );
#107 = PRODUCT_DEFINITION ( 'UNKNOWN', '', #215, #103 ) ;
#108 = CARTESIAN_POINT ( 'NONE',  ( 3.715235992527665520E-14, 1.499999999999991562, 10.64085879880048502 ) ) ;
#109 = EDGE_CURVE ( 'NONE', #160, #160, #149, .T. ) ;
#110 = FACE_BOUND ( 'NONE', #252, .T. ) ;
#111 = FACE_OUTER_BOUND ( 'NONE', #142, .T. ) ;
#112 = ORIENTED_EDGE ( 'NONE', *, *, #53, .F. ) ;
#113 = DIRECTION ( 'NONE',  ( 4.119636244678590685E-31, 1.000000000000000000, 1.159574516027280656E-16 ) ) ;
#114 = VERTEX_POINT ( 'NONE', #248 ) ;
#115 = PERSON_AND_ORGANIZATION_ROLE ( 'design_supplier' ) ;
#116 = LOCAL_TIME ( 10, 36, 0.0000000000000000000, #190 ) ;
#117 = PLANE ( 'NONE',  #176 ) ;
#118 = CARTESIAN_POINT ( 'NONE',  ( 0.0000000000000000000, 0.0000000000000000000, 0.0000000000000000000 ) ) ;
#119 = DIRECTION ( 'NONE',  ( 0.0000000000000000000, 1.000000000000000000, 0.0000000000000000000 ) ) ;
#120 = CIRCLE ( 'NONE', #226, 1.200000000000001510 ) ;
#121 = AXIS2_PLACEMENT_3D ( 'NONE', #301, #139, #64 ) ;
#122 = ORIENTED_EDGE ( 'NONE', *, *, #246, .T. ) ;
#123 = ADVANCED_FACE ( 'NONE', ( #111 ), #24, .F. ) ;
#124 =( NAMED_UNIT ( * ) PLANE_ANGLE_UNIT ( ) SI_UNIT ( $, .RADIAN. ) );
#125 = CIRCLE ( 'NONE', #245, 1.500000000000001110 ) ;
#126 = APPROVAL_ROLE ( '' ) ;
#127 = AXIS2_PLACEMENT_3D ( 'NONE', #88, #253, #230 ) ;
#128 = CC_DESIGN_DATE_AND_TIME_ASSIGNMENT ( #154, #105, ( #107 ) ) ;
#129 = AXIS2_PLACEMENT_3D ( 'NONE', #265, #66, #212 ) ;
#130 = AXIS2_PLACEMENT_3D ( 'NONE', #184, #277, #144 ) ;
#131 = FACE_OUTER_BOUND ( 'NONE', #17, .T. ) ;
#132 = EDGE_CURVE ( 'NONE', #151, #151, #60, .T. ) ;
#133 = FACE_OUTER_BOUND ( 'NONE', #39, .T. ) ;
#134 = DATE_TIME_ROLE ( 'classification_date' ) ;
#135 = ORIENTED_EDGE ( 'NONE', *, *, #68, .F. ) ;
#136 = CYLINDRICAL_SURFACE ( 'NONE', #50, 1.499999999999996891 ) ;
#137 = ORIENTED_EDGE ( 'NONE', *, *, #251, .F. ) ;
#138 = CONICAL_SURFACE ( 'NONE', #255, 1.869999999999995000, 0.5235987755983009251 ) ;
#139 = DIRECTION ( 'NONE',  ( -3.491481338843133355E-15, 1.224646799147353207E-16, -1.000000000000000000 ) ) ;
#140 = AXIS2_PLACEMENT_3D ( 'NONE', #283, #30, #287 ) ;
#141 = DIRECTION ( 'NONE',  ( 4.275831445896958607E-31, 1.000000000000000000, 1.224646799147353207E-16 ) ) ;
#142 = EDGE_LOOP ( 'NONE', ( #146 ) ) ;
#143 = DATE_AND_TIME ( #243, #116 ) ;
#144 = DIRECTION ( 'NONE',  ( 0.0000000000000000000, 1.000000000000000000, 0.0000000000000000000 ) ) ;
#145 = DIRECTION ( 'NONE',  ( -3.491481338843133355E-15, 1.224646799147353207E-16, -1.000000000000000000 ) ) ;
#146 = ORIENTED_EDGE ( 'NONE', *, *, #109, .T. ) ;
#147 = FACE_BOUND ( 'NONE', #3, .T. ) ;
#148 = APPLICATION_PROTOCOL_DEFINITION ( 'international standard', 'config_control_design', 1994, #166 ) ;
#149 = CIRCLE ( 'NONE', #129, 1.869999999999995000 ) ;
#150 = AXIS2_PLACEMENT_3D ( 'NONE', #183, #179, #200 ) ;
#151 = VERTEX_POINT ( 'NONE', #172 ) ;
#152 = ADVANCED_BREP_SHAPE_REPRESENTATION ( '321600', ( #270, #272, #140 ), #106 ) ;
#153 = CALENDAR_DATE ( 2021, 2, 12 ) ;
#154 = DATE_AND_TIME ( #153, #61 ) ;
#155 = COORDINATED_UNIVERSAL_TIME_OFFSET ( 1, 0, .AHEAD. ) ;
#156 = AXIS2_PLACEMENT_3D ( 'NONE', #49, #55, #58 ) ;
#157 = APPROVAL_PERSON_ORGANIZATION ( #222, #223, #249 ) ;
#158 = CALENDAR_DATE ( 2021, 2, 12 ) ;
#159 = VERTEX_POINT ( 'NONE', #203 ) ;
#160 = VERTEX_POINT ( 'NONE', #34 ) ;
#161 = FACE_OUTER_BOUND ( 'NONE', #51, .T. ) ;
#162 = CARTESIAN_POINT ( 'NONE',  ( 0.0000000000000000000, 0.0000000000000000000, 0.0000000000000000000 ) ) ;
#163 = EDGE_LOOP ( 'NONE', ( #122 ) ) ;
#164 = DIRECTION ( 'NONE',  ( 0.0000000000000000000, 1.000000000000000000, 0.0000000000000000000 ) ) ;
#165 = CC_DESIGN_APPROVAL ( #223, ( #182 ) ) ;
#166 = APPLICATION_CONTEXT ( 'configuration controlled 3d designs of mechanical parts and assemblies' ) ;
#167 = DATE_AND_TIME ( #67, #84 ) ;
#168 = CONICAL_SURFACE ( 'NONE', #234, 1.619999999999994111, 0.7853981633974500554 ) ;
#169 = CC_DESIGN_PERSON_AND_ORGANIZATION_ASSIGNMENT ( #44, #20, ( #215 ) ) ;
#170 = EDGE_LOOP ( 'NONE', ( #137 ) ) ;
#171 = FACE_OUTER_BOUND ( 'NONE', #170, .T. ) ;
#172 = CARTESIAN_POINT ( 'NONE',  ( 2.433562493173664138E-13, 1.499999999999992673, 69.70000000000001705 ) ) ;
#173 = CC_DESIGN_SECURITY_CLASSIFICATION ( #182, ( #215 ) ) ;
#174 = DIRECTION ( 'NONE',  ( -3.491481338843133355E-15, 1.224646799147353207E-16, -1.000000000000000000 ) ) ;
#175 = PRODUCT_DEFINITION_SHAPE ( 'NONE', 'NONE',  #107 ) ;
#176 = AXIS2_PLACEMENT_3D ( 'NONE', #72, #210, #22 ) ;
#177 = CC_DESIGN_PERSON_AND_ORGANIZATION_ASSIGNMENT ( #232, #115, ( #215 ) ) ;
#178 = CC_DESIGN_APPROVAL ( #204, ( #107 ) ) ;
#179 = DIRECTION ( 'NONE',  ( -3.491481338843133355E-15, 1.224646799147353207E-16, -1.000000000000000000 ) ) ;
#180 = VERTEX_POINT ( 'NONE', #274 ) ;
#181 = CALENDAR_DATE ( 2021, 2, 12 ) ;
#182 = SECURITY_CLASSIFICATION ( '', '', #303 ) ;
#183 = CARTESIAN_POINT ( 'NONE',  ( -3.463423471176523702E-31, 1.214805423956100393E-32, -9.919639073093524222E-17 ) ) ;
#184 = CARTESIAN_POINT ( 'NONE',  ( 3.491481338843133355E-14, -1.224646799147353256E-15, 10.00000000000000000 ) ) ;
#185 = ORIENTED_EDGE ( 'NONE', *, *, #14, .T. ) ;
#186 = DIRECTION ( 'NONE',  ( 4.275831445896958607E-31, 1.000000000000000000, 1.224646799147353454E-16 ) ) ;
#187 = CC_DESIGN_PERSON_AND_ORGANIZATION_ASSIGNMENT ( #189, #96, ( #107 ) ) ;
#188 = CARTESIAN_POINT ( 'NONE',  ( -6.926846942353047404E-31, 2.429610847912200786E-32, -1.983927814618704844E-16 ) ) ;
#189 = PERSON_AND_ORGANIZATION ( #199, #23 ) ;
#190 = COORDINATED_UNIVERSAL_TIME_OFFSET ( 1, 0, .AHEAD. ) ;
#191 = DIRECTION ( 'NONE',  ( 0.0000000000000000000, 1.000000000000000000, 0.0000000000000000000 ) ) ;
#192 = ORIENTED_EDGE ( 'NONE', *, *, #246, .F. ) ;
#193 = CYLINDRICAL_SURFACE ( 'NONE', #281, 1.869999999999995000 ) ;
#194 = CARTESIAN_POINT ( 'NONE',  ( 3.491481338843133355E-14, 1.869999999999993667, 10.00000000000000000 ) ) ;
#195 = VERTEX_POINT ( 'NONE', #216 ) ;
#196 = AXIS2_PLACEMENT_3D ( 'NONE', #78, #266, #197 ) ;
#197 = DIRECTION ( 'NONE',  ( 0.0000000000000000000, 1.000000000000000000, 0.0000000000000000000 ) ) ;
#198 = CARTESIAN_POINT ( 'NONE',  ( -6.926846942353047404E-31, 2.429610847912200786E-32, -1.983927814618704844E-16 ) ) ;
#199 = PERSON ( 'UNSPECIFIED', 'UNSPECIFIED', 'UNSPECIFIED', ('UNSPECIFIED'), ('UNSPECIFIED'), ('UNSPECIFIED') ) ;
#200 = DIRECTION ( 'NONE',  ( 4.275831445896958607E-31, 1.000000000000000000, 1.224646799147353207E-16 ) ) ;
#201 = PRODUCT_RELATED_PRODUCT_CATEGORY ( 'detail', '', ( #221 ) ) ;
#202 = ADVANCED_FACE ( 'NONE', ( #75, #110 ), #168, .T. ) ;
#203 = CARTESIAN_POINT ( 'NONE',  ( 2.444036937190193601E-13, 1.199999999999992628, 70.00000000000000000 ) ) ;
#204 = APPROVAL ( #238, 'UNSPECIFIED' ) ;
#205 = ORIENTED_EDGE ( 'NONE', *, *, #53, .T. ) ;
#206 = FACE_OUTER_BOUND ( 'NONE', #254, .T. ) ;
#207 = FACE_OUTER_BOUND ( 'NONE', #262, .T. ) ;
#208 = ORIENTED_EDGE ( 'NONE', *, *, #224, .F. ) ;
#209 = VERTEX_POINT ( 'NONE', #35 ) ;
#210 = DIRECTION ( 'NONE',  ( -3.491481338843133355E-15, 1.224646799147353207E-16, -1.000000000000000000 ) ) ;
#211 = DIRECTION ( 'NONE',  ( 4.275831445896958607E-31, 1.000000000000000000, 1.224646799147353454E-16 ) ) ;
#212 = DIRECTION ( 'NONE',  ( 0.0000000000000000000, 1.000000000000000000, 0.0000000000000000000 ) ) ;
#213 = DIRECTION ( 'NONE',  ( 0.0000000000000000000, 1.000000000000000000, 0.0000000000000000000 ) ) ;
#214 = ORIENTED_EDGE ( 'NONE', *, *, #132, .T. ) ;
#215 = PRODUCT_DEFINITION_FORMATION_WITH_SPECIFIED_SOURCE ( 'ANY', '', #221, .NOT_KNOWN. ) ;
#216 = CARTESIAN_POINT ( 'NONE',  ( 0.0000000000000000000, 1.619999999999994111, 0.0000000000000000000 ) ) ;
#217 = EDGE_LOOP ( 'NONE', ( #298 ) ) ;
#218 = PERSON_AND_ORGANIZATION_ROLE ( 'design_owner' ) ;
#219 = AXIS2_PLACEMENT_3D ( 'NONE', #188, #38, #141 ) ;
#220 = COORDINATED_UNIVERSAL_TIME_OFFSET ( 1, 0, .AHEAD. ) ;
#221 = PRODUCT ( '321600', '321600', '', ( #79 ) ) ;
#222 = PERSON_AND_ORGANIZATION ( #199, #23 ) ;
#223 = APPROVAL ( #56, 'UNSPECIFIED' ) ;
#224 = EDGE_CURVE ( 'NONE', #195, #195, #8, .T. ) ;
#225 = COORDINATED_UNIVERSAL_TIME_OFFSET ( 1, 0, .AHEAD. ) ;
#226 = AXIS2_PLACEMENT_3D ( 'NONE', #27, #46, #119 ) ;
#227 = DIRECTION ( 'NONE',  ( -3.491481338843133355E-15, 1.224646799147353207E-16, -1.000000000000000000 ) ) ;
#228 = CARTESIAN_POINT ( 'NONE',  ( 8.728703347107825500E-16, -3.061616997868380553E-17, 0.2499999999999997780 ) ) ;
#229 = FACE_BOUND ( 'NONE', #286, .T. ) ;
#230 = DIRECTION ( 'NONE',  ( 0.0000000000000000000, 1.000000000000000000, 0.0000000000000000000 ) ) ;
#231 = FACE_OUTER_BOUND ( 'NONE', #80, .T. ) ;
#232 = PERSON_AND_ORGANIZATION ( #199, #23 ) ;
#233 = DIRECTION ( 'NONE',  ( -3.491481338843133355E-15, 1.224646799147353207E-16, -1.000000000000000000 ) ) ;
#234 = AXIS2_PLACEMENT_3D ( 'NONE', #198, #297, #63 ) ;
#235 = EDGE_LOOP ( 'NONE', ( #77 ) ) ;
#236 = ADVANCED_FACE ( 'NONE', ( #18, #131 ), #136, .T. ) ;
#237 = FACE_OUTER_BOUND ( 'NONE', #163, .T. ) ;
#238 = APPROVAL_STATUS ( 'not_yet_approved' ) ;
#239 = EDGE_LOOP ( 'NONE', ( #32 ) ) ;
#240 = CONICAL_SURFACE ( 'NONE', #127, 1.200000000000001510, 0.7853981633974566057 ) ;
#241 = FACE_OUTER_BOUND ( 'NONE', #282, .T. ) ;
#242 = CC_DESIGN_DATE_AND_TIME_ASSIGNMENT ( #62, #134, ( #182 ) ) ;
#243 = CALENDAR_DATE ( 2021, 2, 12 ) ;
#244 = APPROVAL_STATUS ( 'not_yet_approved' ) ;
#245 = AXIS2_PLACEMENT_3D ( 'NONE', #263, #101, #82 ) ;
#246 = EDGE_CURVE ( 'NONE', #83, #83, #31, .T. ) ;
#247 = SHAPE_DEFINITION_REPRESENTATION ( #175, #152 ) ;
#248 = CARTESIAN_POINT ( 'NONE',  ( 2.444036937190193601E-13, 1.199999999999992628, 70.00000000000000000 ) ) ;
#249 = APPROVAL_ROLE ( '' ) ;
#250 = DIRECTION ( 'NONE',  ( -3.491481338843133355E-15, 1.224646799147353207E-16, -1.000000000000000000 ) ) ;
#251 = EDGE_CURVE ( 'NONE', #209, #209, #256, .T. ) ;
#252 = EDGE_LOOP ( 'NONE', ( #208 ) ) ;
#253 = DIRECTION ( 'NONE',  ( -3.491481338843133355E-15, 1.224646799147353207E-16, -1.000000000000000000 ) ) ;
#254 = EDGE_LOOP ( 'NONE', ( #258 ) ) ;
#255 = AXIS2_PLACEMENT_3D ( 'NONE', #76, #145, #191 ) ;
#256 = CIRCLE ( 'NONE', #71, 1.869999999999995000 ) ;
#257 = DIRECTION ( 'NONE',  ( -3.491481338843133355E-15, 1.224646799147353207E-16, -1.000000000000000000 ) ) ;
#258 = ORIENTED_EDGE ( 'NONE', *, *, #224, .T. ) ;
#259 = APPROVAL_DATE_TIME ( #167, #81 ) ;
#260 = AXIS2_PLACEMENT_3D ( 'NONE', #97, #268, #213 ) ;
#261 = AXIS2_PLACEMENT_3D ( 'NONE', #280, #257, #164 ) ;
#262 = EDGE_LOOP ( 'NONE', ( #102 ) ) ;
#263 = CARTESIAN_POINT ( 'NONE',  ( 2.433562493173664138E-13, -8.535788190057053710E-15, 69.70000000000001705 ) ) ;
#264 = PERSON_AND_ORGANIZATION_ROLE ( 'classification_officer' ) ;
#265 = CARTESIAN_POINT ( 'NONE',  ( 3.491481338843133355E-14, -1.224646799147353256E-15, 10.00000000000000000 ) ) ;
#266 = DIRECTION ( 'NONE',  ( -3.491481338843133355E-15, 1.224646799147353207E-16, -1.000000000000000000 ) ) ;
#267 = CC_DESIGN_APPROVAL ( #81, ( #215 ) ) ;
#268 = DIRECTION ( 'NONE',  ( -3.491481338843133355E-15, 1.224646799147353207E-16, -1.000000000000000000 ) ) ;
#269 = PERSON_AND_ORGANIZATION ( #199, #23 ) ;
#270 = MANIFOLD_SOLID_BREP ( 'Corps-Déplacer/Copier1[1]', #104 ) ;
#271 = PERSON_AND_ORGANIZATION ( #199, #23 ) ;
#272 = MANIFOLD_SOLID_BREP ( 'Corps-Déplacer/Copier1[2]', #70 ) ;
#273 = CARTESIAN_POINT ( 'NONE',  ( 2.444036937190193601E-13, -8.572527594031472993E-15, 70.00000000000000000 ) ) ;
#274 = CARTESIAN_POINT ( 'NONE',  ( 3.715235992527665520E-14, 1.499999999999991562, 10.64085879880048502 ) ) ;
#275 = ADVANCED_FACE ( 'NONE', ( #161, #229 ), #289, .T. ) ;
#276 = FACE_OUTER_BOUND ( 'NONE', #15, .T. ) ;
#277 = DIRECTION ( 'NONE',  ( -3.491481338843133355E-15, 1.224646799147353207E-16, -1.000000000000000000 ) ) ;
#278 = ORIENTED_EDGE ( 'NONE', *, *, #132, .F. ) ;
#279 = ADVANCED_FACE ( 'NONE', ( #133, #42 ), #240, .T. ) ;
#280 = CARTESIAN_POINT ( 'NONE',  ( 3.491481338843133355E-14, -1.224646799147353256E-15, 10.00000000000000000 ) ) ;
#281 = AXIS2_PLACEMENT_3D ( 'NONE', #118, #174, #211 ) ;
#282 = EDGE_LOOP ( 'NONE', ( #192 ) ) ;
#283 = CARTESIAN_POINT ( 'NONE',  ( 0.0000000000000000000, 0.0000000000000000000, 0.0000000000000000000 ) ) ;
#284 = PERSON_AND_ORGANIZATION ( #199, #23 ) ;
#285 = ADVANCED_FACE ( 'NONE', ( #206 ), #299, .T. ) ;
#286 = EDGE_LOOP ( 'NONE', ( #185 ) ) ;
#287 = DIRECTION ( 'NONE',  ( 1.000000000000000000, 0.0000000000000000000, 0.0000000000000000000 ) ) ;
#288 = ADVANCED_FACE ( 'NONE', ( #207 ), #296, .F. ) ;
#289 = CONICAL_SURFACE ( 'NONE', #121, 1.200000000000001510, 0.7853981633974566057 ) ;
#290 =( LENGTH_UNIT ( ) NAMED_UNIT ( * ) SI_UNIT ( .MILLI., .METRE. ) );
#291 = LOCAL_TIME ( 10, 36, 0.0000000000000000000, #155 ) ;
#292 = DATE_AND_TIME ( #181, #291 ) ;
#293 = CC_DESIGN_PERSON_AND_ORGANIZATION_ASSIGNMENT ( #69, #264, ( #182 ) ) ;
#294 = ADVANCED_FACE ( 'NONE', ( #276, #231 ), #59, .T. ) ;
#295 = VERTEX_POINT ( 'NONE', #85 ) ;
#296 = PLANE ( 'NONE',  #100 ) ;
#297 = DIRECTION ( 'NONE',  ( 3.491481338843133355E-15, -1.224646799147353207E-16, 1.000000000000000000 ) ) ;
#298 = ORIENTED_EDGE ( 'NONE', *, *, #251, .T. ) ;
#299 = PLANE ( 'NONE',  #150 ) ;
#300 = FACE_OUTER_BOUND ( 'NONE', #92, .T. ) ;
#301 = CARTESIAN_POINT ( 'NONE',  ( 2.444036937190193601E-13, -8.572527594031472993E-15, 70.00000000000000000 ) ) ;
#302 = AXIS2_PLACEMENT_3D ( 'NONE', #21, #26, #29 ) ;
#303 = SECURITY_CLASSIFICATION_LEVEL ( 'unclassified' ) ;
ENDSEC;
END-ISO-10303-21;
