ISO-10303-21;
HEADER;
FILE_DESCRIPTION (( 'STEP AP203' ),
    '1' );
FILE_NAME ('321599.step',
    '2021-12-02T09:35:59',
    ( '' ),
    ( '' ),
    'SwSTEP 2.0',
    'SolidWorks 2019',
    '' );
FILE_SCHEMA (( 'CONFIG_CONTROL_DESIGN' ));
ENDSEC;

DATA;
#1 = APPROVAL_DATE_TIME ( #237, #163 ) ;
#2 = AXIS2_PLACEMENT_3D ( 'NONE', #143, #129, #240 ) ;
#3 = CIRCLE ( 'NONE', #176, 1.614999999999994218 ) ;
#4 = APPROVAL_DATE_TIME ( #166, #268 ) ;
#5 = EDGE_CURVE ( 'NONE', #84, #84, #255, .T. ) ;
#6 = EDGE_LOOP ( 'NONE', ( #142 ) ) ;
#7 = EDGE_LOOP ( 'NONE', ( #100 ) ) ;
#8 = COORDINATED_UNIVERSAL_TIME_OFFSET ( 1, 0, .AHEAD. ) ;
#9 = DIRECTION ( 'NONE',  ( -3.491481338843133355E-15, 1.224646799147353207E-16, -1.000000000000000000 ) ) ;
#10 = UNCERTAINTY_MEASURE_WITH_UNIT (LENGTH_MEASURE( 1.000000000000000082E-05 ), #202, 'distance_accuracy_value', 'NONE');
#11 = DIRECTION ( 'NONE',  ( -3.491481338843133355E-15, 1.224646799147353207E-16, -1.000000000000000000 ) ) ;
#12 = APPLICATION_PROTOCOL_DEFINITION ( 'international standard', 'config_control_design', 1994, #171 ) ;
#13 = DIRECTION ( 'NONE',  ( 0.0000000000000000000, 1.000000000000000000, 0.0000000000000000000 ) ) ;
#14 = COORDINATED_UNIVERSAL_TIME_OFFSET ( 1, 0, .AHEAD. ) ;
#15 = FACE_BOUND ( 'NONE', #217, .T. ) ;
#16 = CC_DESIGN_SECURITY_CLASSIFICATION ( #28, ( #92 ) ) ;
#17 = CARTESIAN_POINT ( 'NONE',  ( 3.712212280991388647E-14, 1.499999999999991562, 10.63219854476264281 ) ) ;
#18 = FACE_OUTER_BOUND ( 'NONE', #264, .T. ) ;
#19 = EDGE_CURVE ( 'NONE', #55, #55, #22, .T. ) ;
#20 = AXIS2_PLACEMENT_3D ( 'NONE', #190, #27, #278 ) ;
#21 = DIRECTION ( 'NONE',  ( 3.491481338843133355E-15, -1.224646799147353207E-16, 1.000000000000000000 ) ) ;
#22 = CIRCLE ( 'NONE', #102, 1.200000000000001510 ) ;
#23 = PERSON_AND_ORGANIZATION_ROLE ( 'design_supplier' ) ;
#24 = PERSON_AND_ORGANIZATION_ROLE ( 'design_owner' ) ;
#25 = ADVANCED_FACE ( 'NONE', ( #70 ), #91, .F. ) ;
#26 = CALENDAR_DATE ( 2021, 2, 12 ) ;
#27 = DIRECTION ( 'NONE',  ( -3.491481338843133355E-15, 1.224646799147353207E-16, -1.000000000000000000 ) ) ;
#28 = SECURITY_CLASSIFICATION ( '', '', #233 ) ;
#29 = PERSON_AND_ORGANIZATION_ROLE ( 'classification_officer' ) ;
#30 = CARTESIAN_POINT ( 'NONE',  ( 3.491481338843133355E-14, -1.224646799147353256E-15, 10.00000000000000000 ) ) ;
#31 = FACE_OUTER_BOUND ( 'NONE', #200, .T. ) ;
#32 = FACE_OUTER_BOUND ( 'NONE', #65, .T. ) ;
#33 = LOCAL_TIME ( 10, 35, 59.00000000000000000, #269 ) ;
#34 = AXIS2_PLACEMENT_3D ( 'NONE', #50, #49, #144 ) ;
#35 = DIRECTION ( 'NONE',  ( -3.491481338843133355E-15, 1.224646799147353207E-16, -1.000000000000000000 ) ) ;
#36 = APPROVAL_DATE_TIME ( #246, #203 ) ;
#37 = CARTESIAN_POINT ( 'NONE',  ( -6.905467785123564441E-31, 2.422112048998891716E-32, -1.977804580622968462E-16 ) ) ;
#38 = EDGE_CURVE ( 'NONE', #297, #297, #227, .T. ) ;
#39 = DIRECTION ( 'NONE',  ( -3.491481338843133355E-15, 1.224646799147353207E-16, -1.000000000000000000 ) ) ;
#40 = VERTEX_POINT ( 'NONE', #291 ) ;
#41 = FACE_OUTER_BOUND ( 'NONE', #225, .T. ) ;
#42 = ORIENTED_EDGE ( 'NONE', *, *, #112, .F. ) ;
#43 = CIRCLE ( 'NONE', #62, 1.500000000000001110 ) ;
#44 = AXIS2_PLACEMENT_3D ( 'NONE', #223, #170, #156 ) ;
#45 = ORIENTED_EDGE ( 'NONE', *, *, #254, .F. ) ;
#46 = DIRECTION ( 'NONE',  ( 4.275831445896958607E-31, 1.000000000000000000, 1.224646799147353207E-16 ) ) ;
#47 = ADVANCED_FACE ( 'NONE', ( #215, #74 ), #175, .T. ) ;
#48 = DIRECTION ( 'NONE',  ( 1.000000000000000000, 0.0000000000000000000, 0.0000000000000000000 ) ) ;
#49 = DIRECTION ( 'NONE',  ( -3.491481338843133355E-15, 1.224646799147353207E-16, -1.000000000000000000 ) ) ;
#50 = CARTESIAN_POINT ( 'NONE',  ( 2.444036937190193601E-13, -8.572527594031472993E-15, 70.00000000000000000 ) ) ;
#51 = AXIS2_PLACEMENT_3D ( 'NONE', #149, #35, #243 ) ;
#52 = DIRECTION ( 'NONE',  ( 0.0000000000000000000, 1.000000000000000000, 0.0000000000000000000 ) ) ;
#53 = ADVANCED_FACE ( 'NONE', ( #32, #68 ), #284, .T. ) ;
#54 = FACE_OUTER_BOUND ( 'NONE', #60, .T. ) ;
#55 = VERTEX_POINT ( 'NONE', #110 ) ;
#56 = CALENDAR_DATE ( 2021, 2, 12 ) ;
#57 = FACE_OUTER_BOUND ( 'NONE', #89, .T. ) ;
#58 = ADVANCED_FACE ( 'NONE', ( #164, #31 ), #208, .T. ) ;
#59 = PLANE ( 'NONE',  #231 ) ;
#60 = EDGE_LOOP ( 'NONE', ( #64 ) ) ;
#61 = DIRECTION ( 'NONE',  ( 0.0000000000000000000, 1.000000000000000000, 0.0000000000000000000 ) ) ;
#62 = AXIS2_PLACEMENT_3D ( 'NONE', #266, #290, #169 ) ;
#63 = FACE_OUTER_BOUND ( 'NONE', #97, .T. ) ;
#64 = ORIENTED_EDGE ( 'NONE', *, *, #254, .T. ) ;
#65 = EDGE_LOOP ( 'NONE', ( #161 ) ) ;
#66 =( GEOMETRIC_REPRESENTATION_CONTEXT ( 3 ) GLOBAL_UNCERTAINTY_ASSIGNED_CONTEXT ( ( #10 ) ) GLOBAL_UNIT_ASSIGNED_CONTEXT ( ( #202, #95, #121 ) ) REPRESENTATION_CONTEXT ( 'NONE', 'WORKASPACE' ) );
#67 = CARTESIAN_POINT ( 'NONE',  ( 0.0000000000000000000, 1.614999999999994218, 0.0000000000000000000 ) ) ;
#68 = FACE_OUTER_BOUND ( 'NONE', #178, .T. ) ;
#69 = EDGE_CURVE ( 'NONE', #158, #158, #43, .T. ) ;
#70 = FACE_OUTER_BOUND ( 'NONE', #277, .T. ) ;
#71 = CARTESIAN_POINT ( 'NONE',  ( 0.0000000000000000000, 0.0000000000000000000, 0.0000000000000000000 ) ) ;
#72 = ORGANIZATION ( 'UNSPECIFIED', 'UNSPECIFIED', '' ) ;
#73 = PERSON_AND_ORGANIZATION ( #146, #72 ) ;
#74 = FACE_BOUND ( 'NONE', #148, .T. ) ;
#75 = CC_DESIGN_PERSON_AND_ORGANIZATION_ASSIGNMENT ( #259, #265, ( #92 ) ) ;
#76 = COORDINATED_UNIVERSAL_TIME_OFFSET ( 1, 0, .AHEAD. ) ;
#77 = ORIENTED_EDGE ( 'NONE', *, *, #90, .F. ) ;
#78 = DIRECTION ( 'NONE',  ( -3.491481338843133355E-15, 1.224646799147353207E-16, -1.000000000000000000 ) ) ;
#79 = VERTEX_POINT ( 'NONE', #116 ) ;
#80 = APPROVAL_STATUS ( 'not_yet_approved' ) ;
#81 = DIRECTION ( 'NONE',  ( 0.0000000000000000000, 1.000000000000000000, 0.0000000000000000000 ) ) ;
#82 = AXIS2_PLACEMENT_3D ( 'NONE', #160, #9, #260 ) ;
#83 = AXIS2_PLACEMENT_3D ( 'NONE', #199, #195, #135 ) ;
#84 = VERTEX_POINT ( 'NONE', #17 ) ;
#85 = CARTESIAN_POINT ( 'NONE',  ( 2.433562493173664138E-13, 1.499999999999992673, 69.70000000000001705 ) ) ;
#86 = FACE_BOUND ( 'NONE', #303, .T. ) ;
#87 = AXIS2_PLACEMENT_3D ( 'NONE', #71, #165, #48 ) ;
#88 = ADVANCED_FACE ( 'NONE', ( #54 ), #261, .F. ) ;
#89 = EDGE_LOOP ( 'NONE', ( #159 ) ) ;
#90 = EDGE_CURVE ( 'NONE', #180, #180, #162, .T. ) ;
#91 = PLANE ( 'NONE',  #191 ) ;
#92 = PRODUCT_DEFINITION_FORMATION_WITH_SPECIFIED_SOURCE ( 'ANY', '', #192, .NOT_KNOWN. ) ;
#93 = DIRECTION ( 'NONE',  ( -3.491481338843133355E-15, 1.224646799147353207E-16, -1.000000000000000000 ) ) ;
#94 = APPROVAL_ROLE ( '' ) ;
#95 =( NAMED_UNIT ( * ) PLANE_ANGLE_UNIT ( ) SI_UNIT ( $, .RADIAN. ) );
#96 = DIRECTION ( 'NONE',  ( 0.0000000000000000000, 1.000000000000000000, 0.0000000000000000000 ) ) ;
#97 = EDGE_LOOP ( 'NONE', ( #249 ) ) ;
#98 = DESIGN_CONTEXT ( 'detailed design', #171, 'design' ) ;
#99 = PERSON_AND_ORGANIZATION ( #146, #72 ) ;
#100 = ORIENTED_EDGE ( 'NONE', *, *, #125, .T. ) ;
#101 = PRODUCT_DEFINITION ( 'UNKNOWN', '', #92, #98 ) ;
#102 = AXIS2_PLACEMENT_3D ( 'NONE', #185, #78, #52 ) ;
#103 = CARTESIAN_POINT ( 'NONE',  ( 2.444036937190193601E-13, 1.199999999999992628, 70.00000000000000000 ) ) ;
#104 = PERSON_AND_ORGANIZATION ( #146, #72 ) ;
#105 = FACE_OUTER_BOUND ( 'NONE', #155, .T. ) ;
#106 = CALENDAR_DATE ( 2021, 2, 12 ) ;
#107 = DIRECTION ( 'NONE',  ( 4.275831445896959482E-31, 1.000000000000000000, 1.224646799147353207E-16 ) ) ;
#108 = APPLICATION_PROTOCOL_DEFINITION ( 'international standard', 'config_control_design', 1994, #115 ) ;
#109 = APPROVAL_PERSON_ORGANIZATION ( #122, #163, #214 ) ;
#110 = CARTESIAN_POINT ( 'NONE',  ( 2.444036937190193601E-13, 1.199999999999992628, 70.00000000000000000 ) ) ;
#111 = CARTESIAN_POINT ( 'NONE',  ( 3.491481338843133355E-14, -1.224646799147353256E-15, 10.00000000000000000 ) ) ;
#112 = EDGE_CURVE ( 'NONE', #179, #179, #114, .T. ) ;
#113 = CC_DESIGN_APPROVAL ( #163, ( #92 ) ) ;
#114 = CIRCLE ( 'NONE', #282, 1.499999999999992895 ) ;
#115 = APPLICATION_CONTEXT ( 'configuration controlled 3d designs of mechanical parts and assemblies' ) ;
#116 = CARTESIAN_POINT ( 'NONE',  ( 3.491481338843133355E-14, 1.864999999999993774, 10.00000000000000000 ) ) ;
#117 = ORIENTED_EDGE ( 'NONE', *, *, #276, .F. ) ;
#118 = DIRECTION ( 'NONE',  ( -4.275831445896958607E-31, -1.000000000000000000, -1.224646799147353207E-16 ) ) ;
#119 = DATE_TIME_ROLE ( 'classification_date' ) ;
#120 = MANIFOLD_SOLID_BREP ( 'Corps-Déplacer/Copier1[1]', #150 ) ;
#121 =( NAMED_UNIT ( * ) SI_UNIT ( $, .STERADIAN. ) SOLID_ANGLE_UNIT ( ) );
#122 = PERSON_AND_ORGANIZATION ( #146, #72 ) ;
#123 = CARTESIAN_POINT ( 'NONE',  ( 3.712212280991388647E-14, -1.302068791574271624E-15, 10.63219854476264281 ) ) ;
#124 = CALENDAR_DATE ( 2021, 2, 12 ) ;
#125 = EDGE_CURVE ( 'NONE', #273, #273, #152, .T. ) ;
#126 = DIRECTION ( 'NONE',  ( -3.491481338843133355E-15, 1.224646799147353207E-16, -1.000000000000000000 ) ) ;
#127 = DATE_AND_TIME ( #106, #145 ) ;
#128 = ORIENTED_EDGE ( 'NONE', *, *, #125, .F. ) ;
#129 = DIRECTION ( 'NONE',  ( -3.491481338843133355E-15, 1.224646799147353207E-16, -1.000000000000000000 ) ) ;
#130 = CC_DESIGN_APPROVAL ( #203, ( #101 ) ) ;
#131 = CARTESIAN_POINT ( 'NONE',  ( 3.491481338843133355E-14, -1.224646799147353256E-15, 10.00000000000000000 ) ) ;
#132 = CC_DESIGN_DATE_AND_TIME_ASSIGNMENT ( #127, #283, ( #101 ) ) ;
#133 = PERSON_AND_ORGANIZATION ( #146, #72 ) ;
#134 = DIRECTION ( 'NONE',  ( 0.0000000000000000000, 1.000000000000000000, 0.0000000000000000000 ) ) ;
#135 = DIRECTION ( 'NONE',  ( 4.275831445896958607E-31, 1.000000000000000000, 1.224646799147353454E-16 ) ) ;
#136 = FACE_OUTER_BOUND ( 'NONE', #252, .T. ) ;
#137 = ADVANCED_FACE ( 'NONE', ( #248, #194 ), #293, .T. ) ;
#138 = CARTESIAN_POINT ( 'NONE',  ( 3.712212280991388647E-14, 1.499999999999991562, 10.63219854476264281 ) ) ;
#139 = ORIENTED_EDGE ( 'NONE', *, *, #38, .F. ) ;
#140 = CIRCLE ( 'NONE', #181, 1.500000000000001110 ) ;
#141 = AXIS2_PLACEMENT_3D ( 'NONE', #167, #241, #147 ) ;
#142 = ORIENTED_EDGE ( 'NONE', *, *, #112, .T. ) ;
#143 = CARTESIAN_POINT ( 'NONE',  ( 0.0000000000000000000, 0.0000000000000000000, 0.0000000000000000000 ) ) ;
#144 = DIRECTION ( 'NONE',  ( 0.0000000000000000000, 1.000000000000000000, 0.0000000000000000000 ) ) ;
#145 = LOCAL_TIME ( 10, 35, 59.00000000000000000, #14 ) ;
#146 = PERSON ( 'UNSPECIFIED', 'UNSPECIFIED', 'UNSPECIFIED', ('UNSPECIFIED'), ('UNSPECIFIED'), ('UNSPECIFIED') ) ;
#147 = DIRECTION ( 'NONE',  ( 0.0000000000000000000, 1.000000000000000000, 0.0000000000000000000 ) ) ;
#148 = EDGE_LOOP ( 'NONE', ( #184 ) ) ;
#149 = CARTESIAN_POINT ( 'NONE',  ( 0.0000000000000000000, 0.0000000000000000000, 0.0000000000000000000 ) ) ;
#150 = CLOSED_SHELL ( 'NONE', ( #88, #201, #280, #232, #285 ) ) ;
#151 = AXIS2_PLACEMENT_3D ( 'NONE', #222, #267, #173 ) ;
#152 = CIRCLE ( 'NONE', #157, 1.864999999999995106 ) ;
#153 = CARTESIAN_POINT ( 'NONE',  ( 2.433562493173664138E-13, -8.535788190057053710E-15, 69.70000000000001705 ) ) ;
#154 = CARTESIAN_POINT ( 'NONE',  ( -3.452733892561782221E-31, 1.211056024499445858E-32, -9.889022903114842309E-17 ) ) ;
#155 = EDGE_LOOP ( 'NONE', ( #45 ) ) ;
#156 = DIRECTION ( 'NONE',  ( 4.275831445896958607E-31, 1.000000000000000000, 1.224646799147353207E-16 ) ) ;
#157 = AXIS2_PLACEMENT_3D ( 'NONE', #30, #126, #134 ) ;
#158 = VERTEX_POINT ( 'NONE', #85 ) ;
#159 = ORIENTED_EDGE ( 'NONE', *, *, #276, .T. ) ;
#160 = CARTESIAN_POINT ( 'NONE',  ( 3.491481338843133355E-14, -1.224646799147353256E-15, 10.00000000000000000 ) ) ;
#161 = ORIENTED_EDGE ( 'NONE', *, *, #5, .F. ) ;
#162 = CIRCLE ( 'NONE', #34, 1.200000000000001510 ) ;
#163 = APPROVAL ( #168, 'UNSPECIFIED' ) ;
#164 = FACE_BOUND ( 'NONE', #272, .T. ) ;
#165 = DIRECTION ( 'NONE',  ( 0.0000000000000000000, 0.0000000000000000000, 1.000000000000000000 ) ) ;
#166 = DATE_AND_TIME ( #124, #299 ) ;
#167 = CARTESIAN_POINT ( 'NONE',  ( 2.444036937190193601E-13, -8.572527594031472993E-15, 70.00000000000000000 ) ) ;
#168 = APPROVAL_STATUS ( 'not_yet_approved' ) ;
#169 = DIRECTION ( 'NONE',  ( 0.0000000000000000000, 1.000000000000000000, 0.0000000000000000000 ) ) ;
#170 = DIRECTION ( 'NONE',  ( -3.491481338843133355E-15, 1.224646799147353207E-16, -1.000000000000000000 ) ) ;
#171 = APPLICATION_CONTEXT ( 'configuration controlled 3d designs of mechanical parts and assemblies' ) ;
#172 = APPROVAL_ROLE ( '' ) ;
#173 = DIRECTION ( 'NONE',  ( -4.275831445896959482E-31, -1.000000000000000000, -1.224646799147353207E-16 ) ) ;
#174 = CC_DESIGN_PERSON_AND_ORGANIZATION_ASSIGNMENT ( #206, #23, ( #92 ) ) ;
#175 = CONICAL_SURFACE ( 'NONE', #141, 1.200000000000001510, 0.7853981633974566057 ) ;
#176 = AXIS2_PLACEMENT_3D ( 'NONE', #37, #11, #107 ) ;
#177 = CYLINDRICAL_SURFACE ( 'NONE', #83, 1.499999999999996891 ) ;
#178 = EDGE_LOOP ( 'NONE', ( #182 ) ) ;
#179 = VERTEX_POINT ( 'NONE', #138 ) ;
#180 = VERTEX_POINT ( 'NONE', #103 ) ;
#181 = AXIS2_PLACEMENT_3D ( 'NONE', #153, #39, #292 ) ;
#182 = ORIENTED_EDGE ( 'NONE', *, *, #245, .T. ) ;
#183 = CC_DESIGN_PERSON_AND_ORGANIZATION_ASSIGNMENT ( #133, #221, ( #101 ) ) ;
#184 = ORIENTED_EDGE ( 'NONE', *, *, #19, .T. ) ;
#185 = CARTESIAN_POINT ( 'NONE',  ( 2.444036937190193601E-13, -8.572527594031472993E-15, 70.00000000000000000 ) ) ;
#186 = AXIS2_PLACEMENT_3D ( 'NONE', #279, #93, #96 ) ;
#187 = DIRECTION ( 'NONE',  ( -3.491481338843133355E-15, 1.224646799147353207E-16, -1.000000000000000000 ) ) ;
#188 = ORIENTED_EDGE ( 'NONE', *, *, #245, .F. ) ;
#189 = AXIS2_PLACEMENT_3D ( 'NONE', #131, #271, #61 ) ;
#190 = CARTESIAN_POINT ( 'NONE',  ( 8.728703347107825500E-16, -3.061616997868380553E-17, 0.2499999999999997780 ) ) ;
#191 = AXIS2_PLACEMENT_3D ( 'NONE', #234, #187, #46 ) ;
#192 = PRODUCT ( '321599', '321599', '', ( #216 ) ) ;
#193 = DIRECTION ( 'NONE',  ( -3.491481338843133355E-15, 1.224646799147353207E-16, -1.000000000000000000 ) ) ;
#194 = FACE_OUTER_BOUND ( 'NONE', #256, .T. ) ;
#195 = DIRECTION ( 'NONE',  ( -3.491481338843133355E-15, 1.224646799147353207E-16, -1.000000000000000000 ) ) ;
#196 = CIRCLE ( 'NONE', #262, 1.864999999999995106 ) ;
#197 = CARTESIAN_POINT ( 'NONE',  ( 8.728703347107833388E-16, 1.864999999999995106, 0.2500000000000000000 ) ) ;
#198 = ORIENTED_EDGE ( 'NONE', *, *, #90, .T. ) ;
#199 = CARTESIAN_POINT ( 'NONE',  ( 0.0000000000000000000, 0.0000000000000000000, 0.0000000000000000000 ) ) ;
#200 = EDGE_LOOP ( 'NONE', ( #128 ) ) ;
#201 = ADVANCED_FACE ( 'NONE', ( #226, #105 ), #251, .T. ) ;
#202 =( LENGTH_UNIT ( ) NAMED_UNIT ( * ) SI_UNIT ( .MILLI., .METRE. ) );
#203 = APPROVAL ( #80, 'UNSPECIFIED' ) ;
#204 = EDGE_LOOP ( 'NONE', ( #77 ) ) ;
#205 = ORIENTED_EDGE ( 'NONE', *, *, #5, .T. ) ;
#206 = PERSON_AND_ORGANIZATION ( #146, #72 ) ;
#207 = SHAPE_DEFINITION_REPRESENTATION ( #212, #236 ) ;
#208 = CONICAL_SURFACE ( 'NONE', #82, 1.864999999999995106, 0.5235987755983005920 ) ;
#209 = DATE_AND_TIME ( #26, #281 ) ;
#210 = CC_DESIGN_APPROVAL ( #268, ( #28 ) ) ;
#211 = DIRECTION ( 'NONE',  ( 0.0000000000000000000, 1.000000000000000000, 0.0000000000000000000 ) ) ;
#212 = PRODUCT_DEFINITION_SHAPE ( 'NONE', 'NONE',  #101 ) ;
#213 = APPROVAL_STATUS ( 'not_yet_approved' ) ;
#214 = APPROVAL_ROLE ( '' ) ;
#215 = FACE_OUTER_BOUND ( 'NONE', #301, .T. ) ;
#216 = MECHANICAL_CONTEXT ( 'NONE', #115, 'mechanical' ) ;
#217 = EDGE_LOOP ( 'NONE', ( #117 ) ) ;
#218 = MANIFOLD_SOLID_BREP ( 'Corps-Déplacer/Copier1[2]', #300 ) ;
#219 = DIRECTION ( 'NONE',  ( 4.275831445896958607E-31, 1.000000000000000000, 1.224646799147353207E-16 ) ) ;
#220 = ADVANCED_FACE ( 'NONE', ( #57 ), #59, .T. ) ;
#221 = PERSON_AND_ORGANIZATION_ROLE ( 'creator' ) ;
#222 = CARTESIAN_POINT ( 'NONE',  ( -6.905467785123564441E-31, 2.422112048998891716E-32, -1.977804580622968462E-16 ) ) ;
#223 = CARTESIAN_POINT ( 'NONE',  ( 2.444036937190193601E-13, 8.998558695971026591E-33, 70.00000000000000000 ) ) ;
#224 = APPROVAL_PERSON_ORGANIZATION ( #286, #268, #94 ) ;
#225 = EDGE_LOOP ( 'NONE', ( #228 ) ) ;
#226 = FACE_BOUND ( 'NONE', #6, .T. ) ;
#227 = CIRCLE ( 'NONE', #20, 1.864999999999995106 ) ;
#228 = ORIENTED_EDGE ( 'NONE', *, *, #69, .F. ) ;
#229 = CARTESIAN_POINT ( 'NONE',  ( 3.491481338843133355E-14, 1.398525997332176554E-32, 10.00000000000000000 ) ) ;
#230 = VERTEX_POINT ( 'NONE', #67 ) ;
#231 = AXIS2_PLACEMENT_3D ( 'NONE', #154, #270, #219 ) ;
#232 = ADVANCED_FACE ( 'NONE', ( #41, #86 ), #302, .T. ) ;
#233 = SECURITY_CLASSIFICATION_LEVEL ( 'unclassified' ) ;
#234 = CARTESIAN_POINT ( 'NONE',  ( 2.444036937190193601E-13, -8.572527594031472993E-15, 70.00000000000000000 ) ) ;
#235 = APPROVAL_PERSON_ORGANIZATION ( #104, #203, #172 ) ;
#236 = ADVANCED_BREP_SHAPE_REPRESENTATION ( '321599', ( #120, #218, #87 ), #66 ) ;
#237 = DATE_AND_TIME ( #263, #242 ) ;
#238 = DIRECTION ( 'NONE',  ( -3.491481338843133355E-15, 1.224646799147353207E-16, -1.000000000000000000 ) ) ;
#239 = PRODUCT_RELATED_PRODUCT_CATEGORY ( 'detail', '', ( #192 ) ) ;
#240 = DIRECTION ( 'NONE',  ( 4.275831445896958607E-31, 1.000000000000000000, 1.224646799147353454E-16 ) ) ;
#241 = DIRECTION ( 'NONE',  ( -3.491481338843133355E-15, 1.224646799147353207E-16, -1.000000000000000000 ) ) ;
#242 = LOCAL_TIME ( 10, 35, 59.00000000000000000, #289 ) ;
#243 = DIRECTION ( 'NONE',  ( 4.275831445896958607E-31, 1.000000000000000000, 1.224646799147353207E-16 ) ) ;
#244 = CC_DESIGN_DATE_AND_TIME_ASSIGNMENT ( #209, #119, ( #28 ) ) ;
#245 = EDGE_CURVE ( 'NONE', #40, #40, #140, .T. ) ;
#246 = DATE_AND_TIME ( #56, #33 ) ;
#247 = DIRECTION ( 'NONE',  ( -3.491481338843133355E-15, 1.224646799147353207E-16, -1.000000000000000000 ) ) ;
#248 = FACE_OUTER_BOUND ( 'NONE', #7, .T. ) ;
#249 = ORIENTED_EDGE ( 'NONE', *, *, #69, .T. ) ;
#250 = CARTESIAN_POINT ( 'NONE',  ( 3.491481338843133355E-14, 1.864999999999993774, 10.00000000000000000 ) ) ;
#251 = CONICAL_SURFACE ( 'NONE', #189, 1.864999999999995106, 0.5235987755983005920 ) ;
#252 = EDGE_LOOP ( 'NONE', ( #42 ) ) ;
#253 = PLANE ( 'NONE',  #44 ) ;
#254 = EDGE_CURVE ( 'NONE', #79, #79, #196, .T. ) ;
#255 = CIRCLE ( 'NONE', #186, 1.499999999999992895 ) ;
#256 = EDGE_LOOP ( 'NONE', ( #139 ) ) ;
#257 = AXIS2_PLACEMENT_3D ( 'NONE', #275, #247, #13 ) ;
#258 = AXIS2_PLACEMENT_3D ( 'NONE', #229, #21, #118 ) ;
#259 = PERSON_AND_ORGANIZATION ( #146, #72 ) ;
#260 = DIRECTION ( 'NONE',  ( 0.0000000000000000000, 1.000000000000000000, 0.0000000000000000000 ) ) ;
#261 = PLANE ( 'NONE',  #258 ) ;
#262 = AXIS2_PLACEMENT_3D ( 'NONE', #111, #193, #81 ) ;
#263 = CALENDAR_DATE ( 2021, 2, 12 ) ;
#264 = EDGE_LOOP ( 'NONE', ( #287 ) ) ;
#265 = PERSON_AND_ORGANIZATION_ROLE ( 'creator' ) ;
#266 = CARTESIAN_POINT ( 'NONE',  ( 2.433562493173664138E-13, -8.535788190057053710E-15, 69.70000000000001705 ) ) ;
#267 = DIRECTION ( 'NONE',  ( 3.491481338843133355E-15, -1.224646799147353207E-16, 1.000000000000000000 ) ) ;
#268 = APPROVAL ( #213, 'UNSPECIFIED' ) ;
#269 = COORDINATED_UNIVERSAL_TIME_OFFSET ( 1, 0, .AHEAD. ) ;
#270 = DIRECTION ( 'NONE',  ( -3.491481338843133355E-15, 1.224646799147353207E-16, -1.000000000000000000 ) ) ;
#271 = DIRECTION ( 'NONE',  ( -3.491481338843133355E-15, 1.224646799147353207E-16, -1.000000000000000000 ) ) ;
#272 = EDGE_LOOP ( 'NONE', ( #205 ) ) ;
#273 = VERTEX_POINT ( 'NONE', #250 ) ;
#274 = ADVANCED_FACE ( 'NONE', ( #18, #15 ), #288, .T. ) ;
#275 = CARTESIAN_POINT ( 'NONE',  ( 2.444036937190193601E-13, -8.572527594031472993E-15, 70.00000000000000000 ) ) ;
#276 = EDGE_CURVE ( 'NONE', #230, #230, #3, .T. ) ;
#277 = EDGE_LOOP ( 'NONE', ( #298 ) ) ;
#278 = DIRECTION ( 'NONE',  ( 4.130680845870758319E-31, 1.000000000000000000, 1.162683294890624524E-16 ) ) ;
#279 = CARTESIAN_POINT ( 'NONE',  ( 3.712212280991388647E-14, -1.302068791574271624E-15, 10.63219854476264281 ) ) ;
#280 = ADVANCED_FACE ( 'NONE', ( #136, #63 ), #177, .T. ) ;
#281 = LOCAL_TIME ( 10, 35, 59.00000000000000000, #8 ) ;
#282 = AXIS2_PLACEMENT_3D ( 'NONE', #123, #238, #211 ) ;
#283 = DATE_TIME_ROLE ( 'creation_date' ) ;
#284 = CYLINDRICAL_SURFACE ( 'NONE', #2, 1.499999999999996891 ) ;
#285 = ADVANCED_FACE ( 'NONE', ( #294 ), #253, .F. ) ;
#286 = PERSON_AND_ORGANIZATION ( #146, #72 ) ;
#287 = ORIENTED_EDGE ( 'NONE', *, *, #38, .T. ) ;
#288 = CONICAL_SURFACE ( 'NONE', #151, 1.614999999999994218, 0.7853981633974500554 ) ;
#289 = COORDINATED_UNIVERSAL_TIME_OFFSET ( 1, 0, .AHEAD. ) ;
#290 = DIRECTION ( 'NONE',  ( -3.491481338843133355E-15, 1.224646799147353207E-16, -1.000000000000000000 ) ) ;
#291 = CARTESIAN_POINT ( 'NONE',  ( 2.433562493173664138E-13, 1.499999999999992673, 69.70000000000001705 ) ) ;
#292 = DIRECTION ( 'NONE',  ( 0.0000000000000000000, 1.000000000000000000, 0.0000000000000000000 ) ) ;
#293 = CYLINDRICAL_SURFACE ( 'NONE', #51, 1.864999999999995106 ) ;
#294 = FACE_OUTER_BOUND ( 'NONE', #204, .T. ) ;
#295 = CC_DESIGN_PERSON_AND_ORGANIZATION_ASSIGNMENT ( #99, #29, ( #28 ) ) ;
#296 = CC_DESIGN_PERSON_AND_ORGANIZATION_ASSIGNMENT ( #73, #24, ( #192 ) ) ;
#297 = VERTEX_POINT ( 'NONE', #197 ) ;
#298 = ORIENTED_EDGE ( 'NONE', *, *, #19, .F. ) ;
#299 = LOCAL_TIME ( 10, 35, 59.00000000000000000, #76 ) ;
#300 = CLOSED_SHELL ( 'NONE', ( #58, #137, #274, #220, #25, #47, #53 ) ) ;
#301 = EDGE_LOOP ( 'NONE', ( #188 ) ) ;
#302 = CONICAL_SURFACE ( 'NONE', #257, 1.200000000000001510, 0.7853981633974566057 ) ;
#303 = EDGE_LOOP ( 'NONE', ( #198 ) ) ;
ENDSEC;
END-ISO-10303-21;
