ISO-10303-21;
HEADER;
FILE_DESCRIPTION (( 'STEP AP203' ),
    '1' );
FILE_NAME ('321598.step',
    '2021-12-02T09:35:58',
    ( '' ),
    ( '' ),
    'SwSTEP 2.0',
    'SolidWorks 2019',
    '' );
FILE_SCHEMA (( 'CONFIG_CONTROL_DESIGN' ));
ENDSEC;

DATA;
#1 = PERSON_AND_ORGANIZATION ( #31, #71 ) ;
#2 = APPROVAL_STATUS ( 'not_yet_approved' ) ;
#3 = CIRCLE ( 'NONE', #197, 1.200000000000001510 ) ;
#4 = AXIS2_PLACEMENT_3D ( 'NONE', #17, #247, #105 ) ;
#5 = PRODUCT_RELATED_PRODUCT_CATEGORY ( 'detail', '', ( #297 ) ) ;
#6 = EDGE_CURVE ( 'NONE', #43, #43, #3, .T. ) ;
#7 = CARTESIAN_POINT ( 'NONE',  ( -3.442044313947038988E-31, 1.207306625042791050E-32, -9.858406733136157930E-17 ) ) ;
#8 = ORIENTED_EDGE ( 'NONE', *, *, #246, .F. ) ;
#9 = PERSON_AND_ORGANIZATION ( #31, #71 ) ;
#10 = EDGE_LOOP ( 'NONE', ( #113 ) ) ;
#11 = APPLICATION_CONTEXT ( 'configuration controlled 3d designs of mechanical parts and assemblies' ) ;
#12 = CC_DESIGN_APPROVAL ( #23, ( #139 ) ) ;
#13 = PLANE ( 'NONE',  #4 ) ;
#14 = DIRECTION ( 'NONE',  ( -3.491481338843133355E-15, 1.224646799147353207E-16, -1.000000000000000000 ) ) ;
#15 = FACE_OUTER_BOUND ( 'NONE', #18, .T. ) ;
#16 = FACE_BOUND ( 'NONE', #107, .T. ) ;
#17 = CARTESIAN_POINT ( 'NONE',  ( 3.491481338843133355E-14, 1.394776597875521883E-32, 10.00000000000000000 ) ) ;
#18 = EDGE_LOOP ( 'NONE', ( #303 ) ) ;
#19 = ADVANCED_FACE ( 'NONE', ( #213 ), #117, .T. ) ;
#20 = CC_DESIGN_SECURITY_CLASSIFICATION ( #139, ( #274 ) ) ;
#21 = APPROVAL_DATE_TIME ( #276, #210 ) ;
#22 = ORIENTED_EDGE ( 'NONE', *, *, #6, .F. ) ;
#23 = APPROVAL ( #2, 'UNSPECIFIED' ) ;
#24 = SECURITY_CLASSIFICATION_LEVEL ( 'unclassified' ) ;
#25 = AXIS2_PLACEMENT_3D ( 'NONE', #101, #248, #172 ) ;
#26 =( NAMED_UNIT ( * ) SI_UNIT ( $, .STERADIAN. ) SOLID_ANGLE_UNIT ( ) );
#27 = ADVANCED_FACE ( 'NONE', ( #264, #192 ), #171, .T. ) ;
#28 = CARTESIAN_POINT ( 'NONE',  ( 2.444036937190193601E-13, -8.572527594031472993E-15, 70.00000000000000000 ) ) ;
#29 = CLOSED_SHELL ( 'NONE', ( #277, #204, #256, #27, #295 ) ) ;
#30 = EDGE_LOOP ( 'NONE', ( #70 ) ) ;
#31 = PERSON ( 'UNSPECIFIED', 'UNSPECIFIED', 'UNSPECIFIED', ('UNSPECIFIED'), ('UNSPECIFIED'), ('UNSPECIFIED') ) ;
#32 = CARTESIAN_POINT ( 'NONE',  ( 2.444036937190193601E-13, -8.572527594031472993E-15, 70.00000000000000000 ) ) ;
#33 = CYLINDRICAL_SURFACE ( 'NONE', #44, 1.859999999999994991 ) ;
#34 = CIRCLE ( 'NONE', #292, 1.499999999999992895 ) ;
#35 = LOCAL_TIME ( 10, 35, 58.00000000000000000, #211 ) ;
#36 = CARTESIAN_POINT ( 'NONE',  ( 0.0000000000000000000, 1.609999999999994102, 0.0000000000000000000 ) ) ;
#37 = DIRECTION ( 'NONE',  ( 4.275831445896958607E-31, 1.000000000000000000, 1.224646799147353454E-16 ) ) ;
#38 = APPLICATION_PROTOCOL_DEFINITION ( 'international standard', 'config_control_design', 1994, #11 ) ;
#39 = ADVANCED_FACE ( 'NONE', ( #240, #263 ), #33, .T. ) ;
#40 = DIRECTION ( 'NONE',  ( -3.491481338843133355E-15, 1.224646799147353207E-16, -1.000000000000000000 ) ) ;
#41 = EDGE_LOOP ( 'NONE', ( #97 ) ) ;
#42 = PLANE ( 'NONE',  #80 ) ;
#43 = VERTEX_POINT ( 'NONE', #145 ) ;
#44 = AXIS2_PLACEMENT_3D ( 'NONE', #287, #266, #158 ) ;
#45 = PERSON_AND_ORGANIZATION ( #31, #71 ) ;
#46 = PRODUCT_DEFINITION_SHAPE ( 'NONE', 'NONE',  #98 ) ;
#47 = DIRECTION ( 'NONE',  ( 4.141784826639228208E-31, 1.000000000000000000, 1.165808787618825158E-16 ) ) ;
#48 = EDGE_CURVE ( 'NONE', #268, #268, #62, .T. ) ;
#49 = AXIS2_PLACEMENT_3D ( 'NONE', #280, #160, #47 ) ;
#50 =( NAMED_UNIT ( * ) PLANE_ANGLE_UNIT ( ) SI_UNIT ( $, .RADIAN. ) );
#51 = FACE_OUTER_BOUND ( 'NONE', #208, .T. ) ;
#52 = AXIS2_PLACEMENT_3D ( 'NONE', #141, #164, #182 ) ;
#53 = CARTESIAN_POINT ( 'NONE',  ( 3.491481338843133355E-14, -1.224646799147353256E-15, 10.00000000000000000 ) ) ;
#54 = EDGE_CURVE ( 'NONE', #245, #245, #187, .T. ) ;
#55 = ORIENTED_EDGE ( 'NONE', *, *, #118, .T. ) ;
#56 = CARTESIAN_POINT ( 'NONE',  ( 8.728703347107833388E-16, 1.859999999999994991, 0.2500000000000000000 ) ) ;
#57 = CIRCLE ( 'NONE', #147, 1.200000000000001510 ) ;
#58 = CARTESIAN_POINT ( 'NONE',  ( 0.0000000000000000000, 0.0000000000000000000, 0.0000000000000000000 ) ) ;
#59 = EDGE_CURVE ( 'NONE', #124, #124, #234, .T. ) ;
#60 = FACE_OUTER_BOUND ( 'NONE', #90, .T. ) ;
#61 = CYLINDRICAL_SURFACE ( 'NONE', #206, 1.499999999999996891 ) ;
#62 = CIRCLE ( 'NONE', #49, 1.859999999999994991 ) ;
#63 = CONICAL_SURFACE ( 'NONE', #123, 1.859999999999994991, 0.5235987755983008141 ) ;
#64 = DIRECTION ( 'NONE',  ( -3.491481338843133355E-15, 1.224646799147353207E-16, -1.000000000000000000 ) ) ;
#65 = APPROVAL_ROLE ( '' ) ;
#66 = VERTEX_POINT ( 'NONE', #183 ) ;
#67 = APPROVAL_ROLE ( '' ) ;
#68 = ORIENTED_EDGE ( 'NONE', *, *, #223, .T. ) ;
#69 = ADVANCED_FACE ( 'NONE', ( #51 ), #242, .F. ) ;
#70 = ORIENTED_EDGE ( 'NONE', *, *, #286, .F. ) ;
#71 = ORGANIZATION ( 'UNSPECIFIED', 'UNSPECIFIED', '' ) ;
#72 = VERTEX_POINT ( 'NONE', #92 ) ;
#73 = DIRECTION ( 'NONE',  ( -3.491481338843133355E-15, 1.224646799147353207E-16, -1.000000000000000000 ) ) ;
#74 = DESIGN_CONTEXT ( 'detailed design', #253, 'design' ) ;
#75 = APPROVAL ( #258, 'UNSPECIFIED' ) ;
#76 = DIRECTION ( 'NONE',  ( -3.491481338843133355E-15, 1.224646799147353207E-16, -1.000000000000000000 ) ) ;
#77 = CARTESIAN_POINT ( 'NONE',  ( 3.491481338843133355E-14, -1.224646799147353256E-15, 10.00000000000000000 ) ) ;
#78 = FACE_BOUND ( 'NONE', #10, .T. ) ;
#79 = DIRECTION ( 'NONE',  ( 0.0000000000000000000, 1.000000000000000000, 0.0000000000000000000 ) ) ;
#80 = AXIS2_PLACEMENT_3D ( 'NONE', #176, #167, #255 ) ;
#81 = CARTESIAN_POINT ( 'NONE',  ( 3.491481338843133355E-14, -1.224646799147353256E-15, 10.00000000000000000 ) ) ;
#82 = DIRECTION ( 'NONE',  ( -3.491481338843133355E-15, 1.224646799147353207E-16, -1.000000000000000000 ) ) ;
#83 = DIRECTION ( 'NONE',  ( 0.0000000000000000000, 1.000000000000000000, 0.0000000000000000000 ) ) ;
#84 = ORIENTED_EDGE ( 'NONE', *, *, #286, .T. ) ;
#85 = ADVANCED_FACE ( 'NONE', ( #120, #217 ), #63, .T. ) ;
#86 = AXIS2_PLACEMENT_3D ( 'NONE', #32, #73, #137 ) ;
#87 =( GEOMETRIC_REPRESENTATION_CONTEXT ( 3 ) GLOBAL_UNCERTAINTY_ASSIGNED_CONTEXT ( ( #103 ) ) GLOBAL_UNIT_ASSIGNED_CONTEXT ( ( #130, #50, #26 ) ) REPRESENTATION_CONTEXT ( 'NONE', 'WORKASPACE' ) );
#88 = ADVANCED_FACE ( 'NONE', ( #127, #128 ), #178, .T. ) ;
#89 = EDGE_LOOP ( 'NONE', ( #250 ) ) ;
#90 = EDGE_LOOP ( 'NONE', ( #68 ) ) ;
#91 = COORDINATED_UNIVERSAL_TIME_OFFSET ( 1, 0, .AHEAD. ) ;
#92 = CARTESIAN_POINT ( 'NONE',  ( 3.709188569455110511E-14, 1.499999999999991562, 10.62353829072479705 ) ) ;
#93 = CARTESIAN_POINT ( 'NONE',  ( -6.884088627894077976E-31, 2.414613250085582100E-32, -1.971681346627231586E-16 ) ) ;
#94 = ADVANCED_BREP_SHAPE_REPRESENTATION ( '321598', ( #300, #199, #25 ), #87 ) ;
#95 = EDGE_LOOP ( 'NONE', ( #221 ) ) ;
#96 = APPROVAL_ROLE ( '' ) ;
#97 = ORIENTED_EDGE ( 'NONE', *, *, #59, .T. ) ;
#98 = PRODUCT_DEFINITION ( 'UNKNOWN', '', #274, #74 ) ;
#99 = CARTESIAN_POINT ( 'NONE',  ( 2.444036937190193601E-13, -8.572527594031472993E-15, 70.00000000000000000 ) ) ;
#100 = FACE_OUTER_BOUND ( 'NONE', #279, .T. ) ;
#101 = CARTESIAN_POINT ( 'NONE',  ( 0.0000000000000000000, 0.0000000000000000000, 0.0000000000000000000 ) ) ;
#102 = CARTESIAN_POINT ( 'NONE',  ( 3.491481338843133355E-14, 1.859999999999993658, 10.00000000000000000 ) ) ;
#103 = UNCERTAINTY_MEASURE_WITH_UNIT (LENGTH_MEASURE( 1.000000000000000082E-05 ), #130, 'distance_accuracy_value', 'NONE');
#104 = CARTESIAN_POINT ( 'NONE',  ( -6.884088627894077976E-31, 2.414613250085582100E-32, -1.971681346627231586E-16 ) ) ;
#105 = DIRECTION ( 'NONE',  ( -4.275831445896958607E-31, -1.000000000000000000, -1.224646799147353207E-16 ) ) ;
#106 = ADVANCED_FACE ( 'NONE', ( #194, #100 ), #61, .T. ) ;
#107 = EDGE_LOOP ( 'NONE', ( #216 ) ) ;
#108 = VERTEX_POINT ( 'NONE', #205 ) ;
#109 = CC_DESIGN_APPROVAL ( #75, ( #274 ) ) ;
#110 = LOCAL_TIME ( 10, 35, 58.00000000000000000, #91 ) ;
#111 = APPROVAL_STATUS ( 'not_yet_approved' ) ;
#112 = CARTESIAN_POINT ( 'NONE',  ( 2.433562493173664138E-13, 1.499999999999992673, 69.70000000000001705 ) ) ;
#113 = ORIENTED_EDGE ( 'NONE', *, *, #281, .T. ) ;
#114 = EDGE_LOOP ( 'NONE', ( #140 ) ) ;
#115 = VERTEX_POINT ( 'NONE', #238 ) ;
#116 = CIRCLE ( 'NONE', #146, 1.499999999999992895 ) ;
#117 = PLANE ( 'NONE',  #239 ) ;
#118 = EDGE_CURVE ( 'NONE', #232, #232, #193, .T. ) ;
#119 = EDGE_LOOP ( 'NONE', ( #267 ) ) ;
#120 = FACE_BOUND ( 'NONE', #190, .T. ) ;
#121 = ORIENTED_EDGE ( 'NONE', *, *, #272, .T. ) ;
#122 = APPROVAL_PERSON_ORGANIZATION ( #155, #75, #65 ) ;
#123 = AXIS2_PLACEMENT_3D ( 'NONE', #77, #231, #131 ) ;
#124 = VERTEX_POINT ( 'NONE', #102 ) ;
#125 = CC_DESIGN_DATE_AND_TIME_ASSIGNMENT ( #133, #301, ( #98 ) ) ;
#126 = FACE_OUTER_BOUND ( 'NONE', #30, .T. ) ;
#127 = FACE_OUTER_BOUND ( 'NONE', #259, .T. ) ;
#128 = FACE_BOUND ( 'NONE', #201, .T. ) ;
#129 = CC_DESIGN_PERSON_AND_ORGANIZATION_ASSIGNMENT ( #198, #278, ( #297 ) ) ;
#130 =( LENGTH_UNIT ( ) NAMED_UNIT ( * ) SI_UNIT ( .MILLI., .METRE. ) );
#131 = DIRECTION ( 'NONE',  ( 0.0000000000000000000, 1.000000000000000000, 0.0000000000000000000 ) ) ;
#132 = CALENDAR_DATE ( 2021, 2, 12 ) ;
#133 = DATE_AND_TIME ( #157, #35 ) ;
#134 = LOCAL_TIME ( 10, 35, 58.00000000000000000, #142 ) ;
#135 = COORDINATED_UNIVERSAL_TIME_OFFSET ( 1, 0, .AHEAD. ) ;
#136 = CALENDAR_DATE ( 2021, 2, 12 ) ;
#137 = DIRECTION ( 'NONE',  ( 4.275831445896958607E-31, 1.000000000000000000, 1.224646799147353207E-16 ) ) ;
#138 = AXIS2_PLACEMENT_3D ( 'NONE', #53, #189, #289 ) ;
#139 = SECURITY_CLASSIFICATION ( '', '', #24 ) ;
#140 = ORIENTED_EDGE ( 'NONE', *, *, #48, .T. ) ;
#141 = CARTESIAN_POINT ( 'NONE',  ( 2.444036937190193601E-13, -8.572527594031472993E-15, 70.00000000000000000 ) ) ;
#142 = COORDINATED_UNIVERSAL_TIME_OFFSET ( 1, 0, .AHEAD. ) ;
#143 = ORIENTED_EDGE ( 'NONE', *, *, #118, .F. ) ;
#144 = DIRECTION ( 'NONE',  ( 0.0000000000000000000, 1.000000000000000000, 0.0000000000000000000 ) ) ;
#145 = CARTESIAN_POINT ( 'NONE',  ( 2.444036937190193601E-13, 1.199999999999992628, 70.00000000000000000 ) ) ;
#146 = AXIS2_PLACEMENT_3D ( 'NONE', #269, #293, #251 ) ;
#147 = AXIS2_PLACEMENT_3D ( 'NONE', #99, #222, #270 ) ;
#148 = FACE_OUTER_BOUND ( 'NONE', #156, .T. ) ;
#149 = CARTESIAN_POINT ( 'NONE',  ( 3.491481338843133355E-14, -1.224646799147353256E-15, 10.00000000000000000 ) ) ;
#150 = ORIENTED_EDGE ( 'NONE', *, *, #48, .F. ) ;
#151 = CARTESIAN_POINT ( 'NONE',  ( 2.433562493173664138E-13, -8.535788190057053710E-15, 69.70000000000001705 ) ) ;
#152 = LOCAL_TIME ( 10, 35, 58.00000000000000000, #154 ) ;
#153 = FACE_OUTER_BOUND ( 'NONE', #114, .T. ) ;
#154 = COORDINATED_UNIVERSAL_TIME_OFFSET ( 1, 0, .AHEAD. ) ;
#155 = PERSON_AND_ORGANIZATION ( #31, #71 ) ;
#156 = EDGE_LOOP ( 'NONE', ( #84 ) ) ;
#157 = CALENDAR_DATE ( 2021, 2, 12 ) ;
#158 = DIRECTION ( 'NONE',  ( 4.275831445896957731E-31, 1.000000000000000000, 1.224646799147352961E-16 ) ) ;
#159 = PERSON_AND_ORGANIZATION_ROLE ( 'creator' ) ;
#160 = DIRECTION ( 'NONE',  ( -3.491481338843133355E-15, 1.224646799147353207E-16, -1.000000000000000000 ) ) ;
#161 = AXIS2_PLACEMENT_3D ( 'NONE', #81, #40, #196 ) ;
#162 = APPROVAL_PERSON_ORGANIZATION ( #45, #210, #67 ) ;
#163 = CC_DESIGN_PERSON_AND_ORGANIZATION_ASSIGNMENT ( #260, #207, ( #274 ) ) ;
#164 = DIRECTION ( 'NONE',  ( -3.491481338843133355E-15, 1.224646799147353207E-16, -1.000000000000000000 ) ) ;
#165 = DIRECTION ( 'NONE',  ( 4.275831445896958607E-31, 1.000000000000000000, 1.224646799147353207E-16 ) ) ;
#166 = DIRECTION ( 'NONE',  ( -3.491481338843133355E-15, 1.224646799147353207E-16, -1.000000000000000000 ) ) ;
#167 = DIRECTION ( 'NONE',  ( -3.491481338843133355E-15, 1.224646799147353207E-16, -1.000000000000000000 ) ) ;
#168 = DIRECTION ( 'NONE',  ( 4.275831445896958607E-31, 1.000000000000000000, 1.224646799147353454E-16 ) ) ;
#169 = CC_DESIGN_PERSON_AND_ORGANIZATION_ASSIGNMENT ( #302, #159, ( #274 ) ) ;
#170 = AXIS2_PLACEMENT_3D ( 'NONE', #104, #174, #224 ) ;
#171 = CONICAL_SURFACE ( 'NONE', #52, 1.200000000000001510, 0.7853981633974566057 ) ;
#172 = DIRECTION ( 'NONE',  ( 1.000000000000000000, 0.0000000000000000000, 0.0000000000000000000 ) ) ;
#173 = CIRCLE ( 'NONE', #161, 1.859999999999994991 ) ;
#174 = DIRECTION ( 'NONE',  ( 3.491481338843133355E-15, -1.224646799147353207E-16, 1.000000000000000000 ) ) ;
#175 = CYLINDRICAL_SURFACE ( 'NONE', #282, 1.499999999999996891 ) ;
#176 = CARTESIAN_POINT ( 'NONE',  ( 2.444036937190193601E-13, 8.998558695971026591E-33, 70.00000000000000000 ) ) ;
#177 = ORIENTED_EDGE ( 'NONE', *, *, #272, .F. ) ;
#178 = CONICAL_SURFACE ( 'NONE', #186, 1.200000000000001510, 0.7853981633974566057 ) ;
#179 = CALENDAR_DATE ( 2021, 2, 12 ) ;
#180 = EDGE_LOOP ( 'NONE', ( #177 ) ) ;
#181 = CC_DESIGN_PERSON_AND_ORGANIZATION_ASSIGNMENT ( #233, #299, ( #98 ) ) ;
#182 = DIRECTION ( 'NONE',  ( 0.0000000000000000000, 1.000000000000000000, 0.0000000000000000000 ) ) ;
#183 = CARTESIAN_POINT ( 'NONE',  ( 2.433562493173664138E-13, 1.499999999999992673, 69.70000000000001705 ) ) ;
#184 = EDGE_LOOP ( 'NONE', ( #22 ) ) ;
#185 = CC_DESIGN_PERSON_AND_ORGANIZATION_ASSIGNMENT ( #1, #275, ( #139 ) ) ;
#186 = AXIS2_PLACEMENT_3D ( 'NONE', #227, #200, #294 ) ;
#187 = CIRCLE ( 'NONE', #220, 1.609999999999994102 ) ;
#188 = AXIS2_PLACEMENT_3D ( 'NONE', #149, #82, #225 ) ;
#189 = DIRECTION ( 'NONE',  ( -3.491481338843133355E-15, 1.224646799147353207E-16, -1.000000000000000000 ) ) ;
#190 = EDGE_LOOP ( 'NONE', ( #121 ) ) ;
#191 = APPROVAL_DATE_TIME ( #218, #23 ) ;
#192 = FACE_BOUND ( 'NONE', #95, .T. ) ;
#193 = CIRCLE ( 'NONE', #244, 1.500000000000001110 ) ;
#194 = FACE_OUTER_BOUND ( 'NONE', #180, .T. ) ;
#195 = DIRECTION ( 'NONE',  ( -3.491481338843133355E-15, 1.224646799147353207E-16, -1.000000000000000000 ) ) ;
#196 = DIRECTION ( 'NONE',  ( 0.0000000000000000000, 1.000000000000000000, 0.0000000000000000000 ) ) ;
#197 = AXIS2_PLACEMENT_3D ( 'NONE', #28, #166, #144 ) ;
#198 = PERSON_AND_ORGANIZATION ( #31, #71 ) ;
#199 = MANIFOLD_SOLID_BREP ( 'Corps-Déplacer/Copier1[2]', #252 ) ;
#200 = DIRECTION ( 'NONE',  ( -3.491481338843133355E-15, 1.224646799147353207E-16, -1.000000000000000000 ) ) ;
#201 = EDGE_LOOP ( 'NONE', ( #226 ) ) ;
#202 = CARTESIAN_POINT ( 'NONE',  ( 3.709188569455110511E-14, -1.301008216335546580E-15, 10.62353829072479705 ) ) ;
#203 = ORIENTED_EDGE ( 'NONE', *, *, #223, .F. ) ;
#204 = ADVANCED_FACE ( 'NONE', ( #78, #126 ), #215, .T. ) ;
#205 = CARTESIAN_POINT ( 'NONE',  ( 2.444036937190193601E-13, 1.199999999999992628, 70.00000000000000000 ) ) ;
#206 = AXIS2_PLACEMENT_3D ( 'NONE', #273, #14, #168 ) ;
#207 = PERSON_AND_ORGANIZATION_ROLE ( 'design_supplier' ) ;
#208 = EDGE_LOOP ( 'NONE', ( #8 ) ) ;
#209 = AXIS2_PLACEMENT_3D ( 'NONE', #151, #64, #79 ) ;
#210 = APPROVAL ( #111, 'UNSPECIFIED' ) ;
#211 = COORDINATED_UNIVERSAL_TIME_OFFSET ( 1, 0, .AHEAD. ) ;
#212 = EDGE_LOOP ( 'NONE', ( #203 ) ) ;
#213 = FACE_OUTER_BOUND ( 'NONE', #89, .T. ) ;
#214 = APPROVAL_DATE_TIME ( #230, #75 ) ;
#215 = CONICAL_SURFACE ( 'NONE', #188, 1.859999999999994991, 0.5235987755983008141 ) ;
#216 = ORIENTED_EDGE ( 'NONE', *, *, #54, .F. ) ;
#217 = FACE_OUTER_BOUND ( 'NONE', #119, .T. ) ;
#218 = DATE_AND_TIME ( #241, #134 ) ;
#219 = APPROVAL_PERSON_ORGANIZATION ( #9, #23, #96 ) ;
#220 = AXIS2_PLACEMENT_3D ( 'NONE', #93, #76, #165 ) ;
#221 = ORIENTED_EDGE ( 'NONE', *, *, #6, .T. ) ;
#222 = DIRECTION ( 'NONE',  ( -3.491481338843133355E-15, 1.224646799147353207E-16, -1.000000000000000000 ) ) ;
#223 = EDGE_CURVE ( 'NONE', #66, #66, #283, .T. ) ;
#224 = DIRECTION ( 'NONE',  ( -4.275831445896958607E-31, -1.000000000000000000, -1.224646799147353207E-16 ) ) ;
#225 = DIRECTION ( 'NONE',  ( 0.0000000000000000000, 1.000000000000000000, 0.0000000000000000000 ) ) ;
#226 = ORIENTED_EDGE ( 'NONE', *, *, #246, .T. ) ;
#227 = CARTESIAN_POINT ( 'NONE',  ( 2.444036937190193601E-13, -8.572527594031472993E-15, 70.00000000000000000 ) ) ;
#228 = DATE_AND_TIME ( #132, #152 ) ;
#229 = APPLICATION_PROTOCOL_DEFINITION ( 'international standard', 'config_control_design', 1994, #253 ) ;
#230 = DATE_AND_TIME ( #136, #110 ) ;
#231 = DIRECTION ( 'NONE',  ( -3.491481338843133355E-15, 1.224646799147353207E-16, -1.000000000000000000 ) ) ;
#232 = VERTEX_POINT ( 'NONE', #112 ) ;
#233 = PERSON_AND_ORGANIZATION ( #31, #71 ) ;
#234 = CIRCLE ( 'NONE', #138, 1.859999999999994991 ) ;
#235 = CONICAL_SURFACE ( 'NONE', #170, 1.609999999999994102, 0.7853981633974500554 ) ;
#236 = ADVANCED_FACE ( 'NONE', ( #153, #16 ), #235, .T. ) ;
#237 = EDGE_LOOP ( 'NONE', ( #150 ) ) ;
#238 = CARTESIAN_POINT ( 'NONE',  ( 3.491481338843133355E-14, 1.859999999999993658, 10.00000000000000000 ) ) ;
#239 = AXIS2_PLACEMENT_3D ( 'NONE', #7, #285, #243 ) ;
#240 = FACE_OUTER_BOUND ( 'NONE', #41, .T. ) ;
#241 = CALENDAR_DATE ( 2021, 2, 12 ) ;
#242 = PLANE ( 'NONE',  #86 ) ;
#243 = DIRECTION ( 'NONE',  ( 4.275831445896958607E-31, 1.000000000000000000, 1.224646799147353207E-16 ) ) ;
#244 = AXIS2_PLACEMENT_3D ( 'NONE', #290, #195, #291 ) ;
#245 = VERTEX_POINT ( 'NONE', #36 ) ;
#246 = EDGE_CURVE ( 'NONE', #108, #108, #57, .T. ) ;
#247 = DIRECTION ( 'NONE',  ( 3.491481338843133355E-15, -1.224646799147353207E-16, 1.000000000000000000 ) ) ;
#248 = DIRECTION ( 'NONE',  ( 0.0000000000000000000, 0.0000000000000000000, 1.000000000000000000 ) ) ;
#249 = FACE_OUTER_BOUND ( 'NONE', #184, .T. ) ;
#250 = ORIENTED_EDGE ( 'NONE', *, *, #54, .T. ) ;
#251 = DIRECTION ( 'NONE',  ( 0.0000000000000000000, 1.000000000000000000, 0.0000000000000000000 ) ) ;
#252 = CLOSED_SHELL ( 'NONE', ( #85, #39, #236, #19, #69, #88, #106 ) ) ;
#253 = APPLICATION_CONTEXT ( 'configuration controlled 3d designs of mechanical parts and assemblies' ) ;
#254 = MECHANICAL_CONTEXT ( 'NONE', #11, 'mechanical' ) ;
#255 = DIRECTION ( 'NONE',  ( 4.275831445896958607E-31, 1.000000000000000000, 1.224646799147353207E-16 ) ) ;
#256 = ADVANCED_FACE ( 'NONE', ( #15, #60 ), #175, .T. ) ;
#257 = CC_DESIGN_DATE_AND_TIME_ASSIGNMENT ( #228, #265, ( #139 ) ) ;
#258 = APPROVAL_STATUS ( 'not_yet_approved' ) ;
#259 = EDGE_LOOP ( 'NONE', ( #143 ) ) ;
#260 = PERSON_AND_ORGANIZATION ( #31, #71 ) ;
#261 = LOCAL_TIME ( 10, 35, 58.00000000000000000, #135 ) ;
#262 = CARTESIAN_POINT ( 'NONE',  ( 3.709188569455110511E-14, 1.499999999999991562, 10.62353829072479705 ) ) ;
#263 = FACE_OUTER_BOUND ( 'NONE', #237, .T. ) ;
#264 = FACE_OUTER_BOUND ( 'NONE', #212, .T. ) ;
#265 = DATE_TIME_ROLE ( 'classification_date' ) ;
#266 = DIRECTION ( 'NONE',  ( -3.491481338843133355E-15, 1.224646799147353207E-16, -1.000000000000000000 ) ) ;
#267 = ORIENTED_EDGE ( 'NONE', *, *, #59, .F. ) ;
#268 = VERTEX_POINT ( 'NONE', #56 ) ;
#269 = CARTESIAN_POINT ( 'NONE',  ( 3.709188569455110511E-14, -1.301008216335546580E-15, 10.62353829072479705 ) ) ;
#270 = DIRECTION ( 'NONE',  ( 0.0000000000000000000, 1.000000000000000000, 0.0000000000000000000 ) ) ;
#271 = DIRECTION ( 'NONE',  ( -3.491481338843133355E-15, 1.224646799147353207E-16, -1.000000000000000000 ) ) ;
#272 = EDGE_CURVE ( 'NONE', #298, #298, #116, .T. ) ;
#273 = CARTESIAN_POINT ( 'NONE',  ( 0.0000000000000000000, 0.0000000000000000000, 0.0000000000000000000 ) ) ;
#274 = PRODUCT_DEFINITION_FORMATION_WITH_SPECIFIED_SOURCE ( 'ANY', '', #297, .NOT_KNOWN. ) ;
#275 = PERSON_AND_ORGANIZATION_ROLE ( 'classification_officer' ) ;
#276 = DATE_AND_TIME ( #179, #261 ) ;
#277 = ADVANCED_FACE ( 'NONE', ( #148 ), #13, .F. ) ;
#278 = PERSON_AND_ORGANIZATION_ROLE ( 'design_owner' ) ;
#279 = EDGE_LOOP ( 'NONE', ( #55 ) ) ;
#280 = CARTESIAN_POINT ( 'NONE',  ( 8.728703347107825500E-16, -3.061616997868380553E-17, 0.2499999999999997780 ) ) ;
#281 = EDGE_CURVE ( 'NONE', #72, #72, #34, .T. ) ;
#282 = AXIS2_PLACEMENT_3D ( 'NONE', #58, #271, #37 ) ;
#283 = CIRCLE ( 'NONE', #209, 1.500000000000001110 ) ;
#284 = SHAPE_DEFINITION_REPRESENTATION ( #46, #94 ) ;
#285 = DIRECTION ( 'NONE',  ( -3.491481338843133355E-15, 1.224646799147353207E-16, -1.000000000000000000 ) ) ;
#286 = EDGE_CURVE ( 'NONE', #115, #115, #173, .T. ) ;
#287 = CARTESIAN_POINT ( 'NONE',  ( 0.0000000000000000000, 0.0000000000000000000, 0.0000000000000000000 ) ) ;
#288 = CC_DESIGN_APPROVAL ( #210, ( #98 ) ) ;
#289 = DIRECTION ( 'NONE',  ( 0.0000000000000000000, 1.000000000000000000, 0.0000000000000000000 ) ) ;
#290 = CARTESIAN_POINT ( 'NONE',  ( 2.433562493173664138E-13, -8.535788190057053710E-15, 69.70000000000001705 ) ) ;
#291 = DIRECTION ( 'NONE',  ( 0.0000000000000000000, 1.000000000000000000, 0.0000000000000000000 ) ) ;
#292 = AXIS2_PLACEMENT_3D ( 'NONE', #202, #296, #83 ) ;
#293 = DIRECTION ( 'NONE',  ( -3.491481338843133355E-15, 1.224646799147353207E-16, -1.000000000000000000 ) ) ;
#294 = DIRECTION ( 'NONE',  ( 0.0000000000000000000, 1.000000000000000000, 0.0000000000000000000 ) ) ;
#295 = ADVANCED_FACE ( 'NONE', ( #249 ), #42, .F. ) ;
#296 = DIRECTION ( 'NONE',  ( -3.491481338843133355E-15, 1.224646799147353207E-16, -1.000000000000000000 ) ) ;
#297 = PRODUCT ( '321598', '321598', '', ( #254 ) ) ;
#298 = VERTEX_POINT ( 'NONE', #262 ) ;
#299 = PERSON_AND_ORGANIZATION_ROLE ( 'creator' ) ;
#300 = MANIFOLD_SOLID_BREP ( 'Corps-Déplacer/Copier1[1]', #29 ) ;
#301 = DATE_TIME_ROLE ( 'creation_date' ) ;
#302 = PERSON_AND_ORGANIZATION ( #31, #71 ) ;
#303 = ORIENTED_EDGE ( 'NONE', *, *, #281, .F. ) ;
ENDSEC;
END-ISO-10303-21;
