ISO-10303-21;
HEADER;
FILE_DESCRIPTION (( 'STEP AP203' ),
    '1' );
FILE_NAME ('321597.step',
    '2021-12-02T09:35:58',
    ( '' ),
    ( '' ),
    'SwSTEP 2.0',
    'SolidWorks 2019',
    '' );
FILE_SCHEMA (( 'CONFIG_CONTROL_DESIGN' ));
ENDSEC;

DATA;
#1 = CIRCLE ( 'NONE', #222, 1.854999999999995097 ) ;
#2 = SECURITY_CLASSIFICATION ( '', '', #155 ) ;
#3 = ADVANCED_FACE ( 'NONE', ( #111, #258 ), #33, .T. ) ;
#4 = FACE_BOUND ( 'NONE', #273, .T. ) ;
#5 = MANIFOLD_SOLID_BREP ( 'Corps-Déplacer/Copier1[1]', #7 ) ;
#6 = VERTEX_POINT ( 'NONE', #99 ) ;
#7 = CLOSED_SHELL ( 'NONE', ( #241, #284, #96, #245, #113 ) ) ;
#8 = COORDINATED_UNIVERSAL_TIME_OFFSET ( 1, 0, .AHEAD. ) ;
#9 = DATE_AND_TIME ( #10, #260 ) ;
#10 = CALENDAR_DATE ( 2021, 2, 12 ) ;
#11 = EDGE_LOOP ( 'NONE', ( #207 ) ) ;
#12 = CIRCLE ( 'NONE', #122, 1.200000000000001510 ) ;
#13 = EDGE_LOOP ( 'NONE', ( #164 ) ) ;
#14 = DIRECTION ( 'NONE',  ( -3.491481338843133355E-15, 1.224646799147353207E-16, -1.000000000000000000 ) ) ;
#15 = APPROVAL_STATUS ( 'not_yet_approved' ) ;
#16 = EDGE_LOOP ( 'NONE', ( #187 ) ) ;
#17 = DIRECTION ( 'NONE',  ( 0.0000000000000000000, 1.000000000000000000, 0.0000000000000000000 ) ) ;
#18 = DIRECTION ( 'NONE',  ( 4.275831445896958607E-31, 1.000000000000000000, 1.224646799147353454E-16 ) ) ;
#19 = ADVANCED_FACE ( 'NONE', ( #168 ), #63, .F. ) ;
#20 = CIRCLE ( 'NONE', #68, 1.500000000000001110 ) ;
#21 = ORIENTED_EDGE ( 'NONE', *, *, #271, .F. ) ;
#22 = FACE_OUTER_BOUND ( 'NONE', #16, .T. ) ;
#23 = CARTESIAN_POINT ( 'NONE',  ( 0.0000000000000000000, 0.0000000000000000000, 0.0000000000000000000 ) ) ;
#24 = DESIGN_CONTEXT ( 'detailed design', #184, 'design' ) ;
#25 = APPROVAL_STATUS ( 'not_yet_approved' ) ;
#26 = CARTESIAN_POINT ( 'NONE',  ( 2.433562493173664138E-13, -8.535788190057053710E-15, 69.70000000000001705 ) ) ;
#27 = CONICAL_SURFACE ( 'NONE', #150, 1.200000000000001510, 0.7853981633974566057 ) ;
#28 = DIRECTION ( 'NONE',  ( -3.491481338843133355E-15, 1.224646799147353207E-16, -1.000000000000000000 ) ) ;
#29 = DIRECTION ( 'NONE',  ( 0.0000000000000000000, 1.000000000000000000, 0.0000000000000000000 ) ) ;
#30 = EDGE_CURVE ( 'NONE', #100, #100, #1, .T. ) ;
#31 = DIRECTION ( 'NONE',  ( 0.0000000000000000000, 1.000000000000000000, 0.0000000000000000000 ) ) ;
#32 = CALENDAR_DATE ( 2021, 2, 12 ) ;
#33 = CONICAL_SURFACE ( 'NONE', #206, 1.854999999999995097, 0.5235987755983005920 ) ;
#34 = DIRECTION ( 'NONE',  ( -3.491481338843133355E-15, 1.224646799147353207E-16, -1.000000000000000000 ) ) ;
#35 =( NAMED_UNIT ( * ) SI_UNIT ( $, .STERADIAN. ) SOLID_ANGLE_UNIT ( ) );
#36 = APPROVAL_PERSON_ORGANIZATION ( #62, #83, #295 ) ;
#37 = APPROVAL_DATE_TIME ( #9, #131 ) ;
#38 = EDGE_CURVE ( 'NONE', #101, #101, #181, .T. ) ;
#39 = CARTESIAN_POINT ( 'NONE',  ( 0.0000000000000000000, 0.0000000000000000000, 0.0000000000000000000 ) ) ;
#40 = DIRECTION ( 'NONE',  ( -3.491481338843133355E-15, 1.224646799147353207E-16, -1.000000000000000000 ) ) ;
#41 = EDGE_LOOP ( 'NONE', ( #88 ) ) ;
#42 = DIRECTION ( 'NONE',  ( 0.0000000000000000000, 1.000000000000000000, 0.0000000000000000000 ) ) ;
#43 = DIRECTION ( 'NONE',  ( 0.0000000000000000000, 1.000000000000000000, 0.0000000000000000000 ) ) ;
#44 = FACE_OUTER_BOUND ( 'NONE', #299, .T. ) ;
#45 = APPROVAL_PERSON_ORGANIZATION ( #65, #131, #291 ) ;
#46 = PLANE ( 'NONE',  #163 ) ;
#47 = PERSON_AND_ORGANIZATION ( #159, #208 ) ;
#48 = EDGE_CURVE ( 'NONE', #82, #82, #161, .T. ) ;
#49 = APPROVAL_PERSON_ORGANIZATION ( #47, #218, #121 ) ;
#50 = DIRECTION ( 'NONE',  ( -3.491481338843133355E-15, 1.224646799147353207E-16, -1.000000000000000000 ) ) ;
#51 = CARTESIAN_POINT ( 'NONE',  ( -6.862709470664593261E-31, 2.407114451172272757E-32, -1.965558112631494710E-16 ) ) ;
#52 = CARTESIAN_POINT ( 'NONE',  ( 3.706164857918833638E-14, 1.499999999999991562, 10.61487803668695307 ) ) ;
#53 = AXIS2_PLACEMENT_3D ( 'NONE', #219, #302, #237 ) ;
#54 =( NAMED_UNIT ( * ) PLANE_ANGLE_UNIT ( ) SI_UNIT ( $, .RADIAN. ) );
#55 = EDGE_LOOP ( 'NONE', ( #21 ) ) ;
#56 = ADVANCED_FACE ( 'NONE', ( #81, #156 ), #92, .T. ) ;
#57 = DIRECTION ( 'NONE',  ( -3.491481338843133355E-15, 1.224646799147353207E-16, -1.000000000000000000 ) ) ;
#58 = CALENDAR_DATE ( 2021, 2, 12 ) ;
#59 = COORDINATED_UNIVERSAL_TIME_OFFSET ( 1, 0, .AHEAD. ) ;
#60 = ADVANCED_FACE ( 'NONE', ( #274, #22 ), #190, .T. ) ;
#61 = DIRECTION ( 'NONE',  ( 4.275831445896958607E-31, 1.000000000000000000, 1.224646799147353207E-16 ) ) ;
#62 = PERSON_AND_ORGANIZATION ( #159, #208 ) ;
#63 = PLANE ( 'NONE',  #124 ) ;
#64 = FACE_OUTER_BOUND ( 'NONE', #108, .T. ) ;
#65 = PERSON_AND_ORGANIZATION ( #159, #208 ) ;
#66 = ORIENTED_EDGE ( 'NONE', *, *, #275, .F. ) ;
#67 = DIRECTION ( 'NONE',  ( -3.491481338843133355E-15, 1.224646799147353207E-16, -1.000000000000000000 ) ) ;
#68 = AXIS2_PLACEMENT_3D ( 'NONE', #200, #303, #285 ) ;
#69 = EDGE_LOOP ( 'NONE', ( #140 ) ) ;
#70 = FACE_OUTER_BOUND ( 'NONE', #210, .T. ) ;
#71 = PRODUCT_DEFINITION_SHAPE ( 'NONE', 'NONE',  #104 ) ;
#72 = EDGE_LOOP ( 'NONE', ( #90 ) ) ;
#73 = DIRECTION ( 'NONE',  ( 0.0000000000000000000, 1.000000000000000000, 0.0000000000000000000 ) ) ;
#74 = EDGE_LOOP ( 'NONE', ( #213 ) ) ;
#75 = CARTESIAN_POINT ( 'NONE',  ( 3.491481338843133355E-14, -1.224646799147353256E-15, 10.00000000000000000 ) ) ;
#76 = AXIS2_PLACEMENT_3D ( 'NONE', #259, #169, #294 ) ;
#77 = AXIS2_PLACEMENT_3D ( 'NONE', #249, #14, #188 ) ;
#78 = EDGE_CURVE ( 'NONE', #149, #149, #174, .T. ) ;
#79 = DIRECTION ( 'NONE',  ( 0.0000000000000000000, 1.000000000000000000, 0.0000000000000000000 ) ) ;
#80 = LOCAL_TIME ( 10, 35, 58.00000000000000000, #266 ) ;
#81 = FACE_OUTER_BOUND ( 'NONE', #276, .T. ) ;
#82 = VERTEX_POINT ( 'NONE', #221 ) ;
#83 = APPROVAL ( #15, 'UNSPECIFIED' ) ;
#84 = EDGE_LOOP ( 'NONE', ( #144 ) ) ;
#85 = APPLICATION_CONTEXT ( 'configuration controlled 3d designs of mechanical parts and assemblies' ) ;
#86 =( LENGTH_UNIT ( ) NAMED_UNIT ( * ) SI_UNIT ( .MILLI., .METRE. ) );
#87 = PERSON_AND_ORGANIZATION_ROLE ( 'classification_officer' ) ;
#88 = ORIENTED_EDGE ( 'NONE', *, *, #215, .F. ) ;
#89 = FACE_OUTER_BOUND ( 'NONE', #135, .T. ) ;
#90 = ORIENTED_EDGE ( 'NONE', *, *, #271, .T. ) ;
#91 = CARTESIAN_POINT ( 'NONE',  ( -3.431354735332296631E-31, 1.203557225586136379E-32, -9.827790563157473551E-17 ) ) ;
#92 = CONICAL_SURFACE ( 'NONE', #76, 1.604999999999994209, 0.7853981633974500554 ) ;
#93 = ADVANCED_FACE ( 'NONE', ( #89, #301 ), #214, .T. ) ;
#94 = DIRECTION ( 'NONE',  ( 4.275831445896958607E-31, 1.000000000000000000, 1.224646799147353207E-16 ) ) ;
#95 = CYLINDRICAL_SURFACE ( 'NONE', #98, 1.499999999999996891 ) ;
#96 = ADVANCED_FACE ( 'NONE', ( #70, #193 ), #95, .T. ) ;
#97 = CLOSED_SHELL ( 'NONE', ( #3, #93, #56, #127, #19, #282, #60 ) ) ;
#98 = AXIS2_PLACEMENT_3D ( 'NONE', #23, #300, #120 ) ;
#99 = CARTESIAN_POINT ( 'NONE',  ( 8.728703347107833388E-16, 1.854999999999995097, 0.2500000000000000000 ) ) ;
#100 = VERTEX_POINT ( 'NONE', #177 ) ;
#101 = VERTEX_POINT ( 'NONE', #173 ) ;
#102 = DIRECTION ( 'NONE',  ( 0.0000000000000000000, 1.000000000000000000, 0.0000000000000000000 ) ) ;
#103 =( GEOMETRIC_REPRESENTATION_CONTEXT ( 3 ) GLOBAL_UNCERTAINTY_ASSIGNED_CONTEXT ( ( #290 ) ) GLOBAL_UNIT_ASSIGNED_CONTEXT ( ( #86, #54, #35 ) ) REPRESENTATION_CONTEXT ( 'NONE', 'WORKASPACE' ) );
#104 = PRODUCT_DEFINITION ( 'UNKNOWN', '', #298, #24 ) ;
#105 = PERSON_AND_ORGANIZATION ( #159, #208 ) ;
#106 = LOCAL_TIME ( 10, 35, 58.00000000000000000, #59 ) ;
#107 = PERSON_AND_ORGANIZATION ( #159, #208 ) ;
#108 = EDGE_LOOP ( 'NONE', ( #269 ) ) ;
#109 = PLANE ( 'NONE',  #146 ) ;
#110 = APPROVAL_DATE_TIME ( #179, #83 ) ;
#111 = FACE_BOUND ( 'NONE', #72, .T. ) ;
#112 = CC_DESIGN_PERSON_AND_ORGANIZATION_ASSIGNMENT ( #204, #87, ( #2 ) ) ;
#113 = ADVANCED_FACE ( 'NONE', ( #196 ), #277, .F. ) ;
#114 = FACE_OUTER_BOUND ( 'NONE', #292, .T. ) ;
#115 = ORIENTED_EDGE ( 'NONE', *, *, #228, .T. ) ;
#116 = DIRECTION ( 'NONE',  ( -3.491481338843133355E-15, 1.224646799147353207E-16, -1.000000000000000000 ) ) ;
#117 = MANIFOLD_SOLID_BREP ( 'Corps-Déplacer/Copier1[2]', #97 ) ;
#118 = ORIENTED_EDGE ( 'NONE', *, *, #255, .F. ) ;
#119 = DIRECTION ( 'NONE',  ( -3.491481338843133355E-15, 1.224646799147353207E-16, -1.000000000000000000 ) ) ;
#120 = DIRECTION ( 'NONE',  ( 4.275831445896958607E-31, 1.000000000000000000, 1.224646799147353454E-16 ) ) ;
#121 = APPROVAL_ROLE ( '' ) ;
#122 = AXIS2_PLACEMENT_3D ( 'NONE', #141, #234, #17 ) ;
#123 = CIRCLE ( 'NONE', #272, 1.854999999999995097 ) ;
#124 = AXIS2_PLACEMENT_3D ( 'NONE', #248, #251, #256 ) ;
#125 = CARTESIAN_POINT ( 'NONE',  ( 3.491481338843133355E-14, 1.854999999999993765, 10.00000000000000000 ) ) ;
#126 = CC_DESIGN_APPROVAL ( #131, ( #2 ) ) ;
#127 = ADVANCED_FACE ( 'NONE', ( #44 ), #109, .T. ) ;
#128 = APPLICATION_PROTOCOL_DEFINITION ( 'international standard', 'config_control_design', 1994, #85 ) ;
#129 = AXIS2_PLACEMENT_3D ( 'NONE', #26, #28, #31 ) ;
#130 = LOCAL_TIME ( 10, 35, 58.00000000000000000, #281 ) ;
#131 = APPROVAL ( #227, 'UNSPECIFIED' ) ;
#132 = DATE_AND_TIME ( #58, #106 ) ;
#133 = CC_DESIGN_DATE_AND_TIME_ASSIGNMENT ( #132, #137, ( #104 ) ) ;
#134 = PRODUCT ( '321597', '321597', '', ( #226 ) ) ;
#135 = EDGE_LOOP ( 'NONE', ( #115 ) ) ;
#136 = DIRECTION ( 'NONE',  ( -3.491481338843133355E-15, 1.224646799147353207E-16, -1.000000000000000000 ) ) ;
#137 = DATE_TIME_ROLE ( 'creation_date' ) ;
#138 = PRODUCT_RELATED_PRODUCT_CATEGORY ( 'detail', '', ( #134 ) ) ;
#139 = CC_DESIGN_PERSON_AND_ORGANIZATION_ASSIGNMENT ( #240, #261, ( #134 ) ) ;
#140 = ORIENTED_EDGE ( 'NONE', *, *, #275, .T. ) ;
#141 = CARTESIAN_POINT ( 'NONE',  ( 2.444036937190193601E-13, -8.572527594031472993E-15, 70.00000000000000000 ) ) ;
#142 = DIRECTION ( 'NONE',  ( 3.491481338843133355E-15, -1.224646799147353207E-16, 1.000000000000000000 ) ) ;
#143 = DIRECTION ( 'NONE',  ( -3.491481338843133355E-15, 1.224646799147353207E-16, -1.000000000000000000 ) ) ;
#144 = ORIENTED_EDGE ( 'NONE', *, *, #78, .T. ) ;
#145 = CARTESIAN_POINT ( 'NONE',  ( 2.444036937190193601E-13, -8.572527594031472993E-15, 70.00000000000000000 ) ) ;
#146 = AXIS2_PLACEMENT_3D ( 'NONE', #91, #119, #232 ) ;
#147 = CARTESIAN_POINT ( 'NONE',  ( 3.491481338843133355E-14, 1.391027198418867211E-32, 10.00000000000000000 ) ) ;
#148 = CARTESIAN_POINT ( 'NONE',  ( 3.491481338843133355E-14, -1.224646799147353256E-15, 10.00000000000000000 ) ) ;
#149 = VERTEX_POINT ( 'NONE', #201 ) ;
#150 = AXIS2_PLACEMENT_3D ( 'NONE', #236, #34, #79 ) ;
#151 = VERTEX_POINT ( 'NONE', #264 ) ;
#152 = VERTEX_POINT ( 'NONE', #176 ) ;
#153 = CARTESIAN_POINT ( 'NONE',  ( 0.0000000000000000000, 0.0000000000000000000, 0.0000000000000000000 ) ) ;
#154 = AXIS2_PLACEMENT_3D ( 'NONE', #253, #40, #42 ) ;
#155 = SECURITY_CLASSIFICATION_LEVEL ( 'unclassified' ) ;
#156 = FACE_BOUND ( 'NONE', #11, .T. ) ;
#157 = ORIENTED_EDGE ( 'NONE', *, *, #48, .T. ) ;
#158 = FACE_BOUND ( 'NONE', #69, .T. ) ;
#159 = PERSON ( 'UNSPECIFIED', 'UNSPECIFIED', 'UNSPECIFIED', ('UNSPECIFIED'), ('UNSPECIFIED'), ('UNSPECIFIED') ) ;
#160 = DIRECTION ( 'NONE',  ( -3.491481338843133355E-15, 1.224646799147353207E-16, -1.000000000000000000 ) ) ;
#161 = CIRCLE ( 'NONE', #223, 1.604999999999994209 ) ;
#162 = DIRECTION ( 'NONE',  ( 0.0000000000000000000, 1.000000000000000000, 0.0000000000000000000 ) ) ;
#163 = AXIS2_PLACEMENT_3D ( 'NONE', #147, #142, #268 ) ;
#164 = ORIENTED_EDGE ( 'NONE', *, *, #38, .T. ) ;
#165 = DIRECTION ( 'NONE',  ( -3.491481338843133355E-15, 1.224646799147353207E-16, -1.000000000000000000 ) ) ;
#166 = ORIENTED_EDGE ( 'NONE', *, *, #30, .T. ) ;
#167 = DIRECTION ( 'NONE',  ( 4.275831445896958607E-31, 1.000000000000000000, 1.224646799147353207E-16 ) ) ;
#168 = FACE_OUTER_BOUND ( 'NONE', #74, .T. ) ;
#169 = DIRECTION ( 'NONE',  ( 3.491481338843133355E-15, -1.224646799147353207E-16, 1.000000000000000000 ) ) ;
#170 = AXIS2_PLACEMENT_3D ( 'NONE', #145, #136, #73 ) ;
#171 = AXIS2_PLACEMENT_3D ( 'NONE', #153, #244, #198 ) ;
#172 = CARTESIAN_POINT ( 'NONE',  ( 3.491481338843133355E-14, -1.224646799147353256E-15, 10.00000000000000000 ) ) ;
#173 = CARTESIAN_POINT ( 'NONE',  ( 2.433562493173664138E-13, 1.499999999999992673, 69.70000000000001705 ) ) ;
#174 = CIRCLE ( 'NONE', #170, 1.200000000000001510 ) ;
#175 = CC_DESIGN_PERSON_AND_ORGANIZATION_ASSIGNMENT ( #105, #212, ( #298 ) ) ;
#176 = CARTESIAN_POINT ( 'NONE',  ( 2.433562493173664138E-13, 1.499999999999992673, 69.70000000000001705 ) ) ;
#177 = CARTESIAN_POINT ( 'NONE',  ( 3.491481338843133355E-14, 1.854999999999993765, 10.00000000000000000 ) ) ;
#178 = AXIS2_PLACEMENT_3D ( 'NONE', #270, #67, #162 ) ;
#179 = DATE_AND_TIME ( #267, #80 ) ;
#180 = CC_DESIGN_PERSON_AND_ORGANIZATION_ASSIGNMENT ( #229, #209, ( #298 ) ) ;
#181 = CIRCLE ( 'NONE', #129, 1.500000000000001110 ) ;
#182 = LOCAL_TIME ( 10, 35, 58.00000000000000000, #8 ) ;
#183 = ORIENTED_EDGE ( 'NONE', *, *, #215, .T. ) ;
#184 = APPLICATION_CONTEXT ( 'configuration controlled 3d designs of mechanical parts and assemblies' ) ;
#185 = DIRECTION ( 'NONE',  ( -3.491481338843133355E-15, 1.224646799147353207E-16, -1.000000000000000000 ) ) ;
#186 = APPROVAL_DATE_TIME ( #224, #218 ) ;
#187 = ORIENTED_EDGE ( 'NONE', *, *, #293, .T. ) ;
#188 = DIRECTION ( 'NONE',  ( 0.0000000000000000000, 1.000000000000000000, 0.0000000000000000000 ) ) ;
#189 = EDGE_LOOP ( 'NONE', ( #233 ) ) ;
#190 = CYLINDRICAL_SURFACE ( 'NONE', #289, 1.499999999999996891 ) ;
#191 = CIRCLE ( 'NONE', #154, 1.499999999999992895 ) ;
#192 = EDGE_LOOP ( 'NONE', ( #195 ) ) ;
#193 = FACE_OUTER_BOUND ( 'NONE', #13, .T. ) ;
#194 = CC_DESIGN_PERSON_AND_ORGANIZATION_ASSIGNMENT ( #107, #287, ( #104 ) ) ;
#195 = ORIENTED_EDGE ( 'NONE', *, *, #228, .F. ) ;
#196 = FACE_OUTER_BOUND ( 'NONE', #243, .T. ) ;
#197 = AXIS2_PLACEMENT_3D ( 'NONE', #172, #50, #102 ) ;
#198 = DIRECTION ( 'NONE',  ( 1.000000000000000000, 0.0000000000000000000, 0.0000000000000000000 ) ) ;
#199 = CC_DESIGN_APPROVAL ( #83, ( #298 ) ) ;
#200 = CARTESIAN_POINT ( 'NONE',  ( 2.433562493173664138E-13, -8.535788190057053710E-15, 69.70000000000001705 ) ) ;
#201 = CARTESIAN_POINT ( 'NONE',  ( 2.444036937190193601E-13, 1.199999999999992628, 70.00000000000000000 ) ) ;
#202 = CONICAL_SURFACE ( 'NONE', #197, 1.854999999999995097, 0.5235987755983005920 ) ;
#203 = CARTESIAN_POINT ( 'NONE',  ( 3.706164857918833638E-14, 1.499999999999991562, 10.61487803668695307 ) ) ;
#204 = PERSON_AND_ORGANIZATION ( #159, #208 ) ;
#205 = DATE_AND_TIME ( #247, #182 ) ;
#206 = AXIS2_PLACEMENT_3D ( 'NONE', #296, #160, #43 ) ;
#207 = ORIENTED_EDGE ( 'NONE', *, *, #48, .F. ) ;
#208 = ORGANIZATION ( 'UNSPECIFIED', 'UNSPECIFIED', '' ) ;
#209 = PERSON_AND_ORGANIZATION_ROLE ( 'design_supplier' ) ;
#210 = EDGE_LOOP ( 'NONE', ( #118 ) ) ;
#211 = FACE_OUTER_BOUND ( 'NONE', #235, .T. ) ;
#212 = PERSON_AND_ORGANIZATION_ROLE ( 'creator' ) ;
#213 = ORIENTED_EDGE ( 'NONE', *, *, #78, .F. ) ;
#214 = CYLINDRICAL_SURFACE ( 'NONE', #231, 1.854999999999995097 ) ;
#215 = EDGE_CURVE ( 'NONE', #6, #6, #252, .T. ) ;
#216 = ORIENTED_EDGE ( 'NONE', *, *, #255, .T. ) ;
#217 = CARTESIAN_POINT ( 'NONE',  ( 0.0000000000000000000, 0.0000000000000000000, 0.0000000000000000000 ) ) ;
#218 = APPROVAL ( #25, 'UNSPECIFIED' ) ;
#219 = CARTESIAN_POINT ( 'NONE',  ( 8.728703347107825500E-16, -3.061616997868380553E-17, 0.2499999999999997780 ) ) ;
#220 = CARTESIAN_POINT ( 'NONE',  ( 2.444036937190193601E-13, 8.998558695971026591E-33, 70.00000000000000000 ) ) ;
#221 = CARTESIAN_POINT ( 'NONE',  ( 0.0000000000000000000, 1.604999999999994209, 0.0000000000000000000 ) ) ;
#222 = AXIS2_PLACEMENT_3D ( 'NONE', #148, #143, #29 ) ;
#223 = AXIS2_PLACEMENT_3D ( 'NONE', #51, #57, #61 ) ;
#224 = DATE_AND_TIME ( #32, #130 ) ;
#225 = AXIS2_PLACEMENT_3D ( 'NONE', #220, #185, #94 ) ;
#226 = MECHANICAL_CONTEXT ( 'NONE', #85, 'mechanical' ) ;
#227 = APPROVAL_STATUS ( 'not_yet_approved' ) ;
#228 = EDGE_CURVE ( 'NONE', #286, #286, #123, .T. ) ;
#229 = PERSON_AND_ORGANIZATION ( #159, #208 ) ;
#230 = ORIENTED_EDGE ( 'NONE', *, *, #293, .F. ) ;
#231 = AXIS2_PLACEMENT_3D ( 'NONE', #217, #116, #167 ) ;
#232 = DIRECTION ( 'NONE',  ( 4.275831445896958607E-31, 1.000000000000000000, 1.224646799147353207E-16 ) ) ;
#233 = ORIENTED_EDGE ( 'NONE', *, *, #30, .F. ) ;
#234 = DIRECTION ( 'NONE',  ( -3.491481338843133355E-15, 1.224646799147353207E-16, -1.000000000000000000 ) ) ;
#235 = EDGE_LOOP ( 'NONE', ( #166 ) ) ;
#236 = CARTESIAN_POINT ( 'NONE',  ( 2.444036937190193601E-13, -8.572527594031472993E-15, 70.00000000000000000 ) ) ;
#237 = DIRECTION ( 'NONE',  ( 4.152948667142298909E-31, 1.000000000000000000, 1.168951129364428462E-16 ) ) ;
#238 = CONICAL_SURFACE ( 'NONE', #77, 1.200000000000001510, 0.7853981633974566057 ) ;
#239 = DIRECTION ( 'NONE',  ( -3.491481338843133355E-15, 1.224646799147353207E-16, -1.000000000000000000 ) ) ;
#240 = PERSON_AND_ORGANIZATION ( #159, #208 ) ;
#241 = ADVANCED_FACE ( 'NONE', ( #211 ), #46, .F. ) ;
#242 = CC_DESIGN_APPROVAL ( #218, ( #104 ) ) ;
#243 = EDGE_LOOP ( 'NONE', ( #66 ) ) ;
#244 = DIRECTION ( 'NONE',  ( 0.0000000000000000000, 0.0000000000000000000, 1.000000000000000000 ) ) ;
#245 = ADVANCED_FACE ( 'NONE', ( #64, #158 ), #238, .T. ) ;
#246 = COORDINATED_UNIVERSAL_TIME_OFFSET ( 1, 0, .AHEAD. ) ;
#247 = CALENDAR_DATE ( 2021, 2, 12 ) ;
#248 = CARTESIAN_POINT ( 'NONE',  ( 2.444036937190193601E-13, -8.572527594031472993E-15, 70.00000000000000000 ) ) ;
#249 = CARTESIAN_POINT ( 'NONE',  ( 2.444036937190193601E-13, -8.572527594031472993E-15, 70.00000000000000000 ) ) ;
#250 = CIRCLE ( 'NONE', #178, 1.499999999999992895 ) ;
#251 = DIRECTION ( 'NONE',  ( -3.491481338843133355E-15, 1.224646799147353207E-16, -1.000000000000000000 ) ) ;
#252 = CIRCLE ( 'NONE', #53, 1.854999999999995097 ) ;
#253 = CARTESIAN_POINT ( 'NONE',  ( 3.706164857918833638E-14, -1.299947641096821930E-15, 10.61487803668695307 ) ) ;
#254 = SHAPE_DEFINITION_REPRESENTATION ( #71, #280 ) ;
#255 = EDGE_CURVE ( 'NONE', #283, #283, #250, .T. ) ;
#256 = DIRECTION ( 'NONE',  ( 4.275831445896958607E-31, 1.000000000000000000, 1.224646799147353207E-16 ) ) ;
#257 = DIRECTION ( 'NONE',  ( 0.0000000000000000000, 1.000000000000000000, 0.0000000000000000000 ) ) ;
#258 = FACE_OUTER_BOUND ( 'NONE', #192, .T. ) ;
#259 = CARTESIAN_POINT ( 'NONE',  ( -6.862709470664593261E-31, 2.407114451172272757E-32, -1.965558112631494710E-16 ) ) ;
#260 = LOCAL_TIME ( 10, 35, 58.00000000000000000, #246 ) ;
#261 = PERSON_AND_ORGANIZATION_ROLE ( 'design_owner' ) ;
#262 = VERTEX_POINT ( 'NONE', #203 ) ;
#263 = FACE_OUTER_BOUND ( 'NONE', #189, .T. ) ;
#264 = CARTESIAN_POINT ( 'NONE',  ( 2.444036937190193601E-13, 1.199999999999992628, 70.00000000000000000 ) ) ;
#265 = CC_DESIGN_DATE_AND_TIME_ASSIGNMENT ( #205, #288, ( #2 ) ) ;
#266 = COORDINATED_UNIVERSAL_TIME_OFFSET ( 1, 0, .AHEAD. ) ;
#267 = CALENDAR_DATE ( 2021, 2, 12 ) ;
#268 = DIRECTION ( 'NONE',  ( -4.275831445896958607E-31, -1.000000000000000000, -1.224646799147353207E-16 ) ) ;
#269 = ORIENTED_EDGE ( 'NONE', *, *, #38, .F. ) ;
#270 = CARTESIAN_POINT ( 'NONE',  ( 3.706164857918833638E-14, -1.299947641096821930E-15, 10.61487803668695307 ) ) ;
#271 = EDGE_CURVE ( 'NONE', #262, #262, #191, .T. ) ;
#272 = AXIS2_PLACEMENT_3D ( 'NONE', #75, #239, #257 ) ;
#273 = EDGE_LOOP ( 'NONE', ( #216 ) ) ;
#274 = FACE_OUTER_BOUND ( 'NONE', #55, .T. ) ;
#275 = EDGE_CURVE ( 'NONE', #151, #151, #12, .T. ) ;
#276 = EDGE_LOOP ( 'NONE', ( #183 ) ) ;
#277 = PLANE ( 'NONE',  #225 ) ;
#278 = APPLICATION_PROTOCOL_DEFINITION ( 'international standard', 'config_control_design', 1994, #184 ) ;
#279 = CC_DESIGN_SECURITY_CLASSIFICATION ( #2, ( #298 ) ) ;
#280 = ADVANCED_BREP_SHAPE_REPRESENTATION ( '321597', ( #5, #117, #171 ), #103 ) ;
#281 = COORDINATED_UNIVERSAL_TIME_OFFSET ( 1, 0, .AHEAD. ) ;
#282 = ADVANCED_FACE ( 'NONE', ( #114, #297 ), #27, .T. ) ;
#283 = VERTEX_POINT ( 'NONE', #52 ) ;
#284 = ADVANCED_FACE ( 'NONE', ( #4, #263 ), #202, .T. ) ;
#285 = DIRECTION ( 'NONE',  ( 0.0000000000000000000, 1.000000000000000000, 0.0000000000000000000 ) ) ;
#286 = VERTEX_POINT ( 'NONE', #125 ) ;
#287 = PERSON_AND_ORGANIZATION_ROLE ( 'creator' ) ;
#288 = DATE_TIME_ROLE ( 'classification_date' ) ;
#289 = AXIS2_PLACEMENT_3D ( 'NONE', #39, #165, #18 ) ;
#290 = UNCERTAINTY_MEASURE_WITH_UNIT (LENGTH_MEASURE( 1.000000000000000082E-05 ), #86, 'distance_accuracy_value', 'NONE');
#291 = APPROVAL_ROLE ( '' ) ;
#292 = EDGE_LOOP ( 'NONE', ( #230 ) ) ;
#293 = EDGE_CURVE ( 'NONE', #152, #152, #20, .T. ) ;
#294 = DIRECTION ( 'NONE',  ( -4.275831445896958607E-31, -1.000000000000000000, -1.224646799147353207E-16 ) ) ;
#295 = APPROVAL_ROLE ( '' ) ;
#296 = CARTESIAN_POINT ( 'NONE',  ( 3.491481338843133355E-14, -1.224646799147353256E-15, 10.00000000000000000 ) ) ;
#297 = FACE_BOUND ( 'NONE', #84, .T. ) ;
#298 = PRODUCT_DEFINITION_FORMATION_WITH_SPECIFIED_SOURCE ( 'ANY', '', #134, .NOT_KNOWN. ) ;
#299 = EDGE_LOOP ( 'NONE', ( #157 ) ) ;
#300 = DIRECTION ( 'NONE',  ( -3.491481338843133355E-15, 1.224646799147353207E-16, -1.000000000000000000 ) ) ;
#301 = FACE_OUTER_BOUND ( 'NONE', #41, .T. ) ;
#302 = DIRECTION ( 'NONE',  ( -3.491481338843133355E-15, 1.224646799147353207E-16, -1.000000000000000000 ) ) ;
#303 = DIRECTION ( 'NONE',  ( -3.491481338843133355E-15, 1.224646799147353207E-16, -1.000000000000000000 ) ) ;
ENDSEC;
END-ISO-10303-21;
