ISO-10303-21;
HEADER;
FILE_DESCRIPTION (( 'STEP AP203' ),
    '1' );
FILE_NAME ('321596.step',
    '2021-12-02T09:35:57',
    ( '' ),
    ( '' ),
    'SwSTEP 2.0',
    'SolidWorks 2019',
    '' );
FILE_SCHEMA (( 'CONFIG_CONTROL_DESIGN' ));
ENDSEC;

DATA;
#1 = CARTESIAN_POINT ( 'NONE',  ( 3.491481338843133355E-14, 1.849999999999993650, 10.00000000000000000 ) ) ;
#2 = ORIENTED_EDGE ( 'NONE', *, *, #69, .T. ) ;
#3 = CIRCLE ( 'NONE', #56, 1.200000000000001510 ) ;
#4 = CARTESIAN_POINT ( 'NONE',  ( 0.0000000000000000000, 0.0000000000000000000, 0.0000000000000000000 ) ) ;
#5 = ADVANCED_FACE ( 'NONE', ( #145, #207 ), #186, .T. ) ;
#6 = ORIENTED_EDGE ( 'NONE', *, *, #230, .T. ) ;
#7 = EDGE_LOOP ( 'NONE', ( #283 ) ) ;
#8 = DATE_AND_TIME ( #226, #194 ) ;
#9 = CARTESIAN_POINT ( 'NONE',  ( 8.728703347107833388E-16, 1.849999999999994982, 0.2500000000000000000 ) ) ;
#10 = ORIENTED_EDGE ( 'NONE', *, *, #21, .F. ) ;
#11 = DIRECTION ( 'NONE',  ( 0.0000000000000000000, 1.000000000000000000, 0.0000000000000000000 ) ) ;
#12 = DIRECTION ( 'NONE',  ( 4.275831445896958607E-31, 1.000000000000000000, 1.224646799147353207E-16 ) ) ;
#13 = ORIENTED_EDGE ( 'NONE', *, *, #230, .F. ) ;
#14 = AXIS2_PLACEMENT_3D ( 'NONE', #208, #210, #103 ) ;
#15 = DIRECTION ( 'NONE',  ( 0.0000000000000000000, 1.000000000000000000, 0.0000000000000000000 ) ) ;
#16 = FACE_OUTER_BOUND ( 'NONE', #32, .T. ) ;
#17 = DIRECTION ( 'NONE',  ( -3.491481338843133355E-15, 1.224646799147353207E-16, -1.000000000000000000 ) ) ;
#18 = AXIS2_PLACEMENT_3D ( 'NONE', #211, #132, #12 ) ;
#19 = PERSON_AND_ORGANIZATION_ROLE ( 'design_supplier' ) ;
#20 = PERSON_AND_ORGANIZATION_ROLE ( 'classification_officer' ) ;
#21 = EDGE_CURVE ( 'NONE', #125, #125, #111, .T. ) ;
#22 = CONICAL_SURFACE ( 'NONE', #83, 1.200000000000001510, 0.7853981633974566057 ) ;
#23 = CONICAL_SURFACE ( 'NONE', #227, 1.849999999999994982, 0.5235987755983007030 ) ;
#24 = APPROVAL_DATE_TIME ( #68, #200 ) ;
#25 = PERSON_AND_ORGANIZATION_ROLE ( 'creator' ) ;
#26 = FACE_BOUND ( 'NONE', #276, .T. ) ;
#27 = ADVANCED_FACE ( 'NONE', ( #81 ), #152, .F. ) ;
#28 = PLANE ( 'NONE',  #280 ) ;
#29 = ORIENTED_EDGE ( 'NONE', *, *, #126, .F. ) ;
#30 = CONICAL_SURFACE ( 'NONE', #250, 1.849999999999994982, 0.5235987755983007030 ) ;
#31 = FACE_OUTER_BOUND ( 'NONE', #70, .T. ) ;
#32 = EDGE_LOOP ( 'NONE', ( #183 ) ) ;
#33 = EDGE_LOOP ( 'NONE', ( #13 ) ) ;
#34 = DIRECTION ( 'NONE',  ( -3.491481338843133355E-15, 1.224646799147353207E-16, -1.000000000000000000 ) ) ;
#35 = FACE_OUTER_BOUND ( 'NONE', #213, .T. ) ;
#36 = EDGE_LOOP ( 'NONE', ( #10 ) ) ;
#37 = DIRECTION ( 'NONE',  ( -3.491481338843133355E-15, 1.224646799147353207E-16, -1.000000000000000000 ) ) ;
#38 = CLOSED_SHELL ( 'NONE', ( #269, #5, #300, #91, #278, #43, #273 ) ) ;
#39 = APPLICATION_PROTOCOL_DEFINITION ( 'international standard', 'config_control_design', 1994, #177 ) ;
#40 = CARTESIAN_POINT ( 'NONE',  ( 2.444036937190193601E-13, 8.998558695971026591E-33, 70.00000000000000000 ) ) ;
#41 = DIRECTION ( 'NONE',  ( 4.275831445896958607E-31, 1.000000000000000000, 1.224646799147353207E-16 ) ) ;
#42 = APPROVAL_STATUS ( 'not_yet_approved' ) ;
#43 = ADVANCED_FACE ( 'NONE', ( #134, #65 ), #22, .T. ) ;
#44 = CLOSED_SHELL ( 'NONE', ( #220, #285, #113, #135, #27 ) ) ;
#45 =( GEOMETRIC_REPRESENTATION_CONTEXT ( 3 ) GLOBAL_UNCERTAINTY_ASSIGNED_CONTEXT ( ( #153 ) ) GLOBAL_UNIT_ASSIGNED_CONTEXT ( ( #281, #52, #88 ) ) REPRESENTATION_CONTEXT ( 'NONE', 'WORKASPACE' ) );
#46 = APPROVAL_ROLE ( '' ) ;
#47 = COORDINATED_UNIVERSAL_TIME_OFFSET ( 1, 0, .AHEAD. ) ;
#48 = EDGE_CURVE ( 'NONE', #77, #77, #117, .T. ) ;
#49 = SECURITY_CLASSIFICATION ( '', '', #251 ) ;
#50 = EDGE_LOOP ( 'NONE', ( #58 ) ) ;
#51 = CARTESIAN_POINT ( 'NONE',  ( 3.491481338843133355E-14, 1.849999999999993650, 10.00000000000000000 ) ) ;
#52 =( NAMED_UNIT ( * ) PLANE_ANGLE_UNIT ( ) SI_UNIT ( $, .RADIAN. ) );
#53 = ORIENTED_EDGE ( 'NONE', *, *, #69, .F. ) ;
#54 = EDGE_LOOP ( 'NONE', ( #253 ) ) ;
#55 = FACE_OUTER_BOUND ( 'NONE', #282, .T. ) ;
#56 = AXIS2_PLACEMENT_3D ( 'NONE', #205, #74, #11 ) ;
#57 = CARTESIAN_POINT ( 'NONE',  ( 2.433562493173664138E-13, 1.499999999999992673, 69.70000000000001705 ) ) ;
#58 = ORIENTED_EDGE ( 'NONE', *, *, #244, .T. ) ;
#59 = CYLINDRICAL_SURFACE ( 'NONE', #199, 1.499999999999996891 ) ;
#60 = EDGE_CURVE ( 'NONE', #167, #167, #115, .T. ) ;
#61 = DIRECTION ( 'NONE',  ( 0.0000000000000000000, 1.000000000000000000, 0.0000000000000000000 ) ) ;
#62 = LOCAL_TIME ( 10, 35, 57.00000000000000000, #47 ) ;
#63 = CARTESIAN_POINT ( 'NONE',  ( 2.444036937190193601E-13, -8.572527594031472993E-15, 70.00000000000000000 ) ) ;
#64 = EDGE_CURVE ( 'NONE', #236, #236, #296, .T. ) ;
#65 = FACE_BOUND ( 'NONE', #50, .T. ) ;
#66 = PERSON_AND_ORGANIZATION ( #87, #184 ) ;
#67 = MANIFOLD_SOLID_BREP ( 'Corps-Déplacer/Copier1[1]', #44 ) ;
#68 = DATE_AND_TIME ( #180, #270 ) ;
#69 = EDGE_CURVE ( 'NONE', #142, #142, #233, .T. ) ;
#70 = EDGE_LOOP ( 'NONE', ( #122 ) ) ;
#71 = EDGE_LOOP ( 'NONE', ( #146 ) ) ;
#72 = FACE_OUTER_BOUND ( 'NONE', #33, .T. ) ;
#73 = AXIS2_PLACEMENT_3D ( 'NONE', #218, #214, #85 ) ;
#74 = DIRECTION ( 'NONE',  ( -3.491481338843133355E-15, 1.224646799147353207E-16, -1.000000000000000000 ) ) ;
#75 = CARTESIAN_POINT ( 'NONE',  ( 3.491481338843133355E-14, -1.224646799147353256E-15, 10.00000000000000000 ) ) ;
#76 = CC_DESIGN_PERSON_AND_ORGANIZATION_ASSIGNMENT ( #274, #19, ( #202 ) ) ;
#77 = VERTEX_POINT ( 'NONE', #9 ) ;
#78 = EDGE_LOOP ( 'NONE', ( #289 ) ) ;
#79 = CARTESIAN_POINT ( 'NONE',  ( 3.491481338843133355E-14, -1.224646799147353256E-15, 10.00000000000000000 ) ) ;
#80 = DIRECTION ( 'NONE',  ( -3.491481338843133355E-15, 1.224646799147353207E-16, -1.000000000000000000 ) ) ;
#81 = FACE_OUTER_BOUND ( 'NONE', #97, .T. ) ;
#82 = DIRECTION ( 'NONE',  ( 4.164172852729169821E-31, 1.000000000000000000, 1.172110456741089033E-16 ) ) ;
#83 = AXIS2_PLACEMENT_3D ( 'NONE', #63, #191, #15 ) ;
#84 = AXIS2_PLACEMENT_3D ( 'NONE', #149, #294, #243 ) ;
#85 = DIRECTION ( 'NONE',  ( 1.000000000000000000, 0.0000000000000000000, 0.0000000000000000000 ) ) ;
#86 = DIRECTION ( 'NONE',  ( 0.0000000000000000000, 1.000000000000000000, 0.0000000000000000000 ) ) ;
#87 = PERSON ( 'UNSPECIFIED', 'UNSPECIFIED', 'UNSPECIFIED', ('UNSPECIFIED'), ('UNSPECIFIED'), ('UNSPECIFIED') ) ;
#88 =( NAMED_UNIT ( * ) SI_UNIT ( $, .STERADIAN. ) SOLID_ANGLE_UNIT ( ) );
#89 = APPROVAL_ROLE ( '' ) ;
#90 = CIRCLE ( 'NONE', #174, 1.599999999999994094 ) ;
#91 = ADVANCED_FACE ( 'NONE', ( #35 ), #175, .T. ) ;
#92 = APPROVAL_STATUS ( 'not_yet_approved' ) ;
#93 = EDGE_CURVE ( 'NONE', #189, #189, #181, .T. ) ;
#94 = APPROVAL_PERSON_ORGANIZATION ( #246, #200, #247 ) ;
#95 = DIRECTION ( 'NONE',  ( 0.0000000000000000000, 1.000000000000000000, 0.0000000000000000000 ) ) ;
#96 = DIRECTION ( 'NONE',  ( -3.491481338843133355E-15, 1.224646799147353207E-16, -1.000000000000000000 ) ) ;
#97 = EDGE_LOOP ( 'NONE', ( #239 ) ) ;
#98 = AXIS2_PLACEMENT_3D ( 'NONE', #221, #80, #170 ) ;
#99 = DIRECTION ( 'NONE',  ( -3.491481338843133355E-15, 1.224646799147353207E-16, -1.000000000000000000 ) ) ;
#100 = DIRECTION ( 'NONE',  ( 4.275831445896958607E-31, 1.000000000000000000, 1.224646799147353454E-16 ) ) ;
#101 = DIRECTION ( 'NONE',  ( 0.0000000000000000000, 1.000000000000000000, 0.0000000000000000000 ) ) ;
#102 = EDGE_LOOP ( 'NONE', ( #288 ) ) ;
#103 = DIRECTION ( 'NONE',  ( -4.275831445896958607E-31, -1.000000000000000000, -1.224646799147353207E-16 ) ) ;
#104 = CYLINDRICAL_SURFACE ( 'NONE', #98, 1.499999999999996891 ) ;
#105 = PRODUCT_DEFINITION ( 'UNKNOWN', '', #202, #110 ) ;
#106 = DIRECTION ( 'NONE',  ( -3.491481338843133355E-15, 1.224646799147353207E-16, -1.000000000000000000 ) ) ;
#107 = PRODUCT ( '321596', '321596', '', ( #216 ) ) ;
#108 = FACE_OUTER_BOUND ( 'NONE', #54, .T. ) ;
#109 = CARTESIAN_POINT ( 'NONE',  ( 3.703141146382555503E-14, -1.298887065858096886E-15, 10.60621778264910731 ) ) ;
#110 = DESIGN_CONTEXT ( 'detailed design', #272, 'design' ) ;
#111 = CIRCLE ( 'NONE', #198, 1.500000000000001110 ) ;
#112 = PERSON_AND_ORGANIZATION ( #87, #184 ) ;
#113 = ADVANCED_FACE ( 'NONE', ( #245, #298 ), #104, .T. ) ;
#114 = DATE_TIME_ROLE ( 'creation_date' ) ;
#115 = CIRCLE ( 'NONE', #154, 1.500000000000001110 ) ;
#116 = DATE_AND_TIME ( #271, #123 ) ;
#117 = CIRCLE ( 'NONE', #242, 1.849999999999994982 ) ;
#118 = CONICAL_SURFACE ( 'NONE', #137, 1.200000000000001510, 0.7853981633974566057 ) ;
#119 = DIRECTION ( 'NONE',  ( 0.0000000000000000000, 1.000000000000000000, 0.0000000000000000000 ) ) ;
#120 = VERTEX_POINT ( 'NONE', #204 ) ;
#121 = VERTEX_POINT ( 'NONE', #1 ) ;
#122 = ORIENTED_EDGE ( 'NONE', *, *, #244, .F. ) ;
#123 = LOCAL_TIME ( 10, 35, 57.00000000000000000, #252 ) ;
#124 = APPROVAL_DATE_TIME ( #8, #299 ) ;
#125 = VERTEX_POINT ( 'NONE', #163 ) ;
#126 = EDGE_CURVE ( 'NONE', #263, #263, #90, .T. ) ;
#127 = CARTESIAN_POINT ( 'NONE',  ( 2.433562493173664138E-13, -8.535788190057053710E-15, 69.70000000000001705 ) ) ;
#128 = FACE_OUTER_BOUND ( 'NONE', #78, .T. ) ;
#129 = DIRECTION ( 'NONE',  ( 0.0000000000000000000, 1.000000000000000000, 0.0000000000000000000 ) ) ;
#130 = CARTESIAN_POINT ( 'NONE',  ( -6.841330313435108547E-31, 2.399615652258963414E-32, -1.959434878635757835E-16 ) ) ;
#131 = CC_DESIGN_SECURITY_CLASSIFICATION ( #49, ( #202 ) ) ;
#132 = DIRECTION ( 'NONE',  ( -3.491481338843133355E-15, 1.224646799147353207E-16, -1.000000000000000000 ) ) ;
#133 = CC_DESIGN_DATE_AND_TIME_ASSIGNMENT ( #224, #114, ( #105 ) ) ;
#134 = FACE_OUTER_BOUND ( 'NONE', #36, .T. ) ;
#135 = ADVANCED_FACE ( 'NONE', ( #16, #293 ), #118, .T. ) ;
#136 = AXIS2_PLACEMENT_3D ( 'NONE', #256, #228, #232 ) ;
#137 = AXIS2_PLACEMENT_3D ( 'NONE', #171, #265, #61 ) ;
#138 = PERSON_AND_ORGANIZATION ( #87, #184 ) ;
#139 = CC_DESIGN_APPROVAL ( #200, ( #105 ) ) ;
#140 = EDGE_LOOP ( 'NONE', ( #262 ) ) ;
#141 = PLANE ( 'NONE',  #266 ) ;
#142 = VERTEX_POINT ( 'NONE', #169 ) ;
#143 = DIRECTION ( 'NONE',  ( 4.275831445896958607E-31, 1.000000000000000000, 1.224646799147353207E-16 ) ) ;
#144 = AXIS2_PLACEMENT_3D ( 'NONE', #109, #292, #86 ) ;
#145 = FACE_OUTER_BOUND ( 'NONE', #257, .T. ) ;
#146 = ORIENTED_EDGE ( 'NONE', *, *, #64, .T. ) ;
#147 = FACE_BOUND ( 'NONE', #168, .T. ) ;
#148 = CARTESIAN_POINT ( 'NONE',  ( 2.444036937190193601E-13, -8.572527594031472993E-15, 70.00000000000000000 ) ) ;
#149 = CARTESIAN_POINT ( 'NONE',  ( 3.491481338843133355E-14, -1.224646799147353256E-15, 10.00000000000000000 ) ) ;
#150 = CARTESIAN_POINT ( 'NONE',  ( 2.433562493173664138E-13, -8.535788190057053710E-15, 69.70000000000001705 ) ) ;
#151 = APPLICATION_PROTOCOL_DEFINITION ( 'international standard', 'config_control_design', 1994, #272 ) ;
#152 = PLANE ( 'NONE',  #248 ) ;
#153 = UNCERTAINTY_MEASURE_WITH_UNIT (LENGTH_MEASURE( 1.000000000000000082E-05 ), #281, 'distance_accuracy_value', 'NONE');
#154 = AXIS2_PLACEMENT_3D ( 'NONE', #150, #106, #129 ) ;
#155 = CALENDAR_DATE ( 2021, 2, 12 ) ;
#156 = PERSON_AND_ORGANIZATION ( #87, #184 ) ;
#157 = AXIS2_PLACEMENT_3D ( 'NONE', #264, #172, #267 ) ;
#158 = APPROVAL_PERSON_ORGANIZATION ( #112, #299, #46 ) ;
#159 = PERSON_AND_ORGANIZATION ( #87, #184 ) ;
#160 = MANIFOLD_SOLID_BREP ( 'Corps-Déplacer/Copier1[2]', #38 ) ;
#161 = EDGE_LOOP ( 'NONE', ( #165 ) ) ;
#162 = ORIENTED_EDGE ( 'NONE', *, *, #48, .T. ) ;
#163 = CARTESIAN_POINT ( 'NONE',  ( 2.433562493173664138E-13, 1.499999999999992673, 69.70000000000001705 ) ) ;
#164 = AXIS2_PLACEMENT_3D ( 'NONE', #193, #37, #217 ) ;
#165 = ORIENTED_EDGE ( 'NONE', *, *, #48, .F. ) ;
#166 = CC_DESIGN_PERSON_AND_ORGANIZATION_ASSIGNMENT ( #66, #25, ( #202 ) ) ;
#167 = VERTEX_POINT ( 'NONE', #57 ) ;
#168 = EDGE_LOOP ( 'NONE', ( #29 ) ) ;
#169 = CARTESIAN_POINT ( 'NONE',  ( 3.703141146382555503E-14, 1.499999999999991562, 10.60621778264910731 ) ) ;
#170 = DIRECTION ( 'NONE',  ( 4.275831445896958607E-31, 1.000000000000000000, 1.224646799147353454E-16 ) ) ;
#171 = CARTESIAN_POINT ( 'NONE',  ( 2.444036937190193601E-13, -8.572527594031472993E-15, 70.00000000000000000 ) ) ;
#172 = DIRECTION ( 'NONE',  ( -3.491481338843133355E-15, 1.224646799147353207E-16, -1.000000000000000000 ) ) ;
#173 = APPROVAL ( #92, 'UNSPECIFIED' ) ;
#174 = AXIS2_PLACEMENT_3D ( 'NONE', #130, #215, #192 ) ;
#175 = PLANE ( 'NONE',  #18 ) ;
#176 = APPROVAL_PERSON_ORGANIZATION ( #159, #173, #89 ) ;
#177 = APPLICATION_CONTEXT ( 'configuration controlled 3d designs of mechanical parts and assemblies' ) ;
#178 = CC_DESIGN_PERSON_AND_ORGANIZATION_ASSIGNMENT ( #138, #195, ( #105 ) ) ;
#179 = APPROVAL_DATE_TIME ( #116, #173 ) ;
#180 = CALENDAR_DATE ( 2021, 2, 12 ) ;
#181 = CIRCLE ( 'NONE', #164, 1.499999999999992895 ) ;
#182 = FACE_BOUND ( 'NONE', #7, .T. ) ;
#183 = ORIENTED_EDGE ( 'NONE', *, *, #60, .F. ) ;
#184 = ORGANIZATION ( 'UNSPECIFIED', 'UNSPECIFIED', '' ) ;
#185 = FACE_OUTER_BOUND ( 'NONE', #188, .T. ) ;
#186 = CYLINDRICAL_SURFACE ( 'NONE', #136, 1.849999999999994982 ) ;
#187 = DIRECTION ( 'NONE',  ( -3.491481338843133355E-15, 1.224646799147353207E-16, -1.000000000000000000 ) ) ;
#188 = EDGE_LOOP ( 'NONE', ( #162 ) ) ;
#189 = VERTEX_POINT ( 'NONE', #291 ) ;
#190 = AXIS2_PLACEMENT_3D ( 'NONE', #75, #99, #119 ) ;
#191 = DIRECTION ( 'NONE',  ( -3.491481338843133355E-15, 1.224646799147353207E-16, -1.000000000000000000 ) ) ;
#192 = DIRECTION ( 'NONE',  ( 4.275831445896958607E-31, 1.000000000000000000, 1.224646799147353207E-16 ) ) ;
#193 = CARTESIAN_POINT ( 'NONE',  ( 3.703141146382555503E-14, -1.298887065858096886E-15, 10.60621778264910731 ) ) ;
#194 = LOCAL_TIME ( 10, 35, 57.00000000000000000, #301 ) ;
#195 = PERSON_AND_ORGANIZATION_ROLE ( 'creator' ) ;
#196 = APPROVAL_STATUS ( 'not_yet_approved' ) ;
#197 = EDGE_CURVE ( 'NONE', #121, #121, #222, .T. ) ;
#198 = AXIS2_PLACEMENT_3D ( 'NONE', #127, #209, #101 ) ;
#199 = AXIS2_PLACEMENT_3D ( 'NONE', #4, #231, #100 ) ;
#200 = APPROVAL ( #42, 'UNSPECIFIED' ) ;
#201 = ADVANCED_BREP_SHAPE_REPRESENTATION ( '321596', ( #67, #160, #73 ), #45 ) ;
#202 = PRODUCT_DEFINITION_FORMATION_WITH_SPECIFIED_SOURCE ( 'ANY', '', #107, .NOT_KNOWN. ) ;
#203 = CARTESIAN_POINT ( 'NONE',  ( 0.0000000000000000000, 1.599999999999994094, 0.0000000000000000000 ) ) ;
#204 = CARTESIAN_POINT ( 'NONE',  ( 2.444036937190193601E-13, 1.199999999999992628, 70.00000000000000000 ) ) ;
#205 = CARTESIAN_POINT ( 'NONE',  ( 2.444036937190193601E-13, -8.572527594031472993E-15, 70.00000000000000000 ) ) ;
#206 = CONICAL_SURFACE ( 'NONE', #14, 1.599999999999994094, 0.7853981633974500554 ) ;
#207 = FACE_OUTER_BOUND ( 'NONE', #161, .T. ) ;
#208 = CARTESIAN_POINT ( 'NONE',  ( -6.841330313435108547E-31, 2.399615652258963414E-32, -1.959434878635757835E-16 ) ) ;
#209 = DIRECTION ( 'NONE',  ( -3.491481338843133355E-15, 1.224646799147353207E-16, -1.000000000000000000 ) ) ;
#210 = DIRECTION ( 'NONE',  ( 3.491481338843133355E-15, -1.224646799147353207E-16, 1.000000000000000000 ) ) ;
#211 = CARTESIAN_POINT ( 'NONE',  ( -3.420665156717554274E-31, 1.199807826129481707E-32, -9.797174393178789173E-17 ) ) ;
#212 = PRODUCT_DEFINITION_SHAPE ( 'NONE', 'NONE',  #105 ) ;
#213 = EDGE_LOOP ( 'NONE', ( #279 ) ) ;
#214 = DIRECTION ( 'NONE',  ( 0.0000000000000000000, 0.0000000000000000000, 1.000000000000000000 ) ) ;
#215 = DIRECTION ( 'NONE',  ( -3.491481338843133355E-15, 1.224646799147353207E-16, -1.000000000000000000 ) ) ;
#216 = MECHANICAL_CONTEXT ( 'NONE', #177, 'mechanical' ) ;
#217 = DIRECTION ( 'NONE',  ( 0.0000000000000000000, 1.000000000000000000, 0.0000000000000000000 ) ) ;
#218 = CARTESIAN_POINT ( 'NONE',  ( 0.0000000000000000000, 0.0000000000000000000, 0.0000000000000000000 ) ) ;
#219 = CC_DESIGN_PERSON_AND_ORGANIZATION_ASSIGNMENT ( #156, #20, ( #49 ) ) ;
#220 = ADVANCED_FACE ( 'NONE', ( #108 ), #141, .F. ) ;
#221 = CARTESIAN_POINT ( 'NONE',  ( 0.0000000000000000000, 0.0000000000000000000, 0.0000000000000000000 ) ) ;
#222 = CIRCLE ( 'NONE', #84, 1.849999999999994982 ) ;
#223 = CALENDAR_DATE ( 2021, 2, 12 ) ;
#224 = DATE_AND_TIME ( #223, #261 ) ;
#225 = DATE_TIME_ROLE ( 'classification_date' ) ;
#226 = CALENDAR_DATE ( 2021, 2, 12 ) ;
#227 = AXIS2_PLACEMENT_3D ( 'NONE', #79, #96, #95 ) ;
#228 = DIRECTION ( 'NONE',  ( -3.491481338843133355E-15, 1.224646799147353207E-16, -1.000000000000000000 ) ) ;
#229 = PRODUCT_RELATED_PRODUCT_CATEGORY ( 'detail', '', ( #107 ) ) ;
#230 = EDGE_CURVE ( 'NONE', #255, #255, #290, .T. ) ;
#231 = DIRECTION ( 'NONE',  ( -3.491481338843133355E-15, 1.224646799147353207E-16, -1.000000000000000000 ) ) ;
#232 = DIRECTION ( 'NONE',  ( 4.275831445896958607E-31, 1.000000000000000000, 1.224646799147353207E-16 ) ) ;
#233 = CIRCLE ( 'NONE', #144, 1.499999999999992895 ) ;
#234 = CARTESIAN_POINT ( 'NONE',  ( 3.491481338843133355E-14, -1.224646799147353256E-15, 10.00000000000000000 ) ) ;
#235 = ORIENTED_EDGE ( 'NONE', *, *, #93, .F. ) ;
#236 = VERTEX_POINT ( 'NONE', #240 ) ;
#237 = CC_DESIGN_DATE_AND_TIME_ASSIGNMENT ( #302, #225, ( #49 ) ) ;
#238 = CARTESIAN_POINT ( 'NONE',  ( 8.728703347107825500E-16, -3.061616997868380553E-17, 0.2499999999999997780 ) ) ;
#239 = ORIENTED_EDGE ( 'NONE', *, *, #64, .F. ) ;
#240 = CARTESIAN_POINT ( 'NONE',  ( 2.444036937190193601E-13, 1.199999999999992628, 70.00000000000000000 ) ) ;
#241 = DIRECTION ( 'NONE',  ( -3.491481338843133355E-15, 1.224646799147353207E-16, -1.000000000000000000 ) ) ;
#242 = AXIS2_PLACEMENT_3D ( 'NONE', #238, #241, #82 ) ;
#243 = DIRECTION ( 'NONE',  ( 0.0000000000000000000, 1.000000000000000000, 0.0000000000000000000 ) ) ;
#244 = EDGE_CURVE ( 'NONE', #120, #120, #3, .T. ) ;
#245 = FACE_OUTER_BOUND ( 'NONE', #259, .T. ) ;
#246 = PERSON_AND_ORGANIZATION ( #87, #184 ) ;
#247 = APPROVAL_ROLE ( '' ) ;
#248 = AXIS2_PLACEMENT_3D ( 'NONE', #40, #17, #41 ) ;
#249 = CC_DESIGN_PERSON_AND_ORGANIZATION_ASSIGNMENT ( #295, #268, ( #107 ) ) ;
#250 = AXIS2_PLACEMENT_3D ( 'NONE', #234, #34, #287 ) ;
#251 = SECURITY_CLASSIFICATION_LEVEL ( 'unclassified' ) ;
#252 = COORDINATED_UNIVERSAL_TIME_OFFSET ( 1, 0, .AHEAD. ) ;
#253 = ORIENTED_EDGE ( 'NONE', *, *, #197, .T. ) ;
#254 = CC_DESIGN_APPROVAL ( #299, ( #49 ) ) ;
#255 = VERTEX_POINT ( 'NONE', #51 ) ;
#256 = CARTESIAN_POINT ( 'NONE',  ( 0.0000000000000000000, 0.0000000000000000000, 0.0000000000000000000 ) ) ;
#257 = EDGE_LOOP ( 'NONE', ( #6 ) ) ;
#258 = DIRECTION ( 'NONE',  ( -4.275831445896958607E-31, -1.000000000000000000, -1.224646799147353207E-16 ) ) ;
#259 = EDGE_LOOP ( 'NONE', ( #53 ) ) ;
#260 = FACE_OUTER_BOUND ( 'NONE', #140, .T. ) ;
#261 = LOCAL_TIME ( 10, 35, 57.00000000000000000, #275 ) ;
#262 = ORIENTED_EDGE ( 'NONE', *, *, #21, .T. ) ;
#263 = VERTEX_POINT ( 'NONE', #203 ) ;
#264 = CARTESIAN_POINT ( 'NONE',  ( 2.444036937190193601E-13, -8.572527594031472993E-15, 70.00000000000000000 ) ) ;
#265 = DIRECTION ( 'NONE',  ( -3.491481338843133355E-15, 1.224646799147353207E-16, -1.000000000000000000 ) ) ;
#266 = AXIS2_PLACEMENT_3D ( 'NONE', #277, #284, #258 ) ;
#267 = DIRECTION ( 'NONE',  ( 0.0000000000000000000, 1.000000000000000000, 0.0000000000000000000 ) ) ;
#268 = PERSON_AND_ORGANIZATION_ROLE ( 'design_owner' ) ;
#269 = ADVANCED_FACE ( 'NONE', ( #182, #72 ), #23, .T. ) ;
#270 = LOCAL_TIME ( 10, 35, 57.00000000000000000, #303 ) ;
#271 = CALENDAR_DATE ( 2021, 2, 12 ) ;
#272 = APPLICATION_CONTEXT ( 'configuration controlled 3d designs of mechanical parts and assemblies' ) ;
#273 = ADVANCED_FACE ( 'NONE', ( #55, #260 ), #59, .T. ) ;
#274 = PERSON_AND_ORGANIZATION ( #87, #184 ) ;
#275 = COORDINATED_UNIVERSAL_TIME_OFFSET ( 1, 0, .AHEAD. ) ;
#276 = EDGE_LOOP ( 'NONE', ( #2 ) ) ;
#277 = CARTESIAN_POINT ( 'NONE',  ( 3.491481338843133355E-14, 1.387277798962212813E-32, 10.00000000000000000 ) ) ;
#278 = ADVANCED_FACE ( 'NONE', ( #31 ), #28, .F. ) ;
#279 = ORIENTED_EDGE ( 'NONE', *, *, #126, .T. ) ;
#280 = AXIS2_PLACEMENT_3D ( 'NONE', #148, #187, #143 ) ;
#281 =( LENGTH_UNIT ( ) NAMED_UNIT ( * ) SI_UNIT ( .MILLI., .METRE. ) );
#282 = EDGE_LOOP ( 'NONE', ( #235 ) ) ;
#283 = ORIENTED_EDGE ( 'NONE', *, *, #93, .T. ) ;
#284 = DIRECTION ( 'NONE',  ( 3.491481338843133355E-15, -1.224646799147353207E-16, 1.000000000000000000 ) ) ;
#285 = ADVANCED_FACE ( 'NONE', ( #26, #128 ), #30, .T. ) ;
#286 = SHAPE_DEFINITION_REPRESENTATION ( #212, #201 ) ;
#287 = DIRECTION ( 'NONE',  ( 0.0000000000000000000, 1.000000000000000000, 0.0000000000000000000 ) ) ;
#288 = ORIENTED_EDGE ( 'NONE', *, *, #60, .T. ) ;
#289 = ORIENTED_EDGE ( 'NONE', *, *, #197, .F. ) ;
#290 = CIRCLE ( 'NONE', #190, 1.849999999999994982 ) ;
#291 = CARTESIAN_POINT ( 'NONE',  ( 3.703141146382555503E-14, 1.499999999999991562, 10.60621778264910731 ) ) ;
#292 = DIRECTION ( 'NONE',  ( -3.491481338843133355E-15, 1.224646799147353207E-16, -1.000000000000000000 ) ) ;
#293 = FACE_BOUND ( 'NONE', #71, .T. ) ;
#294 = DIRECTION ( 'NONE',  ( -3.491481338843133355E-15, 1.224646799147353207E-16, -1.000000000000000000 ) ) ;
#295 = PERSON_AND_ORGANIZATION ( #87, #184 ) ;
#296 = CIRCLE ( 'NONE', #157, 1.200000000000001510 ) ;
#297 = CC_DESIGN_APPROVAL ( #173, ( #202 ) ) ;
#298 = FACE_OUTER_BOUND ( 'NONE', #102, .T. ) ;
#299 = APPROVAL ( #196, 'UNSPECIFIED' ) ;
#300 = ADVANCED_FACE ( 'NONE', ( #185, #147 ), #206, .T. ) ;
#301 = COORDINATED_UNIVERSAL_TIME_OFFSET ( 1, 0, .AHEAD. ) ;
#302 = DATE_AND_TIME ( #155, #62 ) ;
#303 = COORDINATED_UNIVERSAL_TIME_OFFSET ( 1, 0, .AHEAD. ) ;
ENDSEC;
END-ISO-10303-21;
