ISO-10303-21;
HEADER;
FILE_DESCRIPTION (( 'STEP AP203' ),
    '1' );
FILE_NAME ('321595.step',
    '2021-12-02T09:35:56',
    ( '' ),
    ( '' ),
    'SwSTEP 2.0',
    'SolidWorks 2019',
    '' );
FILE_SCHEMA (( 'CONFIG_CONTROL_DESIGN' ));
ENDSEC;

DATA;
#1 = PLANE ( 'NONE',  #69 ) ;
#2 = PERSON_AND_ORGANIZATION_ROLE ( 'design_supplier' ) ;
#3 = DIRECTION ( 'NONE',  ( 4.175457874010278488E-31, 1.000000000000000000, 1.175286907843368352E-16 ) ) ;
#4 = EDGE_LOOP ( 'NONE', ( #58 ) ) ;
#5 = APPROVAL_DATE_TIME ( #7, #122 ) ;
#6 = DIRECTION ( 'NONE',  ( 0.0000000000000000000, 1.000000000000000000, 0.0000000000000000000 ) ) ;
#7 = DATE_AND_TIME ( #188, #40 ) ;
#8 = CARTESIAN_POINT ( 'NONE',  ( 0.0000000000000000000, 1.594999999999994200, 0.0000000000000000000 ) ) ;
#9 = CARTESIAN_POINT ( 'NONE',  ( 3.491481338843133355E-14, 1.383528399505557868E-32, 10.00000000000000000 ) ) ;
#10 = CARTESIAN_POINT ( 'NONE',  ( 2.444036937190193601E-13, -8.572527594031472993E-15, 70.00000000000000000 ) ) ;
#11 = APPROVAL_DATE_TIME ( #126, #171 ) ;
#12 = DIRECTION ( 'NONE',  ( -3.491481338843133355E-15, 1.224646799147353207E-16, -1.000000000000000000 ) ) ;
#13 = CLOSED_SHELL ( 'NONE', ( #231, #301, #60, #162, #50 ) ) ;
#14 = CALENDAR_DATE ( 2021, 2, 12 ) ;
#15 = CARTESIAN_POINT ( 'NONE',  ( 2.433562493173664138E-13, -8.535788190057053710E-15, 69.70000000000001705 ) ) ;
#16 = EDGE_LOOP ( 'NONE', ( #130 ) ) ;
#17 = CALENDAR_DATE ( 2021, 2, 12 ) ;
#18 = DIRECTION ( 'NONE',  ( 4.275831445896958607E-31, 1.000000000000000000, 1.224646799147353454E-16 ) ) ;
#19 = CIRCLE ( 'NONE', #277, 1.844999999999995088 ) ;
#20 = CC_DESIGN_PERSON_AND_ORGANIZATION_ASSIGNMENT ( #283, #2, ( #52 ) ) ;
#21 = ORIENTED_EDGE ( 'NONE', *, *, #195, .T. ) ;
#22 = ORIENTED_EDGE ( 'NONE', *, *, #293, .F. ) ;
#23 = EDGE_CURVE ( 'NONE', #183, #183, #72, .T. ) ;
#24 = APPROVAL_PERSON_ORGANIZATION ( #121, #122, #213 ) ;
#25 = DIRECTION ( 'NONE',  ( -3.491481338843133355E-15, 1.224646799147353207E-16, -1.000000000000000000 ) ) ;
#26 = ADVANCED_FACE ( 'NONE', ( #109, #268 ), #63, .T. ) ;
#27 = AXIS2_PLACEMENT_3D ( 'NONE', #117, #297, #226 ) ;
#28 = DIRECTION ( 'NONE',  ( -3.491481338843133355E-15, 1.224646799147353207E-16, -1.000000000000000000 ) ) ;
#29 = ORIENTED_EDGE ( 'NONE', *, *, #66, .T. ) ;
#30 = VERTEX_POINT ( 'NONE', #124 ) ;
#31 = CONICAL_SURFACE ( 'NONE', #276, 1.844999999999995088, 0.5235987755983003700 ) ;
#32 = EDGE_LOOP ( 'NONE', ( #236 ) ) ;
#33 = CC_DESIGN_PERSON_AND_ORGANIZATION_ASSIGNMENT ( #242, #105, ( #52 ) ) ;
#34 = CARTESIAN_POINT ( 'NONE',  ( 2.444036937190193601E-13, 1.199999999999992628, 70.00000000000000000 ) ) ;
#35 = DIRECTION ( 'NONE',  ( -4.275831445896958607E-31, -1.000000000000000000, -1.224646799147353207E-16 ) ) ;
#36 = APPROVAL_ROLE ( '' ) ;
#37 = DIRECTION ( 'NONE',  ( 4.275831445896958607E-31, 1.000000000000000000, 1.224646799147353207E-16 ) ) ;
#38 = MECHANICAL_CONTEXT ( 'NONE', #96, 'mechanical' ) ;
#39 = CONICAL_SURFACE ( 'NONE', #78, 1.200000000000001510, 0.7853981633974566057 ) ;
#40 = LOCAL_TIME ( 10, 35, 56.00000000000000000, #233 ) ;
#41 = EDGE_LOOP ( 'NONE', ( #64 ) ) ;
#42 = APPROVAL_ROLE ( '' ) ;
#43 = CARTESIAN_POINT ( 'NONE',  ( 2.444036937190193601E-13, -8.572527594031472993E-15, 70.00000000000000000 ) ) ;
#44 = ORIENTED_EDGE ( 'NONE', *, *, #293, .T. ) ;
#45 = EDGE_LOOP ( 'NONE', ( #258 ) ) ;
#46 = LOCAL_TIME ( 10, 35, 56.00000000000000000, #189 ) ;
#47 = EDGE_LOOP ( 'NONE', ( #22 ) ) ;
#48 = DIRECTION ( 'NONE',  ( 0.0000000000000000000, 1.000000000000000000, 0.0000000000000000000 ) ) ;
#49 = PERSON ( 'UNSPECIFIED', 'UNSPECIFIED', 'UNSPECIFIED', ('UNSPECIFIED'), ('UNSPECIFIED'), ('UNSPECIFIED') ) ;
#50 = ADVANCED_FACE ( 'NONE', ( #68 ), #248, .F. ) ;
#51 = AXIS2_PLACEMENT_3D ( 'NONE', #9, #255, #35 ) ;
#52 = PRODUCT_DEFINITION_FORMATION_WITH_SPECIFIED_SOURCE ( 'ANY', '', #82, .NOT_KNOWN. ) ;
#53 = FACE_OUTER_BOUND ( 'NONE', #89, .T. ) ;
#54 = VERTEX_POINT ( 'NONE', #278 ) ;
#55 = CARTESIAN_POINT ( 'NONE',  ( -6.819951156205623833E-31, 2.392116853345654345E-32, -1.953311644640021205E-16 ) ) ;
#56 = APPROVAL ( #107, 'UNSPECIFIED' ) ;
#57 = AXIS2_PLACEMENT_3D ( 'NONE', #15, #177, #269 ) ;
#58 = ORIENTED_EDGE ( 'NONE', *, *, #81, .F. ) ;
#59 = DIRECTION ( 'NONE',  ( 0.0000000000000000000, 1.000000000000000000, 0.0000000000000000000 ) ) ;
#60 = ADVANCED_FACE ( 'NONE', ( #198, #92 ), #294, .T. ) ;
#61 = SECURITY_CLASSIFICATION_LEVEL ( 'unclassified' ) ;
#62 = DIRECTION ( 'NONE',  ( 4.275831445896958607E-31, 1.000000000000000000, 1.224646799147353454E-16 ) ) ;
#63 = CONICAL_SURFACE ( 'NONE', #289, 1.594999999999994200, 0.7853981633974500554 ) ;
#64 = ORIENTED_EDGE ( 'NONE', *, *, #182, .F. ) ;
#65 = FACE_OUTER_BOUND ( 'NONE', #70, .T. ) ;
#66 = EDGE_CURVE ( 'NONE', #76, #76, #300, .T. ) ;
#67 = APPLICATION_PROTOCOL_DEFINITION ( 'international standard', 'config_control_design', 1994, #220 ) ;
#68 = FACE_OUTER_BOUND ( 'NONE', #234, .T. ) ;
#69 = AXIS2_PLACEMENT_3D ( 'NONE', #159, #25, #137 ) ;
#70 = EDGE_LOOP ( 'NONE', ( #246 ) ) ;
#71 = CARTESIAN_POINT ( 'NONE',  ( 2.444036937190193601E-13, -8.572527594031472993E-15, 70.00000000000000000 ) ) ;
#72 = CIRCLE ( 'NONE', #57, 1.500000000000001110 ) ;
#73 = CC_DESIGN_APPROVAL ( #56, ( #191 ) ) ;
#74 = DIRECTION ( 'NONE',  ( -3.491481338843133355E-15, 1.224646799147353207E-16, -1.000000000000000000 ) ) ;
#75 = CC_DESIGN_PERSON_AND_ORGANIZATION_ASSIGNMENT ( #222, #262, ( #191 ) ) ;
#76 = VERTEX_POINT ( 'NONE', #230 ) ;
#77 = DIRECTION ( 'NONE',  ( 0.0000000000000000000, 1.000000000000000000, 0.0000000000000000000 ) ) ;
#78 = AXIS2_PLACEMENT_3D ( 'NONE', #10, #281, #84 ) ;
#79 = UNCERTAINTY_MEASURE_WITH_UNIT (LENGTH_MEASURE( 1.000000000000000082E-05 ), #287, 'distance_accuracy_value', 'NONE');
#80 = DATE_TIME_ROLE ( 'classification_date' ) ;
#81 = EDGE_CURVE ( 'NONE', #143, #143, #116, .T. ) ;
#82 = PRODUCT ( '321595', '321595', '', ( #38 ) ) ;
#83 = CIRCLE ( 'NONE', #257, 1.500000000000001110 ) ;
#84 = DIRECTION ( 'NONE',  ( 0.0000000000000000000, 1.000000000000000000, 0.0000000000000000000 ) ) ;
#85 = APPROVAL_DATE_TIME ( #219, #56 ) ;
#86 = DIRECTION ( 'NONE',  ( 0.0000000000000000000, 1.000000000000000000, 0.0000000000000000000 ) ) ;
#87 = CALENDAR_DATE ( 2021, 2, 12 ) ;
#88 = AXIS2_PLACEMENT_3D ( 'NONE', #113, #179, #62 ) ;
#89 = EDGE_LOOP ( 'NONE', ( #101 ) ) ;
#90 =( NAMED_UNIT ( * ) PLANE_ANGLE_UNIT ( ) SI_UNIT ( $, .RADIAN. ) );
#91 = ORIENTED_EDGE ( 'NONE', *, *, #182, .T. ) ;
#92 = FACE_OUTER_BOUND ( 'NONE', #115, .T. ) ;
#93 = DIRECTION ( 'NONE',  ( 4.275831445896958607E-31, 1.000000000000000000, 1.224646799147353207E-16 ) ) ;
#94 = AXIS2_PLACEMENT_3D ( 'NONE', #260, #244, #192 ) ;
#95 = PRODUCT_RELATED_PRODUCT_CATEGORY ( 'detail', '', ( #82 ) ) ;
#96 = APPLICATION_CONTEXT ( 'configuration controlled 3d designs of mechanical parts and assemblies' ) ;
#97 = DIRECTION ( 'NONE',  ( 0.0000000000000000000, 1.000000000000000000, 0.0000000000000000000 ) ) ;
#98 = SHAPE_DEFINITION_REPRESENTATION ( #266, #209 ) ;
#99 = ADVANCED_FACE ( 'NONE', ( #288, #65 ), #245, .T. ) ;
#100 = CARTESIAN_POINT ( 'NONE',  ( 2.433562493173664138E-13, 1.499999999999992673, 69.70000000000001705 ) ) ;
#101 = ORIENTED_EDGE ( 'NONE', *, *, #267, .T. ) ;
#102 = DIRECTION ( 'NONE',  ( -3.491481338843133355E-15, 1.224646799147353207E-16, -1.000000000000000000 ) ) ;
#103 = CARTESIAN_POINT ( 'NONE',  ( -3.409975578102811916E-31, 1.196058426672827173E-32, -9.766558223200106026E-17 ) ) ;
#104 = AXIS2_PLACEMENT_3D ( 'NONE', #114, #199, #93 ) ;
#105 = PERSON_AND_ORGANIZATION_ROLE ( 'creator' ) ;
#106 =( GEOMETRIC_REPRESENTATION_CONTEXT ( 3 ) GLOBAL_UNCERTAINTY_ASSIGNED_CONTEXT ( ( #79 ) ) GLOBAL_UNIT_ASSIGNED_CONTEXT ( ( #287, #90, #284 ) ) REPRESENTATION_CONTEXT ( 'NONE', 'WORKASPACE' ) );
#107 = APPROVAL_STATUS ( 'not_yet_approved' ) ;
#108 = ORIENTED_EDGE ( 'NONE', *, *, #23, .T. ) ;
#109 = FACE_OUTER_BOUND ( 'NONE', #153, .T. ) ;
#110 = DATE_AND_TIME ( #17, #123 ) ;
#111 = AXIS2_PLACEMENT_3D ( 'NONE', #251, #28, #225 ) ;
#112 = ORGANIZATION ( 'UNSPECIFIED', 'UNSPECIFIED', '' ) ;
#113 = CARTESIAN_POINT ( 'NONE',  ( 0.0000000000000000000, 0.0000000000000000000, 0.0000000000000000000 ) ) ;
#114 = CARTESIAN_POINT ( 'NONE',  ( 2.444036937190193601E-13, 8.998558695971026591E-33, 70.00000000000000000 ) ) ;
#115 = EDGE_LOOP ( 'NONE', ( #108 ) ) ;
#116 = CIRCLE ( 'NONE', #200, 1.200000000000001510 ) ;
#117 = CARTESIAN_POINT ( 'NONE',  ( 0.0000000000000000000, 0.0000000000000000000, 0.0000000000000000000 ) ) ;
#118 = ADVANCED_FACE ( 'NONE', ( #157, #140 ), #31, .T. ) ;
#119 = CC_DESIGN_PERSON_AND_ORGANIZATION_ASSIGNMENT ( #208, #185, ( #145 ) ) ;
#120 = CIRCLE ( 'NONE', #264, 1.499999999999992895 ) ;
#121 = PERSON_AND_ORGANIZATION ( #49, #112 ) ;
#122 = APPROVAL ( #253, 'UNSPECIFIED' ) ;
#123 = LOCAL_TIME ( 10, 35, 56.00000000000000000, #237 ) ;
#124 = CARTESIAN_POINT ( 'NONE',  ( 8.728703347107833388E-16, 1.844999999999995088, 0.2500000000000000000 ) ) ;
#125 = CARTESIAN_POINT ( 'NONE',  ( 3.491481338843133355E-14, 1.844999999999993756, 10.00000000000000000 ) ) ;
#126 = DATE_AND_TIME ( #14, #46 ) ;
#127 = PERSON_AND_ORGANIZATION ( #49, #112 ) ;
#128 = DIRECTION ( 'NONE',  ( -4.275831445896958607E-31, -1.000000000000000000, -1.224646799147353207E-16 ) ) ;
#129 = CC_DESIGN_PERSON_AND_ORGANIZATION_ASSIGNMENT ( #285, #290, ( #82 ) ) ;
#130 = ORIENTED_EDGE ( 'NONE', *, *, #133, .F. ) ;
#131 = APPLICATION_PROTOCOL_DEFINITION ( 'international standard', 'config_control_design', 1994, #96 ) ;
#132 = DIRECTION ( 'NONE',  ( 3.491481338843133355E-15, -1.224646799147353207E-16, 1.000000000000000000 ) ) ;
#133 = EDGE_CURVE ( 'NONE', #254, #254, #187, .T. ) ;
#134 = ORIENTED_EDGE ( 'NONE', *, *, #66, .F. ) ;
#135 = ORIENTED_EDGE ( 'NONE', *, *, #291, .F. ) ;
#136 = CYLINDRICAL_SURFACE ( 'NONE', #27, 1.844999999999995088 ) ;
#137 = DIRECTION ( 'NONE',  ( 4.275831445896958607E-31, 1.000000000000000000, 1.224646799147353207E-16 ) ) ;
#138 = AXIS2_PLACEMENT_3D ( 'NONE', #215, #12, #77 ) ;
#139 = DIRECTION ( 'NONE',  ( 0.0000000000000000000, 1.000000000000000000, 0.0000000000000000000 ) ) ;
#140 = FACE_OUTER_BOUND ( 'NONE', #263, .T. ) ;
#141 = AXIS2_PLACEMENT_3D ( 'NONE', #103, #256, #173 ) ;
#142 = CONICAL_SURFACE ( 'NONE', #210, 1.844999999999995088, 0.5235987755983003700 ) ;
#143 = VERTEX_POINT ( 'NONE', #275 ) ;
#144 = CC_DESIGN_DATE_AND_TIME_ASSIGNMENT ( #239, #80, ( #145 ) ) ;
#145 = SECURITY_CLASSIFICATION ( '', '', #61 ) ;
#146 = FACE_OUTER_BOUND ( 'NONE', #47, .T. ) ;
#147 = FACE_OUTER_BOUND ( 'NONE', #155, .T. ) ;
#148 = EDGE_LOOP ( 'NONE', ( #243 ) ) ;
#149 = CALENDAR_DATE ( 2021, 2, 12 ) ;
#150 = ORIENTED_EDGE ( 'NONE', *, *, #81, .T. ) ;
#151 = AXIS2_PLACEMENT_3D ( 'NONE', #55, #259, #37 ) ;
#152 = DATE_TIME_ROLE ( 'creation_date' ) ;
#153 = EDGE_LOOP ( 'NONE', ( #21 ) ) ;
#154 = EDGE_LOOP ( 'NONE', ( #265 ) ) ;
#155 = EDGE_LOOP ( 'NONE', ( #44 ) ) ;
#156 = AXIS2_PLACEMENT_3D ( 'NONE', #71, #250, #48 ) ;
#157 = FACE_BOUND ( 'NONE', #45, .T. ) ;
#158 = EDGE_CURVE ( 'NONE', #167, #167, #83, .T. ) ;
#159 = CARTESIAN_POINT ( 'NONE',  ( 2.444036937190193601E-13, -8.572527594031472993E-15, 70.00000000000000000 ) ) ;
#160 = LOCAL_TIME ( 10, 35, 56.00000000000000000, #175 ) ;
#161 = CARTESIAN_POINT ( 'NONE',  ( 2.433562493173664138E-13, -8.535788190057053710E-15, 69.70000000000001705 ) ) ;
#162 = ADVANCED_FACE ( 'NONE', ( #273, #229 ), #282, .T. ) ;
#163 = DIRECTION ( 'NONE',  ( 0.0000000000000000000, 1.000000000000000000, 0.0000000000000000000 ) ) ;
#164 = CARTESIAN_POINT ( 'NONE',  ( 3.700117434846278629E-14, 1.499999999999991562, 10.59755752861126510 ) ) ;
#165 = CARTESIAN_POINT ( 'NONE',  ( 3.491481338843133355E-14, -1.224646799147353256E-15, 10.00000000000000000 ) ) ;
#166 = CIRCLE ( 'NONE', #151, 1.594999999999994200 ) ;
#167 = VERTEX_POINT ( 'NONE', #252 ) ;
#168 = VERTEX_POINT ( 'NONE', #125 ) ;
#169 = ORIENTED_EDGE ( 'NONE', *, *, #195, .F. ) ;
#170 = AXIS2_PLACEMENT_3D ( 'NONE', #197, #223, #18 ) ;
#171 = APPROVAL ( #196, 'UNSPECIFIED' ) ;
#172 = CC_DESIGN_APPROVAL ( #171, ( #52 ) ) ;
#173 = DIRECTION ( 'NONE',  ( 4.275831445896958607E-31, 1.000000000000000000, 1.224646799147353207E-16 ) ) ;
#174 = PERSON_AND_ORGANIZATION ( #49, #112 ) ;
#175 = COORDINATED_UNIVERSAL_TIME_OFFSET ( 1, 0, .AHEAD. ) ;
#176 = EDGE_LOOP ( 'NONE', ( #217 ) ) ;
#177 = DIRECTION ( 'NONE',  ( -3.491481338843133355E-15, 1.224646799147353207E-16, -1.000000000000000000 ) ) ;
#178 = AXIS2_PLACEMENT_3D ( 'NONE', #240, #286, #86 ) ;
#179 = DIRECTION ( 'NONE',  ( -3.491481338843133355E-15, 1.224646799147353207E-16, -1.000000000000000000 ) ) ;
#180 = ADVANCED_FACE ( 'NONE', ( #227, #202 ), #136, .T. ) ;
#181 = DIRECTION ( 'NONE',  ( -3.491481338843133355E-15, 1.224646799147353207E-16, -1.000000000000000000 ) ) ;
#182 = EDGE_CURVE ( 'NONE', #54, #54, #120, .T. ) ;
#183 = VERTEX_POINT ( 'NONE', #100 ) ;
#184 = VERTEX_POINT ( 'NONE', #34 ) ;
#185 = PERSON_AND_ORGANIZATION_ROLE ( 'classification_officer' ) ;
#186 = FACE_BOUND ( 'NONE', #295, .T. ) ;
#187 = CIRCLE ( 'NONE', #111, 1.499999999999992895 ) ;
#188 = CALENDAR_DATE ( 2021, 2, 12 ) ;
#189 = COORDINATED_UNIVERSAL_TIME_OFFSET ( 1, 0, .AHEAD. ) ;
#190 = ADVANCED_FACE ( 'NONE', ( #206 ), #1, .F. ) ;
#191 = PRODUCT_DEFINITION ( 'UNKNOWN', '', #52, #249 ) ;
#192 = DIRECTION ( 'NONE',  ( 1.000000000000000000, 0.0000000000000000000, 0.0000000000000000000 ) ) ;
#193 = CARTESIAN_POINT ( 'NONE',  ( -6.819951156205623833E-31, 2.392116853345654345E-32, -1.953311644640021205E-16 ) ) ;
#194 = DIRECTION ( 'NONE',  ( 0.0000000000000000000, 1.000000000000000000, 0.0000000000000000000 ) ) ;
#195 = EDGE_CURVE ( 'NONE', #30, #30, #228, .T. ) ;
#196 = APPROVAL_STATUS ( 'not_yet_approved' ) ;
#197 = CARTESIAN_POINT ( 'NONE',  ( 0.0000000000000000000, 0.0000000000000000000, 0.0000000000000000000 ) ) ;
#198 = FACE_OUTER_BOUND ( 'NONE', #41, .T. ) ;
#199 = DIRECTION ( 'NONE',  ( -3.491481338843133355E-15, 1.224646799147353207E-16, -1.000000000000000000 ) ) ;
#200 = AXIS2_PLACEMENT_3D ( 'NONE', #43, #221, #194 ) ;
#201 = CC_DESIGN_APPROVAL ( #122, ( #145 ) ) ;
#202 = FACE_OUTER_BOUND ( 'NONE', #292, .T. ) ;
#203 = CARTESIAN_POINT ( 'NONE',  ( 3.700117434846278629E-14, -1.297826490619372039E-15, 10.59755752861126510 ) ) ;
#204 = CLOSED_SHELL ( 'NONE', ( #118, #180, #26, #214, #190, #261, #99 ) ) ;
#205 = LOCAL_TIME ( 10, 35, 56.00000000000000000, #211 ) ;
#206 = FACE_OUTER_BOUND ( 'NONE', #4, .T. ) ;
#207 = EDGE_LOOP ( 'NONE', ( #91 ) ) ;
#208 = PERSON_AND_ORGANIZATION ( #49, #112 ) ;
#209 = ADVANCED_BREP_SHAPE_REPRESENTATION ( '321595', ( #218, #216, #94 ), #106 ) ;
#210 = AXIS2_PLACEMENT_3D ( 'NONE', #274, #280, #59 ) ;
#211 = COORDINATED_UNIVERSAL_TIME_OFFSET ( 1, 0, .AHEAD. ) ;
#212 = VERTEX_POINT ( 'NONE', #8 ) ;
#213 = APPROVAL_ROLE ( '' ) ;
#214 = ADVANCED_FACE ( 'NONE', ( #53 ), #279, .T. ) ;
#215 = CARTESIAN_POINT ( 'NONE',  ( 2.444036937190193601E-13, -8.572527594031472993E-15, 70.00000000000000000 ) ) ;
#216 = MANIFOLD_SOLID_BREP ( 'Corps-Déplacer/Copier1[2]', #204 ) ;
#217 = ORIENTED_EDGE ( 'NONE', *, *, #23, .F. ) ;
#218 = MANIFOLD_SOLID_BREP ( 'Corps-Déplacer/Copier1[1]', #13 ) ;
#219 = DATE_AND_TIME ( #87, #160 ) ;
#220 = APPLICATION_CONTEXT ( 'configuration controlled 3d designs of mechanical parts and assemblies' ) ;
#221 = DIRECTION ( 'NONE',  ( -3.491481338843133355E-15, 1.224646799147353207E-16, -1.000000000000000000 ) ) ;
#222 = PERSON_AND_ORGANIZATION ( #49, #112 ) ;
#223 = DIRECTION ( 'NONE',  ( -3.491481338843133355E-15, 1.224646799147353207E-16, -1.000000000000000000 ) ) ;
#224 = EDGE_LOOP ( 'NONE', ( #29 ) ) ;
#225 = DIRECTION ( 'NONE',  ( 0.0000000000000000000, 1.000000000000000000, 0.0000000000000000000 ) ) ;
#226 = DIRECTION ( 'NONE',  ( 4.275831445896958607E-31, 1.000000000000000000, 1.224646799147353207E-16 ) ) ;
#227 = FACE_OUTER_BOUND ( 'NONE', #224, .T. ) ;
#228 = CIRCLE ( 'NONE', #270, 1.844999999999995088 ) ;
#229 = FACE_BOUND ( 'NONE', #32, .T. ) ;
#230 = CARTESIAN_POINT ( 'NONE',  ( 3.491481338843133355E-14, 1.844999999999993756, 10.00000000000000000 ) ) ;
#231 = ADVANCED_FACE ( 'NONE', ( #147 ), #235, .F. ) ;
#232 = FACE_BOUND ( 'NONE', #207, .T. ) ;
#233 = COORDINATED_UNIVERSAL_TIME_OFFSET ( 1, 0, .AHEAD. ) ;
#234 = EDGE_LOOP ( 'NONE', ( #135 ) ) ;
#235 = PLANE ( 'NONE',  #51 ) ;
#236 = ORIENTED_EDGE ( 'NONE', *, *, #291, .T. ) ;
#237 = COORDINATED_UNIVERSAL_TIME_OFFSET ( 1, 0, .AHEAD. ) ;
#238 = FACE_OUTER_BOUND ( 'NONE', #154, .T. ) ;
#239 = DATE_AND_TIME ( #149, #205 ) ;
#240 = CARTESIAN_POINT ( 'NONE',  ( 3.491481338843133355E-14, -1.224646799147353256E-15, 10.00000000000000000 ) ) ;
#241 = CC_DESIGN_SECURITY_CLASSIFICATION ( #145, ( #52 ) ) ;
#242 = PERSON_AND_ORGANIZATION ( #49, #112 ) ;
#243 = ORIENTED_EDGE ( 'NONE', *, *, #267, .F. ) ;
#244 = DIRECTION ( 'NONE',  ( 0.0000000000000000000, 0.0000000000000000000, 1.000000000000000000 ) ) ;
#245 = CYLINDRICAL_SURFACE ( 'NONE', #170, 1.499999999999996891 ) ;
#246 = ORIENTED_EDGE ( 'NONE', *, *, #158, .T. ) ;
#247 = APPROVAL_PERSON_ORGANIZATION ( #174, #171, #36 ) ;
#248 = PLANE ( 'NONE',  #104 ) ;
#249 = DESIGN_CONTEXT ( 'detailed design', #220, 'design' ) ;
#250 = DIRECTION ( 'NONE',  ( -3.491481338843133355E-15, 1.224646799147353207E-16, -1.000000000000000000 ) ) ;
#251 = CARTESIAN_POINT ( 'NONE',  ( 3.700117434846278629E-14, -1.297826490619372039E-15, 10.59755752861126510 ) ) ;
#252 = CARTESIAN_POINT ( 'NONE',  ( 2.433562493173664138E-13, 1.499999999999992673, 69.70000000000001705 ) ) ;
#253 = APPROVAL_STATUS ( 'not_yet_approved' ) ;
#254 = VERTEX_POINT ( 'NONE', #164 ) ;
#255 = DIRECTION ( 'NONE',  ( 3.491481338843133355E-15, -1.224646799147353207E-16, 1.000000000000000000 ) ) ;
#256 = DIRECTION ( 'NONE',  ( -3.491481338843133355E-15, 1.224646799147353207E-16, -1.000000000000000000 ) ) ;
#257 = AXIS2_PLACEMENT_3D ( 'NONE', #161, #181, #163 ) ;
#258 = ORIENTED_EDGE ( 'NONE', *, *, #133, .T. ) ;
#259 = DIRECTION ( 'NONE',  ( -3.491481338843133355E-15, 1.224646799147353207E-16, -1.000000000000000000 ) ) ;
#260 = CARTESIAN_POINT ( 'NONE',  ( 0.0000000000000000000, 0.0000000000000000000, 0.0000000000000000000 ) ) ;
#261 = ADVANCED_FACE ( 'NONE', ( #238, #186 ), #39, .T. ) ;
#262 = PERSON_AND_ORGANIZATION_ROLE ( 'creator' ) ;
#263 = EDGE_LOOP ( 'NONE', ( #134 ) ) ;
#264 = AXIS2_PLACEMENT_3D ( 'NONE', #203, #272, #139 ) ;
#265 = ORIENTED_EDGE ( 'NONE', *, *, #158, .F. ) ;
#266 = PRODUCT_DEFINITION_SHAPE ( 'NONE', 'NONE',  #191 ) ;
#267 = EDGE_CURVE ( 'NONE', #212, #212, #166, .T. ) ;
#268 = FACE_BOUND ( 'NONE', #148, .T. ) ;
#269 = DIRECTION ( 'NONE',  ( 0.0000000000000000000, 1.000000000000000000, 0.0000000000000000000 ) ) ;
#270 = AXIS2_PLACEMENT_3D ( 'NONE', #271, #299, #3 ) ;
#271 = CARTESIAN_POINT ( 'NONE',  ( 8.728703347107825500E-16, -3.061616997868380553E-17, 0.2499999999999997780 ) ) ;
#272 = DIRECTION ( 'NONE',  ( -3.491481338843133355E-15, 1.224646799147353207E-16, -1.000000000000000000 ) ) ;
#273 = FACE_OUTER_BOUND ( 'NONE', #176, .T. ) ;
#274 = CARTESIAN_POINT ( 'NONE',  ( 3.491481338843133355E-14, -1.224646799147353256E-15, 10.00000000000000000 ) ) ;
#275 = CARTESIAN_POINT ( 'NONE',  ( 2.444036937190193601E-13, 1.199999999999992628, 70.00000000000000000 ) ) ;
#276 = AXIS2_PLACEMENT_3D ( 'NONE', #303, #74, #97 ) ;
#277 = AXIS2_PLACEMENT_3D ( 'NONE', #165, #102, #6 ) ;
#278 = CARTESIAN_POINT ( 'NONE',  ( 3.700117434846278629E-14, 1.499999999999991562, 10.59755752861126510 ) ) ;
#279 = PLANE ( 'NONE',  #141 ) ;
#280 = DIRECTION ( 'NONE',  ( -3.491481338843133355E-15, 1.224646799147353207E-16, -1.000000000000000000 ) ) ;
#281 = DIRECTION ( 'NONE',  ( -3.491481338843133355E-15, 1.224646799147353207E-16, -1.000000000000000000 ) ) ;
#282 = CONICAL_SURFACE ( 'NONE', #156, 1.200000000000001510, 0.7853981633974566057 ) ;
#283 = PERSON_AND_ORGANIZATION ( #49, #112 ) ;
#284 =( NAMED_UNIT ( * ) SI_UNIT ( $, .STERADIAN. ) SOLID_ANGLE_UNIT ( ) );
#285 = PERSON_AND_ORGANIZATION ( #49, #112 ) ;
#286 = DIRECTION ( 'NONE',  ( -3.491481338843133355E-15, 1.224646799147353207E-16, -1.000000000000000000 ) ) ;
#287 =( LENGTH_UNIT ( ) NAMED_UNIT ( * ) SI_UNIT ( .MILLI., .METRE. ) );
#288 = FACE_OUTER_BOUND ( 'NONE', #16, .T. ) ;
#289 = AXIS2_PLACEMENT_3D ( 'NONE', #193, #132, #128 ) ;
#290 = PERSON_AND_ORGANIZATION_ROLE ( 'design_owner' ) ;
#291 = EDGE_CURVE ( 'NONE', #184, #184, #302, .T. ) ;
#292 = EDGE_LOOP ( 'NONE', ( #169 ) ) ;
#293 = EDGE_CURVE ( 'NONE', #168, #168, #19, .T. ) ;
#294 = CYLINDRICAL_SURFACE ( 'NONE', #88, 1.499999999999996891 ) ;
#295 = EDGE_LOOP ( 'NONE', ( #150 ) ) ;
#296 = APPROVAL_PERSON_ORGANIZATION ( #127, #56, #42 ) ;
#297 = DIRECTION ( 'NONE',  ( -3.491481338843133355E-15, 1.224646799147353207E-16, -1.000000000000000000 ) ) ;
#298 = CC_DESIGN_DATE_AND_TIME_ASSIGNMENT ( #110, #152, ( #191 ) ) ;
#299 = DIRECTION ( 'NONE',  ( -3.491481338843133355E-15, 1.224646799147353207E-16, -1.000000000000000000 ) ) ;
#300 = CIRCLE ( 'NONE', #178, 1.844999999999995088 ) ;
#301 = ADVANCED_FACE ( 'NONE', ( #232, #146 ), #142, .T. ) ;
#302 = CIRCLE ( 'NONE', #138, 1.200000000000001510 ) ;
#303 = CARTESIAN_POINT ( 'NONE',  ( 3.491481338843133355E-14, -1.224646799147353256E-15, 10.00000000000000000 ) ) ;
ENDSEC;
END-ISO-10303-21;
