ISO-10303-21;
HEADER;
FILE_DESCRIPTION (( 'STEP AP203' ),
    '1' );
FILE_NAME ('321594.step',
    '2021-12-02T09:35:56',
    ( '' ),
    ( '' ),
    'SwSTEP 2.0',
    'SolidWorks 2019',
    '' );
FILE_SCHEMA (( 'CONFIG_CONTROL_DESIGN' ));
ENDSEC;

DATA;
#1 = ADVANCED_FACE ( 'NONE', ( #220, #274 ), #104, .T. ) ;
#2 = CIRCLE ( 'NONE', #302, 1.499999999999992895 ) ;
#3 = APPROVAL_ROLE ( '' ) ;
#4 = DIRECTION ( 'NONE',  ( -3.491481338843133355E-15, 1.224646799147353207E-16, -1.000000000000000000 ) ) ;
#5 = CALENDAR_DATE ( 2021, 2, 12 ) ;
#6 = ADVANCED_FACE ( 'NONE', ( #83, #63 ), #88, .T. ) ;
#7 = CARTESIAN_POINT ( 'NONE',  ( 3.697093723310001125E-14, 1.499999999999991562, 10.58889727457341934 ) ) ;
#8 = COORDINATED_UNIVERSAL_TIME_OFFSET ( 1, 0, .AHEAD. ) ;
#9 = CONICAL_SURFACE ( 'NONE', #145, 1.839999999999994973, 0.5235987755983009251 ) ;
#10 = APPROVAL_PERSON_ORGANIZATION ( #141, #223, #90 ) ;
#11 = DIRECTION ( 'NONE',  ( -3.491481338843133355E-15, 1.224646799147353207E-16, -1.000000000000000000 ) ) ;
#12 = EDGE_LOOP ( 'NONE', ( #182 ) ) ;
#13 = ADVANCED_FACE ( 'NONE', ( #298, #275 ), #154, .T. ) ;
#14 = FACE_OUTER_BOUND ( 'NONE', #39, .T. ) ;
#15 = ORIENTED_EDGE ( 'NONE', *, *, #265, .T. ) ;
#16 = DIRECTION ( 'NONE',  ( 4.275831445896958607E-31, 1.000000000000000000, 1.224646799147353454E-16 ) ) ;
#17 = AXIS2_PLACEMENT_3D ( 'NONE', #250, #11, #98 ) ;
#18 = CC_DESIGN_APPROVAL ( #23, ( #226 ) ) ;
#19 = CYLINDRICAL_SURFACE ( 'NONE', #56, 1.499999999999996891 ) ;
#20 = FACE_OUTER_BOUND ( 'NONE', #297, .T. ) ;
#21 = EDGE_LOOP ( 'NONE', ( #59 ) ) ;
#22 = EDGE_LOOP ( 'NONE', ( #108 ) ) ;
#23 = APPROVAL ( #213, 'UNSPECIFIED' ) ;
#24 = DIRECTION ( 'NONE',  ( 0.0000000000000000000, 1.000000000000000000, 0.0000000000000000000 ) ) ;
#25 = FACE_OUTER_BOUND ( 'NONE', #106, .T. ) ;
#26 = DATE_AND_TIME ( #5, #122 ) ;
#27 = DIRECTION ( 'NONE',  ( 0.0000000000000000000, 1.000000000000000000, 0.0000000000000000000 ) ) ;
#28 = APPROVAL_DATE_TIME ( #44, #296 ) ;
#29 =( LENGTH_UNIT ( ) NAMED_UNIT ( * ) SI_UNIT ( .MILLI., .METRE. ) );
#30 = ADVANCED_FACE ( 'NONE', ( #20 ), #181, .F. ) ;
#31 = ORIENTED_EDGE ( 'NONE', *, *, #207, .F. ) ;
#32 = DIRECTION ( 'NONE',  ( 1.000000000000000000, 0.0000000000000000000, 0.0000000000000000000 ) ) ;
#33 = DIRECTION ( 'NONE',  ( 3.491481338843133355E-15, -1.224646799147353207E-16, 1.000000000000000000 ) ) ;
#34 = EDGE_LOOP ( 'NONE', ( #134 ) ) ;
#35 = CARTESIAN_POINT ( 'NONE',  ( 2.433562493173664138E-13, -8.535788190057053710E-15, 69.70000000000001705 ) ) ;
#36 = CARTESIAN_POINT ( 'NONE',  ( 0.0000000000000000000, 0.0000000000000000000, 0.0000000000000000000 ) ) ;
#37 = AXIS2_PLACEMENT_3D ( 'NONE', #280, #66, #162 ) ;
#38 = EDGE_LOOP ( 'NONE', ( #177 ) ) ;
#39 = EDGE_LOOP ( 'NONE', ( #256 ) ) ;
#40 = DIRECTION ( 'NONE',  ( 0.0000000000000000000, 1.000000000000000000, 0.0000000000000000000 ) ) ;
#41 = EDGE_CURVE ( 'NONE', #191, #191, #149, .T. ) ;
#42 = AXIS2_PLACEMENT_3D ( 'NONE', #139, #233, #167 ) ;
#43 = PRODUCT_RELATED_PRODUCT_CATEGORY ( 'detail', '', ( #153 ) ) ;
#44 = DATE_AND_TIME ( #216, #273 ) ;
#45 = DIRECTION ( 'NONE',  ( 4.186804226928785208E-31, 1.000000000000000000, 1.178480622266855915E-16 ) ) ;
#46 = AXIS2_PLACEMENT_3D ( 'NONE', #78, #217, #75 ) ;
#47 = APPROVAL_DATE_TIME ( #192, #223 ) ;
#48 = PLANE ( 'NONE',  #96 ) ;
#49 = PERSON_AND_ORGANIZATION_ROLE ( 'creator' ) ;
#50 = DIRECTION ( 'NONE',  ( -3.491481338843133355E-15, 1.224646799147353207E-16, -1.000000000000000000 ) ) ;
#51 = CONICAL_SURFACE ( 'NONE', #168, 1.589999999999994085, 0.7853981633974500554 ) ;
#52 = AXIS2_PLACEMENT_3D ( 'NONE', #301, #85, #138 ) ;
#53 = DIRECTION ( 'NONE',  ( 4.275831445896958607E-31, 1.000000000000000000, 1.224646799147353454E-16 ) ) ;
#54 =( NAMED_UNIT ( * ) SI_UNIT ( $, .STERADIAN. ) SOLID_ANGLE_UNIT ( ) );
#55 = VERTEX_POINT ( 'NONE', #171 ) ;
#56 = AXIS2_PLACEMENT_3D ( 'NONE', #300, #107, #53 ) ;
#57 = ORIENTED_EDGE ( 'NONE', *, *, #194, .F. ) ;
#58 = CARTESIAN_POINT ( 'NONE',  ( 3.491481338843133355E-14, 1.379779000048903471E-32, 10.00000000000000000 ) ) ;
#59 = ORIENTED_EDGE ( 'NONE', *, *, #142, .T. ) ;
#60 = EDGE_LOOP ( 'NONE', ( #15 ) ) ;
#61 = CIRCLE ( 'NONE', #17, 1.500000000000001110 ) ;
#62 = DIRECTION ( 'NONE',  ( -3.491481338843133355E-15, 1.224646799147353207E-16, -1.000000000000000000 ) ) ;
#63 = FACE_BOUND ( 'NONE', #60, .T. ) ;
#64 = EDGE_CURVE ( 'NONE', #261, #261, #2, .T. ) ;
#65 = FACE_OUTER_BOUND ( 'NONE', #180, .T. ) ;
#66 = DIRECTION ( 'NONE',  ( -3.491481338843133355E-15, 1.224646799147353207E-16, -1.000000000000000000 ) ) ;
#67 = PERSON_AND_ORGANIZATION ( #279, #258 ) ;
#68 = AXIS2_PLACEMENT_3D ( 'NONE', #236, #286, #27 ) ;
#69 = COORDINATED_UNIVERSAL_TIME_OFFSET ( 1, 0, .AHEAD. ) ;
#70 = PERSON_AND_ORGANIZATION_ROLE ( 'creator' ) ;
#71 = MECHANICAL_CONTEXT ( 'NONE', #109, 'mechanical' ) ;
#72 = PERSON_AND_ORGANIZATION ( #279, #258 ) ;
#73 = CIRCLE ( 'NONE', #68, 1.200000000000001510 ) ;
#74 = CARTESIAN_POINT ( 'NONE',  ( 2.444036937190193601E-13, 1.199999999999992628, 70.00000000000000000 ) ) ;
#75 = DIRECTION ( 'NONE',  ( 0.0000000000000000000, 1.000000000000000000, 0.0000000000000000000 ) ) ;
#76 =( NAMED_UNIT ( * ) PLANE_ANGLE_UNIT ( ) SI_UNIT ( $, .RADIAN. ) );
#77 = DIRECTION ( 'NONE',  ( 4.275831445896958607E-31, 1.000000000000000000, 1.224646799147353454E-16 ) ) ;
#78 = CARTESIAN_POINT ( 'NONE',  ( 3.491481338843133355E-14, -1.224646799147353256E-15, 10.00000000000000000 ) ) ;
#79 = MANIFOLD_SOLID_BREP ( 'Corps-Déplacer/Copier1[1]', #121 ) ;
#80 = CIRCLE ( 'NONE', #173, 1.200000000000001510 ) ;
#81 = FACE_BOUND ( 'NONE', #100, .T. ) ;
#82 = EDGE_CURVE ( 'NONE', #270, #270, #128, .T. ) ;
#83 = FACE_OUTER_BOUND ( 'NONE', #303, .T. ) ;
#84 = ORIENTED_EDGE ( 'NONE', *, *, #265, .F. ) ;
#85 = DIRECTION ( 'NONE',  ( -3.491481338843133355E-15, 1.224646799147353207E-16, -1.000000000000000000 ) ) ;
#86 = ADVANCED_FACE ( 'NONE', ( #257, #137 ), #9, .T. ) ;
#87 = APPROVAL_DATE_TIME ( #240, #23 ) ;
#88 = CONICAL_SURFACE ( 'NONE', #160, 1.200000000000001510, 0.7853981633974566057 ) ;
#89 = LOCAL_TIME ( 10, 35, 55.00000000000000000, #116 ) ;
#90 = APPROVAL_ROLE ( '' ) ;
#91 = DIRECTION ( 'NONE',  ( 4.275831445896958607E-31, 1.000000000000000000, 1.224646799147353207E-16 ) ) ;
#92 = PERSON_AND_ORGANIZATION ( #279, #258 ) ;
#93 = FACE_OUTER_BOUND ( 'NONE', #136, .T. ) ;
#94 = FACE_OUTER_BOUND ( 'NONE', #271, .T. ) ;
#95 = ADVANCED_FACE ( 'NONE', ( #93, #65 ), #19, .T. ) ;
#96 = AXIS2_PLACEMENT_3D ( 'NONE', #143, #189, #91 ) ;
#97 = VERTEX_POINT ( 'NONE', #172 ) ;
#98 = DIRECTION ( 'NONE',  ( 0.0000000000000000000, 1.000000000000000000, 0.0000000000000000000 ) ) ;
#99 = CARTESIAN_POINT ( 'NONE',  ( 3.491481338843133355E-14, 1.839999999999993863, 10.00000000000000000 ) ) ;
#100 = EDGE_LOOP ( 'NONE', ( #31 ) ) ;
#101 = FACE_OUTER_BOUND ( 'NONE', #34, .T. ) ;
#102 = AXIS2_PLACEMENT_3D ( 'NONE', #118, #165, #211 ) ;
#103 = DESIGN_CONTEXT ( 'detailed design', #231, 'design' ) ;
#104 = CYLINDRICAL_SURFACE ( 'NONE', #185, 1.499999999999996891 ) ;
#105 = AXIS2_PLACEMENT_3D ( 'NONE', #131, #243, #77 ) ;
#106 = EDGE_LOOP ( 'NONE', ( #84 ) ) ;
#107 = DIRECTION ( 'NONE',  ( -3.491481338843133355E-15, 1.224646799147353207E-16, -1.000000000000000000 ) ) ;
#108 = ORIENTED_EDGE ( 'NONE', *, *, #194, .T. ) ;
#109 = APPLICATION_CONTEXT ( 'configuration controlled 3d designs of mechanical parts and assemblies' ) ;
#110 = EDGE_LOOP ( 'NONE', ( #135 ) ) ;
#111 = ADVANCED_BREP_SHAPE_REPRESENTATION ( '321594', ( #79, #187, #214 ), #247 ) ;
#112 = DIRECTION ( 'NONE',  ( 0.0000000000000000000, 1.000000000000000000, 0.0000000000000000000 ) ) ;
#113 = CIRCLE ( 'NONE', #46, 1.839999999999994973 ) ;
#114 = DIRECTION ( 'NONE',  ( -3.491481338843133355E-15, 1.224646799147353207E-16, -1.000000000000000000 ) ) ;
#115 = PLANE ( 'NONE',  #102 ) ;
#116 = COORDINATED_UNIVERSAL_TIME_OFFSET ( 1, 0, .AHEAD. ) ;
#117 = DIRECTION ( 'NONE',  ( 0.0000000000000000000, 1.000000000000000000, 0.0000000000000000000 ) ) ;
#118 = CARTESIAN_POINT ( 'NONE',  ( 2.444036937190193601E-13, -8.572527594031472993E-15, 70.00000000000000000 ) ) ;
#119 = APPROVAL_STATUS ( 'not_yet_approved' ) ;
#120 = VERTEX_POINT ( 'NONE', #198 ) ;
#121 = CLOSED_SHELL ( 'NONE', ( #208, #251, #1, #255, #30 ) ) ;
#122 = LOCAL_TIME ( 10, 35, 55.00000000000000000, #170 ) ;
#123 = PERSON_AND_ORGANIZATION ( #279, #258 ) ;
#124 = CC_DESIGN_PERSON_AND_ORGANIZATION_ASSIGNMENT ( #123, #195, ( #153 ) ) ;
#125 = COORDINATED_UNIVERSAL_TIME_OFFSET ( 1, 0, .AHEAD. ) ;
#126 = DIRECTION ( 'NONE',  ( -3.491481338843133355E-15, 1.224646799147353207E-16, -1.000000000000000000 ) ) ;
#127 = CARTESIAN_POINT ( 'NONE',  ( 0.0000000000000000000, 0.0000000000000000000, 0.0000000000000000000 ) ) ;
#128 = CIRCLE ( 'NONE', #225, 1.839999999999994973 ) ;
#129 = CC_DESIGN_PERSON_AND_ORGANIZATION_ASSIGNMENT ( #190, #144, ( #226 ) ) ;
#130 = ORIENTED_EDGE ( 'NONE', *, *, #234, .F. ) ;
#131 = CARTESIAN_POINT ( 'NONE',  ( -6.798571998976139119E-31, 2.384618054432345003E-32, -1.947188410644284576E-16 ) ) ;
#132 = ORIENTED_EDGE ( 'NONE', *, *, #82, .T. ) ;
#133 = AXIS2_PLACEMENT_3D ( 'NONE', #299, #253, #227 ) ;
#134 = ORIENTED_EDGE ( 'NONE', *, *, #183, .T. ) ;
#135 = ORIENTED_EDGE ( 'NONE', *, *, #82, .F. ) ;
#136 = EDGE_LOOP ( 'NONE', ( #200 ) ) ;
#137 = FACE_OUTER_BOUND ( 'NONE', #110, .T. ) ;
#138 = DIRECTION ( 'NONE',  ( 0.0000000000000000000, 1.000000000000000000, 0.0000000000000000000 ) ) ;
#139 = CARTESIAN_POINT ( 'NONE',  ( 2.444036937190193601E-13, -8.572527594031472993E-15, 70.00000000000000000 ) ) ;
#140 = DATE_TIME_ROLE ( 'creation_date' ) ;
#141 = PERSON_AND_ORGANIZATION ( #279, #258 ) ;
#142 = EDGE_CURVE ( 'NONE', #97, #97, #80, .T. ) ;
#143 = CARTESIAN_POINT ( 'NONE',  ( -3.399285999488069559E-31, 1.192309027216172501E-32, -9.735942053221422880E-17 ) ) ;
#144 = PERSON_AND_ORGANIZATION_ROLE ( 'classification_officer' ) ;
#145 = AXIS2_PLACEMENT_3D ( 'NONE', #235, #114, #24 ) ;
#146 = APPROVAL_PERSON_ORGANIZATION ( #263, #23, #3 ) ;
#147 = APPROVAL_STATUS ( 'not_yet_approved' ) ;
#148 = CARTESIAN_POINT ( 'NONE',  ( 2.433562493173664138E-13, 1.499999999999992673, 69.70000000000001705 ) ) ;
#149 = CIRCLE ( 'NONE', #52, 1.499999999999992895 ) ;
#150 = ORIENTED_EDGE ( 'NONE', *, *, #234, .T. ) ;
#151 = DIRECTION ( 'NONE',  ( -4.275831445896958607E-31, -1.000000000000000000, -1.224646799147353207E-16 ) ) ;
#152 = ORIENTED_EDGE ( 'NONE', *, *, #268, .F. ) ;
#153 = PRODUCT ( '321594', '321594', '', ( #71 ) ) ;
#154 = CYLINDRICAL_SURFACE ( 'NONE', #133, 1.839999999999994973 ) ;
#155 = PRODUCT_DEFINITION ( 'UNKNOWN', '', #294, #103 ) ;
#156 = AXIS2_PLACEMENT_3D ( 'NONE', #284, #4, #45 ) ;
#157 = ORIENTED_EDGE ( 'NONE', *, *, #64, .F. ) ;
#158 = ORIENTED_EDGE ( 'NONE', *, *, #64, .T. ) ;
#159 = CC_DESIGN_DATE_AND_TIME_ASSIGNMENT ( #262, #285, ( #226 ) ) ;
#160 = AXIS2_PLACEMENT_3D ( 'NONE', #203, #202, #40 ) ;
#161 = CIRCLE ( 'NONE', #105, 1.589999999999994085 ) ;
#162 = DIRECTION ( 'NONE',  ( 0.0000000000000000000, 1.000000000000000000, 0.0000000000000000000 ) ) ;
#163 = CC_DESIGN_APPROVAL ( #223, ( #294 ) ) ;
#164 = DIRECTION ( 'NONE',  ( -3.491481338843133355E-15, 1.224646799147353207E-16, -1.000000000000000000 ) ) ;
#165 = DIRECTION ( 'NONE',  ( -3.491481338843133355E-15, 1.224646799147353207E-16, -1.000000000000000000 ) ) ;
#166 = DIRECTION ( 'NONE',  ( -3.491481338843133355E-15, 1.224646799147353207E-16, -1.000000000000000000 ) ) ;
#167 = DIRECTION ( 'NONE',  ( 0.0000000000000000000, 1.000000000000000000, 0.0000000000000000000 ) ) ;
#168 = AXIS2_PLACEMENT_3D ( 'NONE', #178, #33, #199 ) ;
#169 = CALENDAR_DATE ( 2021, 2, 12 ) ;
#170 = COORDINATED_UNIVERSAL_TIME_OFFSET ( 1, 0, .AHEAD. ) ;
#171 = CARTESIAN_POINT ( 'NONE',  ( 0.0000000000000000000, 1.589999999999994085, 0.0000000000000000000 ) ) ;
#172 = CARTESIAN_POINT ( 'NONE',  ( 2.444036937190193601E-13, 1.199999999999992628, 70.00000000000000000 ) ) ;
#173 = AXIS2_PLACEMENT_3D ( 'NONE', #219, #126, #248 ) ;
#174 = FACE_OUTER_BOUND ( 'NONE', #206, .T. ) ;
#175 = CARTESIAN_POINT ( 'NONE',  ( 3.491481338843133355E-14, 1.839999999999993863, 10.00000000000000000 ) ) ;
#176 = CC_DESIGN_SECURITY_CLASSIFICATION ( #226, ( #294 ) ) ;
#177 = ORIENTED_EDGE ( 'NONE', *, *, #207, .T. ) ;
#178 = CARTESIAN_POINT ( 'NONE',  ( -6.798571998976139119E-31, 2.384618054432345003E-32, -1.947188410644284576E-16 ) ) ;
#179 = ADVANCED_FACE ( 'NONE', ( #14, #81 ), #51, .T. ) ;
#180 = EDGE_LOOP ( 'NONE', ( #150 ) ) ;
#181 = PLANE ( 'NONE',  #222 ) ;
#182 = ORIENTED_EDGE ( 'NONE', *, *, #41, .T. ) ;
#183 = EDGE_CURVE ( 'NONE', #239, #239, #113, .T. ) ;
#184 = PERSON_AND_ORGANIZATION_ROLE ( 'design_supplier' ) ;
#185 = AXIS2_PLACEMENT_3D ( 'NONE', #36, #221, #16 ) ;
#186 = CLOSED_SHELL ( 'NONE', ( #86, #13, #179, #259, #277, #6, #95 ) ) ;
#187 = MANIFOLD_SOLID_BREP ( 'Corps-Déplacer/Copier1[2]', #186 ) ;
#188 = CARTESIAN_POINT ( 'NONE',  ( 3.491481338843133355E-14, -1.224646799147353256E-15, 10.00000000000000000 ) ) ;
#189 = DIRECTION ( 'NONE',  ( -3.491481338843133355E-15, 1.224646799147353207E-16, -1.000000000000000000 ) ) ;
#190 = PERSON_AND_ORGANIZATION ( #279, #258 ) ;
#191 = VERTEX_POINT ( 'NONE', #212 ) ;
#192 = DATE_AND_TIME ( #266, #205 ) ;
#193 = APPLICATION_PROTOCOL_DEFINITION ( 'international standard', 'config_control_design', 1994, #109 ) ;
#194 = EDGE_CURVE ( 'NONE', #120, #120, #209, .T. ) ;
#195 = PERSON_AND_ORGANIZATION_ROLE ( 'design_owner' ) ;
#196 = FACE_BOUND ( 'NONE', #252, .T. ) ;
#197 = PLANE ( 'NONE',  #242 ) ;
#198 = CARTESIAN_POINT ( 'NONE',  ( 2.433562493173664138E-13, 1.499999999999992673, 69.70000000000001705 ) ) ;
#199 = DIRECTION ( 'NONE',  ( -4.275831445896958607E-31, -1.000000000000000000, -1.224646799147353454E-16 ) ) ;
#200 = ORIENTED_EDGE ( 'NONE', *, *, #41, .F. ) ;
#201 = CONICAL_SURFACE ( 'NONE', #42, 1.200000000000001510, 0.7853981633974566057 ) ;
#202 = DIRECTION ( 'NONE',  ( -3.491481338843133355E-15, 1.224646799147353207E-16, -1.000000000000000000 ) ) ;
#203 = CARTESIAN_POINT ( 'NONE',  ( 2.444036937190193601E-13, -8.572527594031472993E-15, 70.00000000000000000 ) ) ;
#204 = AXIS2_PLACEMENT_3D ( 'NONE', #35, #50, #272 ) ;
#205 = LOCAL_TIME ( 10, 35, 55.00000000000000000, #69 ) ;
#206 = EDGE_LOOP ( 'NONE', ( #249 ) ) ;
#207 = EDGE_CURVE ( 'NONE', #55, #55, #161, .T. ) ;
#208 = ADVANCED_FACE ( 'NONE', ( #101 ), #197, .F. ) ;
#209 = CIRCLE ( 'NONE', #204, 1.500000000000001110 ) ;
#210 = SECURITY_CLASSIFICATION_LEVEL ( 'unclassified' ) ;
#211 = DIRECTION ( 'NONE',  ( 4.275831445896958607E-31, 1.000000000000000000, 1.224646799147353207E-16 ) ) ;
#212 = CARTESIAN_POINT ( 'NONE',  ( 3.697093723310001125E-14, 1.499999999999991562, 10.58889727457341934 ) ) ;
#213 = APPROVAL_STATUS ( 'not_yet_approved' ) ;
#214 = AXIS2_PLACEMENT_3D ( 'NONE', #127, #290, #32 ) ;
#215 = DIRECTION ( 'NONE',  ( 3.491481338843133355E-15, -1.224646799147353207E-16, 1.000000000000000000 ) ) ;
#216 = CALENDAR_DATE ( 2021, 2, 12 ) ;
#217 = DIRECTION ( 'NONE',  ( -3.491481338843133355E-15, 1.224646799147353207E-16, -1.000000000000000000 ) ) ;
#218 = UNCERTAINTY_MEASURE_WITH_UNIT (LENGTH_MEASURE( 1.000000000000000082E-05 ), #29, 'distance_accuracy_value', 'NONE');
#219 = CARTESIAN_POINT ( 'NONE',  ( 2.444036937190193601E-13, -8.572527594031472993E-15, 70.00000000000000000 ) ) ;
#220 = FACE_OUTER_BOUND ( 'NONE', #254, .T. ) ;
#221 = DIRECTION ( 'NONE',  ( -3.491481338843133355E-15, 1.224646799147353207E-16, -1.000000000000000000 ) ) ;
#222 = AXIS2_PLACEMENT_3D ( 'NONE', #276, #62, #228 ) ;
#223 = APPROVAL ( #119, 'UNSPECIFIED' ) ;
#224 = CONICAL_SURFACE ( 'NONE', #37, 1.839999999999994973, 0.5235987755983009251 ) ;
#225 = AXIS2_PLACEMENT_3D ( 'NONE', #188, #164, #117 ) ;
#226 = SECURITY_CLASSIFICATION ( '', '', #210 ) ;
#227 = DIRECTION ( 'NONE',  ( 4.275831445896958607E-31, 1.000000000000000000, 1.224646799147353207E-16 ) ) ;
#228 = DIRECTION ( 'NONE',  ( 4.275831445896958607E-31, 1.000000000000000000, 1.224646799147353207E-16 ) ) ;
#229 = CC_DESIGN_PERSON_AND_ORGANIZATION_ASSIGNMENT ( #287, #49, ( #294 ) ) ;
#230 = ORIENTED_EDGE ( 'NONE', *, *, #142, .F. ) ;
#231 = APPLICATION_CONTEXT ( 'configuration controlled 3d designs of mechanical parts and assemblies' ) ;
#232 = CARTESIAN_POINT ( 'NONE',  ( 3.697093723310001125E-14, -1.296765915380646995E-15, 10.58889727457341934 ) ) ;
#233 = DIRECTION ( 'NONE',  ( -3.491481338843133355E-15, 1.224646799147353207E-16, -1.000000000000000000 ) ) ;
#234 = EDGE_CURVE ( 'NONE', #292, #292, #61, .T. ) ;
#235 = CARTESIAN_POINT ( 'NONE',  ( 3.491481338843133355E-14, -1.224646799147353256E-15, 10.00000000000000000 ) ) ;
#236 = CARTESIAN_POINT ( 'NONE',  ( 2.444036937190193601E-13, -8.572527594031472993E-15, 70.00000000000000000 ) ) ;
#237 = CALENDAR_DATE ( 2021, 2, 12 ) ;
#238 = CC_DESIGN_PERSON_AND_ORGANIZATION_ASSIGNMENT ( #67, #184, ( #294 ) ) ;
#239 = VERTEX_POINT ( 'NONE', #175 ) ;
#240 = DATE_AND_TIME ( #237, #264 ) ;
#241 = VERTEX_POINT ( 'NONE', #74 ) ;
#242 = AXIS2_PLACEMENT_3D ( 'NONE', #58, #215, #151 ) ;
#243 = DIRECTION ( 'NONE',  ( -3.491481338843133355E-15, 1.224646799147353207E-16, -1.000000000000000000 ) ) ;
#244 = APPROVAL_ROLE ( '' ) ;
#245 = EDGE_LOOP ( 'NONE', ( #132 ) ) ;
#246 = CARTESIAN_POINT ( 'NONE',  ( 8.728703347107833388E-16, 1.839999999999994973, 0.2500000000000000000 ) ) ;
#247 =( GEOMETRIC_REPRESENTATION_CONTEXT ( 3 ) GLOBAL_UNCERTAINTY_ASSIGNED_CONTEXT ( ( #218 ) ) GLOBAL_UNIT_ASSIGNED_CONTEXT ( ( #29, #76, #54 ) ) REPRESENTATION_CONTEXT ( 'NONE', 'WORKASPACE' ) );
#248 = DIRECTION ( 'NONE',  ( 0.0000000000000000000, 1.000000000000000000, 0.0000000000000000000 ) ) ;
#249 = ORIENTED_EDGE ( 'NONE', *, *, #183, .F. ) ;
#250 = CARTESIAN_POINT ( 'NONE',  ( 2.433562493173664138E-13, -8.535788190057053710E-15, 69.70000000000001705 ) ) ;
#251 = ADVANCED_FACE ( 'NONE', ( #196, #174 ), #224, .T. ) ;
#252 = EDGE_LOOP ( 'NONE', ( #158 ) ) ;
#253 = DIRECTION ( 'NONE',  ( -3.491481338843133355E-15, 1.224646799147353207E-16, -1.000000000000000000 ) ) ;
#254 = EDGE_LOOP ( 'NONE', ( #157 ) ) ;
#255 = ADVANCED_FACE ( 'NONE', ( #94, #260 ), #201, .T. ) ;
#256 = ORIENTED_EDGE ( 'NONE', *, *, #268, .T. ) ;
#257 = FACE_BOUND ( 'NONE', #12, .T. ) ;
#258 = ORGANIZATION ( 'UNSPECIFIED', 'UNSPECIFIED', '' ) ;
#259 = ADVANCED_FACE ( 'NONE', ( #289 ), #48, .T. ) ;
#260 = FACE_BOUND ( 'NONE', #21, .T. ) ;
#261 = VERTEX_POINT ( 'NONE', #7 ) ;
#262 = DATE_AND_TIME ( #169, #89 ) ;
#263 = PERSON_AND_ORGANIZATION ( #279, #258 ) ;
#264 = LOCAL_TIME ( 10, 35, 55.00000000000000000, #8 ) ;
#265 = EDGE_CURVE ( 'NONE', #241, #241, #73, .T. ) ;
#266 = CALENDAR_DATE ( 2021, 2, 12 ) ;
#267 = PRODUCT_DEFINITION_SHAPE ( 'NONE', 'NONE',  #155 ) ;
#268 = EDGE_CURVE ( 'NONE', #295, #295, #293, .T. ) ;
#269 = APPROVAL_PERSON_ORGANIZATION ( #72, #296, #244 ) ;
#270 = VERTEX_POINT ( 'NONE', #99 ) ;
#271 = EDGE_LOOP ( 'NONE', ( #57 ) ) ;
#272 = DIRECTION ( 'NONE',  ( 0.0000000000000000000, 1.000000000000000000, 0.0000000000000000000 ) ) ;
#273 = LOCAL_TIME ( 10, 35, 55.00000000000000000, #125 ) ;
#274 = FACE_OUTER_BOUND ( 'NONE', #22, .T. ) ;
#275 = FACE_OUTER_BOUND ( 'NONE', #278, .T. ) ;
#276 = CARTESIAN_POINT ( 'NONE',  ( 2.444036937190193601E-13, 8.998558695971026591E-33, 70.00000000000000000 ) ) ;
#277 = ADVANCED_FACE ( 'NONE', ( #25 ), #115, .F. ) ;
#278 = EDGE_LOOP ( 'NONE', ( #152 ) ) ;
#279 = PERSON ( 'UNSPECIFIED', 'UNSPECIFIED', 'UNSPECIFIED', ('UNSPECIFIED'), ('UNSPECIFIED'), ('UNSPECIFIED') ) ;
#280 = CARTESIAN_POINT ( 'NONE',  ( 3.491481338843133355E-14, -1.224646799147353256E-15, 10.00000000000000000 ) ) ;
#281 = SHAPE_DEFINITION_REPRESENTATION ( #267, #111 ) ;
#282 = CC_DESIGN_DATE_AND_TIME_ASSIGNMENT ( #26, #140, ( #155 ) ) ;
#283 = CC_DESIGN_APPROVAL ( #296, ( #155 ) ) ;
#284 = CARTESIAN_POINT ( 'NONE',  ( 8.728703347107825500E-16, -3.061616997868380553E-17, 0.2499999999999997780 ) ) ;
#285 = DATE_TIME_ROLE ( 'classification_date' ) ;
#286 = DIRECTION ( 'NONE',  ( -3.491481338843133355E-15, 1.224646799147353207E-16, -1.000000000000000000 ) ) ;
#287 = PERSON_AND_ORGANIZATION ( #279, #258 ) ;
#288 = CC_DESIGN_PERSON_AND_ORGANIZATION_ASSIGNMENT ( #92, #70, ( #155 ) ) ;
#289 = FACE_OUTER_BOUND ( 'NONE', #38, .T. ) ;
#290 = DIRECTION ( 'NONE',  ( 0.0000000000000000000, 0.0000000000000000000, 1.000000000000000000 ) ) ;
#291 = APPLICATION_PROTOCOL_DEFINITION ( 'international standard', 'config_control_design', 1994, #231 ) ;
#292 = VERTEX_POINT ( 'NONE', #148 ) ;
#293 = CIRCLE ( 'NONE', #156, 1.839999999999994973 ) ;
#294 = PRODUCT_DEFINITION_FORMATION_WITH_SPECIFIED_SOURCE ( 'ANY', '', #153, .NOT_KNOWN. ) ;
#295 = VERTEX_POINT ( 'NONE', #246 ) ;
#296 = APPROVAL ( #147, 'UNSPECIFIED' ) ;
#297 = EDGE_LOOP ( 'NONE', ( #230 ) ) ;
#298 = FACE_OUTER_BOUND ( 'NONE', #245, .T. ) ;
#299 = CARTESIAN_POINT ( 'NONE',  ( 0.0000000000000000000, 0.0000000000000000000, 0.0000000000000000000 ) ) ;
#300 = CARTESIAN_POINT ( 'NONE',  ( 0.0000000000000000000, 0.0000000000000000000, 0.0000000000000000000 ) ) ;
#301 = CARTESIAN_POINT ( 'NONE',  ( 3.697093723310001125E-14, -1.296765915380646995E-15, 10.58889727457341934 ) ) ;
#302 = AXIS2_PLACEMENT_3D ( 'NONE', #232, #166, #112 ) ;
#303 = EDGE_LOOP ( 'NONE', ( #130 ) ) ;
ENDSEC;
END-ISO-10303-21;
