ISO-10303-21;
HEADER;
FILE_DESCRIPTION (( 'STEP AP203' ),
    '1' );
FILE_NAME ('321593.step',
    '2021-12-02T09:35:55',
    ( '' ),
    ( '' ),
    'SwSTEP 2.0',
    'SolidWorks 2019',
    '' );
FILE_SCHEMA (( 'CONFIG_CONTROL_DESIGN' ));
ENDSEC;

DATA;
#1 = CALENDAR_DATE ( 2021, 2, 12 ) ;
#2 = EDGE_LOOP ( 'NONE', ( #151 ) ) ;
#3 = CALENDAR_DATE ( 2021, 2, 12 ) ;
#4 = ADVANCED_FACE ( 'NONE', ( #245 ), #36, .F. ) ;
#5 = APPLICATION_PROTOCOL_DEFINITION ( 'international standard', 'config_control_design', 1994, #205 ) ;
#6 = ORIENTED_EDGE ( 'NONE', *, *, #136, .T. ) ;
#7 = APPROVAL_ROLE ( '' ) ;
#8 = CIRCLE ( 'NONE', #44, 1.499999999999992895 ) ;
#9 = ORIENTED_EDGE ( 'NONE', *, *, #203, .F. ) ;
#10 = PERSON_AND_ORGANIZATION ( #246, #180 ) ;
#11 = DIRECTION ( 'NONE',  ( -3.491481338843133355E-15, 1.224646799147353207E-16, -1.000000000000000000 ) ) ;
#12 = EDGE_LOOP ( 'NONE', ( #185 ) ) ;
#13 = FACE_BOUND ( 'NONE', #290, .T. ) ;
#14 = AXIS2_PLACEMENT_3D ( 'NONE', #197, #60, #298 ) ;
#15 = DIRECTION ( 'NONE',  ( -4.275831445896957731E-31, -1.000000000000000000, -1.224646799147353207E-16 ) ) ;
#16 = ADVANCED_FACE ( 'NONE', ( #98, #75 ), #193, .T. ) ;
#17 = DIRECTION ( 'NONE',  ( 0.0000000000000000000, 1.000000000000000000, 0.0000000000000000000 ) ) ;
#18 = DIRECTION ( 'NONE',  ( -3.491481338843133355E-15, 1.224646799147353207E-16, -1.000000000000000000 ) ) ;
#19 = CYLINDRICAL_SURFACE ( 'NONE', #170, 1.834999999999995079 ) ;
#20 = DIRECTION ( 'NONE',  ( -3.491481338843133355E-15, 1.224646799147353207E-16, -1.000000000000000000 ) ) ;
#21 = DIRECTION ( 'NONE',  ( -3.491481338843133355E-15, 1.224646799147353207E-16, -1.000000000000000000 ) ) ;
#22 = DIRECTION ( 'NONE',  ( -3.491481338843133355E-15, 1.224646799147353207E-16, -1.000000000000000000 ) ) ;
#23 = LOCAL_TIME ( 10, 35, 55.00000000000000000, #260 ) ;
#24 = ADVANCED_FACE ( 'NONE', ( #267, #172 ), #169, .T. ) ;
#25 = ORIENTED_EDGE ( 'NONE', *, *, #47, .F. ) ;
#26 = AXIS2_PLACEMENT_3D ( 'NONE', #85, #174, #225 ) ;
#27 = CC_DESIGN_PERSON_AND_ORGANIZATION_ASSIGNMENT ( #236, #212, ( #122 ) ) ;
#28 = VERTEX_POINT ( 'NONE', #235 ) ;
#29 = DATE_AND_TIME ( #1, #209 ) ;
#30 = DIRECTION ( 'NONE',  ( -3.491481338843133355E-15, 1.224646799147353207E-16, -1.000000000000000000 ) ) ;
#31 = AXIS2_PLACEMENT_3D ( 'NONE', #173, #22, #274 ) ;
#32 = FACE_OUTER_BOUND ( 'NONE', #12, .T. ) ;
#33 = ADVANCED_FACE ( 'NONE', ( #244, #13 ), #270, .T. ) ;
#34 = ADVANCED_BREP_SHAPE_REPRESENTATION ( '321593', ( #163, #161, #61 ), #280 ) ;
#35 = EDGE_LOOP ( 'NONE', ( #153 ) ) ;
#36 = PLANE ( 'NONE',  #54 ) ;
#37 = ORIENTED_EDGE ( 'NONE', *, *, #95, .T. ) ;
#38 = DIRECTION ( 'NONE',  ( 3.491481338843133355E-15, -1.224646799147353207E-16, 1.000000000000000000 ) ) ;
#39 = DIRECTION ( 'NONE',  ( 0.0000000000000000000, 1.000000000000000000, 0.0000000000000000000 ) ) ;
#40 = FACE_OUTER_BOUND ( 'NONE', #191, .T. ) ;
#41 = APPROVAL_PERSON_ORGANIZATION ( #286, #158, #165 ) ;
#42 = CARTESIAN_POINT ( 'NONE',  ( 3.694070011773723621E-14, 1.499999999999991562, 10.58023702053557535 ) ) ;
#43 = FACE_OUTER_BOUND ( 'NONE', #79, .T. ) ;
#44 = AXIS2_PLACEMENT_3D ( 'NONE', #247, #30, #148 ) ;
#45 = ADVANCED_FACE ( 'NONE', ( #242 ), #103, .T. ) ;
#46 = PERSON_AND_ORGANIZATION_ROLE ( 'creator' ) ;
#47 = EDGE_CURVE ( 'NONE', #253, #253, #8, .T. ) ;
#48 = CALENDAR_DATE ( 2021, 2, 12 ) ;
#49 = AXIS2_PLACEMENT_3D ( 'NONE', #133, #132, #83 ) ;
#50 = PERSON_AND_ORGANIZATION ( #246, #180 ) ;
#51 = DATE_AND_TIME ( #74, #243 ) ;
#52 = APPROVAL_STATUS ( 'not_yet_approved' ) ;
#53 = DIRECTION ( 'NONE',  ( -3.491481338843133355E-15, 1.224646799147353207E-16, -1.000000000000000000 ) ) ;
#54 = AXIS2_PLACEMENT_3D ( 'NONE', #76, #293, #124 ) ;
#55 = CARTESIAN_POINT ( 'NONE',  ( -3.388596420873327640E-31, 1.188559627759517967E-32, -9.705325883242738502E-17 ) ) ;
#56 = CC_DESIGN_SECURITY_CLASSIFICATION ( #187, ( #278 ) ) ;
#57 = ORIENTED_EDGE ( 'NONE', *, *, #196, .T. ) ;
#58 = EDGE_LOOP ( 'NONE', ( #37 ) ) ;
#59 = EDGE_LOOP ( 'NONE', ( #289 ) ) ;
#60 = DIRECTION ( 'NONE',  ( -3.491481338843133355E-15, 1.224646799147353207E-16, -1.000000000000000000 ) ) ;
#61 = AXIS2_PLACEMENT_3D ( 'NONE', #89, #234, #281 ) ;
#62 = DIRECTION ( 'NONE',  ( -3.491481338843133355E-15, 1.224646799147353207E-16, -1.000000000000000000 ) ) ;
#63 = FACE_OUTER_BOUND ( 'NONE', #2, .T. ) ;
#64 = CARTESIAN_POINT ( 'NONE',  ( 3.491481338843133355E-14, -1.224646799147353256E-15, 10.00000000000000000 ) ) ;
#65 = LOCAL_TIME ( 10, 35, 55.00000000000000000, #256 ) ;
#66 = CARTESIAN_POINT ( 'NONE',  ( 2.444036937190193601E-13, 1.199999999999992628, 70.00000000000000000 ) ) ;
#67 = ADVANCED_FACE ( 'NONE', ( #32, #221 ), #179, .T. ) ;
#68 = CLOSED_SHELL ( 'NONE', ( #284, #206, #33, #45, #4, #67, #16 ) ) ;
#69 =( NAMED_UNIT ( * ) PLANE_ANGLE_UNIT ( ) SI_UNIT ( $, .RADIAN. ) );
#70 = PERSON_AND_ORGANIZATION ( #246, #180 ) ;
#71 = COORDINATED_UNIVERSAL_TIME_OFFSET ( 1, 0, .AHEAD. ) ;
#72 = AXIS2_PLACEMENT_3D ( 'NONE', #160, #227, #198 ) ;
#73 = EDGE_LOOP ( 'NONE', ( #152 ) ) ;
#74 = CALENDAR_DATE ( 2021, 2, 12 ) ;
#75 = FACE_OUTER_BOUND ( 'NONE', #167, .T. ) ;
#76 = CARTESIAN_POINT ( 'NONE',  ( 2.444036937190193601E-13, -8.572527594031472993E-15, 70.00000000000000000 ) ) ;
#77 = DIRECTION ( 'NONE',  ( 4.275831445896958607E-31, 1.000000000000000000, 1.224646799147353454E-16 ) ) ;
#78 = DIRECTION ( 'NONE',  ( 4.275831445896958607E-31, 1.000000000000000000, 1.224646799147353207E-16 ) ) ;
#79 = EDGE_LOOP ( 'NONE', ( #232 ) ) ;
#80 = CIRCLE ( 'NONE', #14, 1.584999999999994191 ) ;
#81 = CC_DESIGN_DATE_AND_TIME_ASSIGNMENT ( #29, #88, ( #187 ) ) ;
#82 = CARTESIAN_POINT ( 'NONE',  ( 3.491481338843133355E-14, 1.376029600592248799E-32, 10.00000000000000000 ) ) ;
#83 = DIRECTION ( 'NONE',  ( 0.0000000000000000000, 1.000000000000000000, 0.0000000000000000000 ) ) ;
#84 = CIRCLE ( 'NONE', #285, 1.834999999999995079 ) ;
#85 = CARTESIAN_POINT ( 'NONE',  ( 3.491481338843133355E-14, -1.224646799147353256E-15, 10.00000000000000000 ) ) ;
#86 = ADVANCED_FACE ( 'NONE', ( #104 ), #216, .F. ) ;
#87 = AXIS2_PLACEMENT_3D ( 'NONE', #269, #125, #17 ) ;
#88 = DATE_TIME_ROLE ( 'classification_date' ) ;
#89 = CARTESIAN_POINT ( 'NONE',  ( 0.0000000000000000000, 0.0000000000000000000, 0.0000000000000000000 ) ) ;
#90 = EDGE_LOOP ( 'NONE', ( #182 ) ) ;
#91 = APPROVAL_DATE_TIME ( #257, #272 ) ;
#92 = AXIS2_PLACEMENT_3D ( 'NONE', #55, #294, #78 ) ;
#93 = APPLICATION_PROTOCOL_DEFINITION ( 'international standard', 'config_control_design', 1994, #299 ) ;
#94 = ORIENTED_EDGE ( 'NONE', *, *, #296, .F. ) ;
#95 = EDGE_CURVE ( 'NONE', #254, #254, #265, .T. ) ;
#96 = APPROVAL_DATE_TIME ( #288, #158 ) ;
#97 = LOCAL_TIME ( 10, 35, 55.00000000000000000, #204 ) ;
#98 = FACE_OUTER_BOUND ( 'NONE', #282, .T. ) ;
#99 = DIRECTION ( 'NONE',  ( -3.491481338843133355E-15, 1.224646799147353207E-16, -1.000000000000000000 ) ) ;
#100 = ORIENTED_EDGE ( 'NONE', *, *, #296, .T. ) ;
#101 = AXIS2_PLACEMENT_3D ( 'NONE', #157, #18, #195 ) ;
#102 = APPROVAL_PERSON_ORGANIZATION ( #237, #272, #188 ) ;
#103 = PLANE ( 'NONE',  #92 ) ;
#104 = FACE_OUTER_BOUND ( 'NONE', #90, .T. ) ;
#105 = FACE_BOUND ( 'NONE', #295, .T. ) ;
#106 = PRODUCT_RELATED_PRODUCT_CATEGORY ( 'detail', '', ( #122 ) ) ;
#107 = FACE_OUTER_BOUND ( 'NONE', #73, .T. ) ;
#108 =( LENGTH_UNIT ( ) NAMED_UNIT ( * ) SI_UNIT ( .MILLI., .METRE. ) );
#109 = DIRECTION ( 'NONE',  ( 0.0000000000000000000, 1.000000000000000000, 0.0000000000000000000 ) ) ;
#110 = VERTEX_POINT ( 'NONE', #302 ) ;
#111 = APPROVAL_PERSON_ORGANIZATION ( #50, #145, #7 ) ;
#112 = PERSON_AND_ORGANIZATION ( #246, #180 ) ;
#113 = VERTEX_POINT ( 'NONE', #255 ) ;
#114 = APPROVAL_STATUS ( 'not_yet_approved' ) ;
#115 = CIRCLE ( 'NONE', #101, 1.200000000000001510 ) ;
#116 = CIRCLE ( 'NONE', #31, 1.200000000000001510 ) ;
#117 = VERTEX_POINT ( 'NONE', #119 ) ;
#118 = APPROVAL_DATE_TIME ( #147, #145 ) ;
#119 = CARTESIAN_POINT ( 'NONE',  ( 2.433562493173664138E-13, 1.499999999999992673, 69.70000000000001705 ) ) ;
#120 = MECHANICAL_CONTEXT ( 'NONE', #205, 'mechanical' ) ;
#121 = EDGE_LOOP ( 'NONE', ( #141 ) ) ;
#122 = PRODUCT ( '321593', '321593', '', ( #120 ) ) ;
#123 = SECURITY_CLASSIFICATION_LEVEL ( 'unclassified' ) ;
#124 = DIRECTION ( 'NONE',  ( 4.275831445896958607E-31, 1.000000000000000000, 1.224646799147353207E-16 ) ) ;
#125 = DIRECTION ( 'NONE',  ( -3.491481338843133355E-15, 1.224646799147353207E-16, -1.000000000000000000 ) ) ;
#126 = EDGE_CURVE ( 'NONE', #110, #110, #84, .T. ) ;
#127 = DIRECTION ( 'NONE',  ( 4.275831445896958607E-31, 1.000000000000000000, 1.224646799147353454E-16 ) ) ;
#128 = DIRECTION ( 'NONE',  ( -3.491481338843133355E-15, 1.224646799147353207E-16, -1.000000000000000000 ) ) ;
#129 = CC_DESIGN_APPROVAL ( #145, ( #278 ) ) ;
#130 = DIRECTION ( 'NONE',  ( 3.491481338843133355E-15, -1.224646799147353207E-16, 1.000000000000000000 ) ) ;
#131 = CC_DESIGN_PERSON_AND_ORGANIZATION_ASSIGNMENT ( #10, #143, ( #278 ) ) ;
#132 = DIRECTION ( 'NONE',  ( -3.491481338843133355E-15, 1.224646799147353207E-16, -1.000000000000000000 ) ) ;
#133 = CARTESIAN_POINT ( 'NONE',  ( 2.433562493173664138E-13, -8.535788190057053710E-15, 69.70000000000001705 ) ) ;
#134 = AXIS2_PLACEMENT_3D ( 'NONE', #273, #62, #155 ) ;
#135 = DIRECTION ( 'NONE',  ( -3.491481338843133355E-15, 1.224646799147353207E-16, -1.000000000000000000 ) ) ;
#136 = EDGE_CURVE ( 'NONE', #177, #177, #115, .T. ) ;
#137 = CARTESIAN_POINT ( 'NONE',  ( 8.728703347107833388E-16, 1.834999999999995079, 0.2500000000000000000 ) ) ;
#138 = VERTEX_POINT ( 'NONE', #229 ) ;
#139 = AXIS2_PLACEMENT_3D ( 'NONE', #220, #130, #15 ) ;
#140 = CARTESIAN_POINT ( 'NONE',  ( 3.491481338843133355E-14, 1.834999999999993747, 10.00000000000000000 ) ) ;
#141 = ORIENTED_EDGE ( 'NONE', *, *, #250, .T. ) ;
#142 = VERTEX_POINT ( 'NONE', #233 ) ;
#143 = PERSON_AND_ORGANIZATION_ROLE ( 'design_supplier' ) ;
#144 = AXIS2_PLACEMENT_3D ( 'NONE', #82, #38, #156 ) ;
#145 = APPROVAL ( #211, 'UNSPECIFIED' ) ;
#146 = CONICAL_SURFACE ( 'NONE', #287, 1.834999999999995079, 0.5235987755983002589 ) ;
#147 = DATE_AND_TIME ( #3, #23 ) ;
#148 = DIRECTION ( 'NONE',  ( 0.0000000000000000000, 1.000000000000000000, 0.0000000000000000000 ) ) ;
#149 = AXIS2_PLACEMENT_3D ( 'NONE', #194, #99, #214 ) ;
#150 = CARTESIAN_POINT ( 'NONE',  ( 0.0000000000000000000, 0.0000000000000000000, 0.0000000000000000000 ) ) ;
#151 = ORIENTED_EDGE ( 'NONE', *, *, #126, .T. ) ;
#152 = ORIENTED_EDGE ( 'NONE', *, *, #250, .F. ) ;
#153 = ORIENTED_EDGE ( 'NONE', *, *, #47, .T. ) ;
#154 = CC_DESIGN_APPROVAL ( #158, ( #228 ) ) ;
#155 = DIRECTION ( 'NONE',  ( 0.0000000000000000000, 1.000000000000000000, 0.0000000000000000000 ) ) ;
#156 = DIRECTION ( 'NONE',  ( -4.275831445896958607E-31, -1.000000000000000000, -1.224646799147353207E-16 ) ) ;
#157 = CARTESIAN_POINT ( 'NONE',  ( 2.444036937190193601E-13, -8.572527594031472993E-15, 70.00000000000000000 ) ) ;
#158 = APPROVAL ( #52, 'UNSPECIFIED' ) ;
#159 = CIRCLE ( 'NONE', #49, 1.500000000000001110 ) ;
#160 = CARTESIAN_POINT ( 'NONE',  ( 3.694070011773723621E-14, -1.295705340141922148E-15, 10.58023702053557535 ) ) ;
#161 = MANIFOLD_SOLID_BREP ( 'Corps-Déplacer/Copier1[2]', #68 ) ;
#162 = DIRECTION ( 'NONE',  ( -3.491481338843133355E-15, 1.224646799147353207E-16, -1.000000000000000000 ) ) ;
#163 = MANIFOLD_SOLID_BREP ( 'Corps-Déplacer/Copier1[1]', #230 ) ;
#164 = CC_DESIGN_PERSON_AND_ORGANIZATION_ASSIGNMENT ( #112, #168, ( #187 ) ) ;
#165 = APPROVAL_ROLE ( '' ) ;
#166 = VERTEX_POINT ( 'NONE', #140 ) ;
#167 = EDGE_LOOP ( 'NONE', ( #239 ) ) ;
#168 = PERSON_AND_ORGANIZATION_ROLE ( 'classification_officer' ) ;
#169 = CYLINDRICAL_SURFACE ( 'NONE', #224, 1.499999999999996891 ) ;
#170 = AXIS2_PLACEMENT_3D ( 'NONE', #300, #21, #303 ) ;
#171 = CARTESIAN_POINT ( 'NONE',  ( 8.728703347107825500E-16, -3.061616997868380553E-17, 0.2499999999999997780 ) ) ;
#172 = FACE_OUTER_BOUND ( 'NONE', #121, .T. ) ;
#173 = CARTESIAN_POINT ( 'NONE',  ( 2.444036937190193601E-13, -8.572527594031472993E-15, 70.00000000000000000 ) ) ;
#174 = DIRECTION ( 'NONE',  ( -3.491481338843133355E-15, 1.224646799147353207E-16, -1.000000000000000000 ) ) ;
#175 = DIRECTION ( 'NONE',  ( 0.0000000000000000000, 1.000000000000000000, 0.0000000000000000000 ) ) ;
#176 = AXIS2_PLACEMENT_3D ( 'NONE', #301, #199, #39 ) ;
#177 = VERTEX_POINT ( 'NONE', #66 ) ;
#178 = CC_DESIGN_PERSON_AND_ORGANIZATION_ASSIGNMENT ( #70, #240, ( #278 ) ) ;
#179 = CONICAL_SURFACE ( 'NONE', #87, 1.200000000000001510, 0.7853981633974566057 ) ;
#180 = ORGANIZATION ( 'UNSPECIFIED', 'UNSPECIFIED', '' ) ;
#181 = CALENDAR_DATE ( 2021, 2, 12 ) ;
#182 = ORIENTED_EDGE ( 'NONE', *, *, #136, .F. ) ;
#183 = COORDINATED_UNIVERSAL_TIME_OFFSET ( 1, 0, .AHEAD. ) ;
#184 =( NAMED_UNIT ( * ) SI_UNIT ( $, .STERADIAN. ) SOLID_ANGLE_UNIT ( ) );
#185 = ORIENTED_EDGE ( 'NONE', *, *, #215, .F. ) ;
#186 = ORIENTED_EDGE ( 'NONE', *, *, #126, .F. ) ;
#187 = SECURITY_CLASSIFICATION ( '', '', #123 ) ;
#188 = APPROVAL_ROLE ( '' ) ;
#189 = EDGE_LOOP ( 'NONE', ( #262 ) ) ;
#190 = ADVANCED_FACE ( 'NONE', ( #107, #105 ), #297, .T. ) ;
#191 = EDGE_LOOP ( 'NONE', ( #186 ) ) ;
#192 = CARTESIAN_POINT ( 'NONE',  ( 0.0000000000000000000, 0.0000000000000000000, 0.0000000000000000000 ) ) ;
#193 = CYLINDRICAL_SURFACE ( 'NONE', #200, 1.499999999999996891 ) ;
#194 = CARTESIAN_POINT ( 'NONE',  ( 2.444036937190193601E-13, 8.998558695971026591E-33, 70.00000000000000000 ) ) ;
#195 = DIRECTION ( 'NONE',  ( 0.0000000000000000000, 1.000000000000000000, 0.0000000000000000000 ) ) ;
#196 = EDGE_CURVE ( 'NONE', #138, #138, #116, .T. ) ;
#197 = CARTESIAN_POINT ( 'NONE',  ( -6.777192841746655280E-31, 2.377119255519035933E-32, -1.941065176648547700E-16 ) ) ;
#198 = DIRECTION ( 'NONE',  ( 0.0000000000000000000, 1.000000000000000000, 0.0000000000000000000 ) ) ;
#199 = DIRECTION ( 'NONE',  ( -3.491481338843133355E-15, 1.224646799147353207E-16, -1.000000000000000000 ) ) ;
#200 = AXIS2_PLACEMENT_3D ( 'NONE', #192, #128, #77 ) ;
#201 = UNCERTAINTY_MEASURE_WITH_UNIT (LENGTH_MEASURE( 1.000000000000000082E-05 ), #108, 'distance_accuracy_value', 'NONE');
#202 = FACE_OUTER_BOUND ( 'NONE', #217, .T. ) ;
#203 = EDGE_CURVE ( 'NONE', #28, #28, #80, .T. ) ;
#204 = COORDINATED_UNIVERSAL_TIME_OFFSET ( 1, 0, .AHEAD. ) ;
#205 = APPLICATION_CONTEXT ( 'configuration controlled 3d designs of mechanical parts and assemblies' ) ;
#206 = ADVANCED_FACE ( 'NONE', ( #43, #202 ), #19, .T. ) ;
#207 = PERSON_AND_ORGANIZATION ( #246, #180 ) ;
#208 = ORIENTED_EDGE ( 'NONE', *, *, #203, .T. ) ;
#209 = LOCAL_TIME ( 10, 35, 55.00000000000000000, #183 ) ;
#210 = EDGE_LOOP ( 'NONE', ( #100 ) ) ;
#211 = APPROVAL_STATUS ( 'not_yet_approved' ) ;
#212 = PERSON_AND_ORGANIZATION_ROLE ( 'design_owner' ) ;
#213 = ORIENTED_EDGE ( 'NONE', *, *, #95, .F. ) ;
#214 = DIRECTION ( 'NONE',  ( 4.275831445896958607E-31, 1.000000000000000000, 1.224646799147353207E-16 ) ) ;
#215 = EDGE_CURVE ( 'NONE', #117, #117, #292, .T. ) ;
#216 = PLANE ( 'NONE',  #149 ) ;
#217 = EDGE_LOOP ( 'NONE', ( #213 ) ) ;
#218 = ADVANCED_FACE ( 'NONE', ( #63 ), #249, .F. ) ;
#219 = AXIS2_PLACEMENT_3D ( 'NONE', #171, #11, #276 ) ;
#220 = CARTESIAN_POINT ( 'NONE',  ( -6.777192841746655280E-31, 2.377119255519035933E-32, -1.941065176648547700E-16 ) ) ;
#221 = FACE_BOUND ( 'NONE', #268, .T. ) ;
#222 = FACE_BOUND ( 'NONE', #210, .T. ) ;
#223 = PRODUCT_DEFINITION_SHAPE ( 'NONE', 'NONE',  #228 ) ;
#224 = AXIS2_PLACEMENT_3D ( 'NONE', #150, #53, #127 ) ;
#225 = DIRECTION ( 'NONE',  ( 0.0000000000000000000, 1.000000000000000000, 0.0000000000000000000 ) ) ;
#226 = FACE_OUTER_BOUND ( 'NONE', #59, .T. ) ;
#227 = DIRECTION ( 'NONE',  ( -3.491481338843133355E-15, 1.224646799147353207E-16, -1.000000000000000000 ) ) ;
#228 = PRODUCT_DEFINITION ( 'UNKNOWN', '', #278, #291 ) ;
#229 = CARTESIAN_POINT ( 'NONE',  ( 2.444036937190193601E-13, 1.199999999999992628, 70.00000000000000000 ) ) ;
#230 = CLOSED_SHELL ( 'NONE', ( #218, #266, #24, #190, #86 ) ) ;
#231 = CC_DESIGN_APPROVAL ( #272, ( #187 ) ) ;
#232 = ORIENTED_EDGE ( 'NONE', *, *, #261, .T. ) ;
#233 = CARTESIAN_POINT ( 'NONE',  ( 3.694070011773723621E-14, 1.499999999999991562, 10.58023702053557535 ) ) ;
#234 = DIRECTION ( 'NONE',  ( 0.0000000000000000000, 0.0000000000000000000, 1.000000000000000000 ) ) ;
#235 = CARTESIAN_POINT ( 'NONE',  ( -8.552847072295026068E-47, 1.584999999999994191, 0.0000000000000000000 ) ) ;
#236 = PERSON_AND_ORGANIZATION ( #246, #180 ) ;
#237 = PERSON_AND_ORGANIZATION ( #246, #180 ) ;
#238 = CC_DESIGN_DATE_AND_TIME_ASSIGNMENT ( #51, #263, ( #228 ) ) ;
#239 = ORIENTED_EDGE ( 'NONE', *, *, #215, .T. ) ;
#240 = PERSON_AND_ORGANIZATION_ROLE ( 'creator' ) ;
#241 = CIRCLE ( 'NONE', #26, 1.834999999999995079 ) ;
#242 = FACE_OUTER_BOUND ( 'NONE', #258, .T. ) ;
#243 = LOCAL_TIME ( 10, 35, 55.00000000000000000, #71 ) ;
#244 = FACE_OUTER_BOUND ( 'NONE', #58, .T. ) ;
#245 = FACE_OUTER_BOUND ( 'NONE', #189, .T. ) ;
#246 = PERSON ( 'UNSPECIFIED', 'UNSPECIFIED', 'UNSPECIFIED', ('UNSPECIFIED'), ('UNSPECIFIED'), ('UNSPECIFIED') ) ;
#247 = CARTESIAN_POINT ( 'NONE',  ( 3.694070011773723621E-14, -1.295705340141922148E-15, 10.58023702053557535 ) ) ;
#248 = CIRCLE ( 'NONE', #72, 1.499999999999992895 ) ;
#249 = PLANE ( 'NONE',  #144 ) ;
#250 = EDGE_CURVE ( 'NONE', #113, #113, #159, .T. ) ;
#251 = CARTESIAN_POINT ( 'NONE',  ( 3.491481338843133355E-14, -1.224646799147353256E-15, 10.00000000000000000 ) ) ;
#252 = FACE_BOUND ( 'NONE', #35, .T. ) ;
#253 = VERTEX_POINT ( 'NONE', #42 ) ;
#254 = VERTEX_POINT ( 'NONE', #137 ) ;
#255 = CARTESIAN_POINT ( 'NONE',  ( 2.433562493173664138E-13, 1.499999999999992673, 69.70000000000001705 ) ) ;
#256 = COORDINATED_UNIVERSAL_TIME_OFFSET ( 1, 0, .AHEAD. ) ;
#257 = DATE_AND_TIME ( #48, #97 ) ;
#258 = EDGE_LOOP ( 'NONE', ( #208 ) ) ;
#259 = AXIS2_PLACEMENT_3D ( 'NONE', #64, #135, #109 ) ;
#260 = COORDINATED_UNIVERSAL_TIME_OFFSET ( 1, 0, .AHEAD. ) ;
#261 = EDGE_CURVE ( 'NONE', #166, #166, #241, .T. ) ;
#262 = ORIENTED_EDGE ( 'NONE', *, *, #196, .F. ) ;
#263 = DATE_TIME_ROLE ( 'creation_date' ) ;
#264 = EDGE_LOOP ( 'NONE', ( #25 ) ) ;
#265 = CIRCLE ( 'NONE', #219, 1.834999999999995079 ) ;
#266 = ADVANCED_FACE ( 'NONE', ( #252, #40 ), #275, .T. ) ;
#267 = FACE_OUTER_BOUND ( 'NONE', #264, .T. ) ;
#268 = EDGE_LOOP ( 'NONE', ( #57 ) ) ;
#269 = CARTESIAN_POINT ( 'NONE',  ( 2.444036937190193601E-13, -8.572527594031472993E-15, 70.00000000000000000 ) ) ;
#270 = CONICAL_SURFACE ( 'NONE', #139, 1.584999999999994191, 0.7853981633974500554 ) ;
#271 = DIRECTION ( 'NONE',  ( 0.0000000000000000000, 1.000000000000000000, 0.0000000000000000000 ) ) ;
#272 = APPROVAL ( #114, 'UNSPECIFIED' ) ;
#273 = CARTESIAN_POINT ( 'NONE',  ( 2.433562493173664138E-13, -8.535788190057053710E-15, 69.70000000000001705 ) ) ;
#274 = DIRECTION ( 'NONE',  ( 0.0000000000000000000, 1.000000000000000000, 0.0000000000000000000 ) ) ;
#275 = CONICAL_SURFACE ( 'NONE', #259, 1.834999999999995079, 0.5235987755983002589 ) ;
#276 = DIRECTION ( 'NONE',  ( 4.198212412833223355E-31, 1.000000000000000000, 1.181691741128618476E-16 ) ) ;
#277 = CC_DESIGN_PERSON_AND_ORGANIZATION_ASSIGNMENT ( #207, #46, ( #228 ) ) ;
#278 = PRODUCT_DEFINITION_FORMATION_WITH_SPECIFIED_SOURCE ( 'ANY', '', #122, .NOT_KNOWN. ) ;
#279 = CARTESIAN_POINT ( 'NONE',  ( 3.491481338843133355E-14, -1.224646799147353256E-15, 10.00000000000000000 ) ) ;
#280 =( GEOMETRIC_REPRESENTATION_CONTEXT ( 3 ) GLOBAL_UNCERTAINTY_ASSIGNED_CONTEXT ( ( #201 ) ) GLOBAL_UNIT_ASSIGNED_CONTEXT ( ( #108, #69, #184 ) ) REPRESENTATION_CONTEXT ( 'NONE', 'WORKASPACE' ) );
#281 = DIRECTION ( 'NONE',  ( 1.000000000000000000, 0.0000000000000000000, 0.0000000000000000000 ) ) ;
#282 = EDGE_LOOP ( 'NONE', ( #94 ) ) ;
#283 = SHAPE_DEFINITION_REPRESENTATION ( #223, #34 ) ;
#284 = ADVANCED_FACE ( 'NONE', ( #222, #226 ), #146, .T. ) ;
#285 = AXIS2_PLACEMENT_3D ( 'NONE', #251, #162, #271 ) ;
#286 = PERSON_AND_ORGANIZATION ( #246, #180 ) ;
#287 = AXIS2_PLACEMENT_3D ( 'NONE', #279, #20, #175 ) ;
#288 = DATE_AND_TIME ( #181, #65 ) ;
#289 = ORIENTED_EDGE ( 'NONE', *, *, #261, .F. ) ;
#290 = EDGE_LOOP ( 'NONE', ( #9 ) ) ;
#291 = DESIGN_CONTEXT ( 'detailed design', #299, 'design' ) ;
#292 = CIRCLE ( 'NONE', #134, 1.500000000000001110 ) ;
#293 = DIRECTION ( 'NONE',  ( -3.491481338843133355E-15, 1.224646799147353207E-16, -1.000000000000000000 ) ) ;
#294 = DIRECTION ( 'NONE',  ( -3.491481338843133355E-15, 1.224646799147353207E-16, -1.000000000000000000 ) ) ;
#295 = EDGE_LOOP ( 'NONE', ( #6 ) ) ;
#296 = EDGE_CURVE ( 'NONE', #142, #142, #248, .T. ) ;
#297 = CONICAL_SURFACE ( 'NONE', #176, 1.200000000000001510, 0.7853981633974566057 ) ;
#298 = DIRECTION ( 'NONE',  ( 4.275831445896958607E-31, 1.000000000000000000, 1.224646799147353207E-16 ) ) ;
#299 = APPLICATION_CONTEXT ( 'configuration controlled 3d designs of mechanical parts and assemblies' ) ;
#300 = CARTESIAN_POINT ( 'NONE',  ( 0.0000000000000000000, 0.0000000000000000000, 0.0000000000000000000 ) ) ;
#301 = CARTESIAN_POINT ( 'NONE',  ( 2.444036937190193601E-13, -8.572527594031472993E-15, 70.00000000000000000 ) ) ;
#302 = CARTESIAN_POINT ( 'NONE',  ( 3.491481338843133355E-14, 1.834999999999993747, 10.00000000000000000 ) ) ;
#303 = DIRECTION ( 'NONE',  ( 4.275831445896958607E-31, 1.000000000000000000, 1.224646799147353207E-16 ) ) ;
ENDSEC;
END-ISO-10303-21;
