ISO-10303-21;
HEADER;
FILE_DESCRIPTION (( 'STEP AP203' ),
    '1' );
FILE_NAME ('321592.step',
    '2021-12-02T09:35:54',
    ( '' ),
    ( '' ),
    'SwSTEP 2.0',
    'SolidWorks 2019',
    '' );
FILE_SCHEMA (( 'CONFIG_CONTROL_DESIGN' ));
ENDSEC;

DATA;
#1 = DIRECTION ( 'NONE',  ( -3.491481338843133355E-15, 1.224646799147353207E-16, -1.000000000000000000 ) ) ;
#2 = CC_DESIGN_APPROVAL ( #185, ( #244 ) ) ;
#3 = ADVANCED_FACE ( 'NONE', ( #112 ), #64, .F. ) ;
#4 = CARTESIAN_POINT ( 'NONE',  ( 2.444036937190193601E-13, -8.572527594031472993E-15, 70.00000000000000000 ) ) ;
#5 = APPLICATION_CONTEXT ( 'configuration controlled 3d designs of mechanical parts and assemblies' ) ;
#6 = DIRECTION ( 'NONE',  ( -3.491481338843133355E-15, 1.224646799147353207E-16, -1.000000000000000000 ) ) ;
#7 = CARTESIAN_POINT ( 'NONE',  ( 2.444036937190193601E-13, -8.572527594031472993E-15, 70.00000000000000000 ) ) ;
#8 = LOCAL_TIME ( 10, 35, 54.00000000000000000, #174 ) ;
#9 = CARTESIAN_POINT ( 'NONE',  ( 2.444036937190193601E-13, 8.998558695971026591E-33, 70.00000000000000000 ) ) ;
#10 = CARTESIAN_POINT ( 'NONE',  ( 2.444036937190193601E-13, -8.572527594031472993E-15, 70.00000000000000000 ) ) ;
#11 = PERSON_AND_ORGANIZATION_ROLE ( 'design_owner' ) ;
#12 = AXIS2_PLACEMENT_3D ( 'NONE', #67, #22, #195 ) ;
#13 = VERTEX_POINT ( 'NONE', #245 ) ;
#14 = APPLICATION_CONTEXT ( 'configuration controlled 3d designs of mechanical parts and assemblies' ) ;
#15 = CARTESIAN_POINT ( 'NONE',  ( 3.691046300237445485E-14, 1.499999999999991562, 10.57157676649773137 ) ) ;
#16 =( LENGTH_UNIT ( ) NAMED_UNIT ( * ) SI_UNIT ( .MILLI., .METRE. ) );
#17 = EDGE_LOOP ( 'NONE', ( #46 ) ) ;
#18 = DATE_AND_TIME ( #37, #148 ) ;
#19 = DIRECTION ( 'NONE',  ( 4.275831445896958607E-31, 1.000000000000000000, 1.224646799147353207E-16 ) ) ;
#20 = CIRCLE ( 'NONE', #261, 1.829999999999994964 ) ;
#21 = ORIENTED_EDGE ( 'NONE', *, *, #234, .T. ) ;
#22 = DIRECTION ( 'NONE',  ( 3.491481338843133355E-15, -1.224646799147353207E-16, 1.000000000000000000 ) ) ;
#23 = CALENDAR_DATE ( 2021, 2, 12 ) ;
#24 = EDGE_LOOP ( 'NONE', ( #151 ) ) ;
#25 = CONICAL_SURFACE ( 'NONE', #117, 1.829999999999994964, 0.5235987755983009251 ) ;
#26 = APPROVAL_PERSON_ORGANIZATION ( #103, #123, #44 ) ;
#27 = COORDINATED_UNIVERSAL_TIME_OFFSET ( 1, 0, .AHEAD. ) ;
#28 = ORIENTED_EDGE ( 'NONE', *, *, #206, .T. ) ;
#29 = CYLINDRICAL_SURFACE ( 'NONE', #31, 1.499999999999996891 ) ;
#30 = DIRECTION ( 'NONE',  ( 4.275831445896958607E-31, 1.000000000000000000, 1.224646799147353454E-16 ) ) ;
#31 = AXIS2_PLACEMENT_3D ( 'NONE', #162, #141, #30 ) ;
#32 = DIRECTION ( 'NONE',  ( -3.491481338843133355E-15, 1.224646799147353207E-16, -1.000000000000000000 ) ) ;
#33 = PLANE ( 'NONE',  #242 ) ;
#34 = DIRECTION ( 'NONE',  ( 4.209682938551346933E-31, 1.000000000000000000, 1.184920407087986291E-16 ) ) ;
#35 = APPROVAL_PERSON_ORGANIZATION ( #248, #247, #194 ) ;
#36 = CARTESIAN_POINT ( 'NONE',  ( 2.433562493173664138E-13, 1.499999999999992673, 69.70000000000001705 ) ) ;
#37 = CALENDAR_DATE ( 2021, 2, 12 ) ;
#38 = CARTESIAN_POINT ( 'NONE',  ( 2.444036937190193601E-13, 1.199999999999992628, 70.00000000000000000 ) ) ;
#39 = CONICAL_SURFACE ( 'NONE', #85, 1.200000000000001510, 0.7853981633974566057 ) ;
#40 = VERTEX_POINT ( 'NONE', #294 ) ;
#41 = EDGE_CURVE ( 'NONE', #13, #13, #215, .T. ) ;
#42 = EDGE_LOOP ( 'NONE', ( #250 ) ) ;
#43 = SECURITY_CLASSIFICATION ( '', '', #297 ) ;
#44 = APPROVAL_ROLE ( '' ) ;
#45 = ORIENTED_EDGE ( 'NONE', *, *, #164, .F. ) ;
#46 = ORIENTED_EDGE ( 'NONE', *, *, #267, .T. ) ;
#47 = PERSON_AND_ORGANIZATION_ROLE ( 'design_supplier' ) ;
#48 = ORIENTED_EDGE ( 'NONE', *, *, #41, .F. ) ;
#49 = CC_DESIGN_SECURITY_CLASSIFICATION ( #43, ( #168 ) ) ;
#50 = DIRECTION ( 'NONE',  ( -3.491481338843133355E-15, 1.224646799147353207E-16, -1.000000000000000000 ) ) ;
#51 = DIRECTION ( 'NONE',  ( -3.491481338843133355E-15, 1.224646799147353207E-16, -1.000000000000000000 ) ) ;
#52 = ADVANCED_FACE ( 'NONE', ( #124 ), #220, .T. ) ;
#53 = CARTESIAN_POINT ( 'NONE',  ( 0.0000000000000000000, 0.0000000000000000000, 0.0000000000000000000 ) ) ;
#54 = AXIS2_PLACEMENT_3D ( 'NONE', #209, #6, #262 ) ;
#55 = CARTESIAN_POINT ( 'NONE',  ( 8.728703347107825500E-16, -3.061616997868380553E-17, 0.2499999999999997780 ) ) ;
#56 = DIRECTION ( 'NONE',  ( 0.0000000000000000000, 1.000000000000000000, 0.0000000000000000000 ) ) ;
#57 = VERTEX_POINT ( 'NONE', #240 ) ;
#58 = DATE_AND_TIME ( #75, #80 ) ;
#59 = AXIS2_PLACEMENT_3D ( 'NONE', #175, #157, #296 ) ;
#60 = APPROVAL_DATE_TIME ( #133, #247 ) ;
#61 = FACE_BOUND ( 'NONE', #17, .T. ) ;
#62 = CARTESIAN_POINT ( 'NONE',  ( 2.444036937190193601E-13, -8.572527594031472993E-15, 70.00000000000000000 ) ) ;
#63 = CALENDAR_DATE ( 2021, 2, 12 ) ;
#64 = PLANE ( 'NONE',  #12 ) ;
#65 = CC_DESIGN_PERSON_AND_ORGANIZATION_ASSIGNMENT ( #152, #47, ( #168 ) ) ;
#66 = DATE_TIME_ROLE ( 'creation_date' ) ;
#67 = CARTESIAN_POINT ( 'NONE',  ( 3.491481338843133355E-14, 1.372280201135594128E-32, 10.00000000000000000 ) ) ;
#68 = AXIS2_PLACEMENT_3D ( 'NONE', #4, #1, #95 ) ;
#69 = CARTESIAN_POINT ( 'NONE',  ( 3.491481338843133355E-14, -1.224646799147353256E-15, 10.00000000000000000 ) ) ;
#70 = CARTESIAN_POINT ( 'NONE',  ( 0.0000000000000000000, 0.0000000000000000000, 0.0000000000000000000 ) ) ;
#71 = CARTESIAN_POINT ( 'NONE',  ( 2.433562493173664138E-13, -8.535788190057053710E-15, 69.70000000000001705 ) ) ;
#72 = AXIS2_PLACEMENT_3D ( 'NONE', #273, #153, #19 ) ;
#73 = FACE_BOUND ( 'NONE', #42, .T. ) ;
#74 = DIRECTION ( 'NONE',  ( 4.275831445896958607E-31, 1.000000000000000000, 1.224646799147353454E-16 ) ) ;
#75 = CALENDAR_DATE ( 2021, 2, 12 ) ;
#76 = PERSON_AND_ORGANIZATION ( #106, #221 ) ;
#77 = DIRECTION ( 'NONE',  ( -3.491481338843133355E-15, 1.224646799147353207E-16, -1.000000000000000000 ) ) ;
#78 = ADVANCED_FACE ( 'NONE', ( #61, #129 ), #25, .T. ) ;
#79 = DIRECTION ( 'NONE',  ( 0.0000000000000000000, 0.0000000000000000000, 1.000000000000000000 ) ) ;
#80 = LOCAL_TIME ( 10, 35, 54.00000000000000000, #246 ) ;
#81 = EDGE_LOOP ( 'NONE', ( #45 ) ) ;
#82 = EDGE_LOOP ( 'NONE', ( #193 ) ) ;
#83 = SHAPE_DEFINITION_REPRESENTATION ( #228, #293 ) ;
#84 = ORIENTED_EDGE ( 'NONE', *, *, #234, .F. ) ;
#85 = AXIS2_PLACEMENT_3D ( 'NONE', #10, #77, #118 ) ;
#86 = EDGE_LOOP ( 'NONE', ( #173 ) ) ;
#87 = EDGE_LOOP ( 'NONE', ( #105 ) ) ;
#88 = ADVANCED_FACE ( 'NONE', ( #225, #197 ), #187, .T. ) ;
#89 = CARTESIAN_POINT ( 'NONE',  ( 2.444036937190193601E-13, -8.572527594031472993E-15, 70.00000000000000000 ) ) ;
#90 = CIRCLE ( 'NONE', #207, 1.200000000000001510 ) ;
#91 = DIRECTION ( 'NONE',  ( 0.0000000000000000000, 1.000000000000000000, 0.0000000000000000000 ) ) ;
#92 = CARTESIAN_POINT ( 'NONE',  ( 3.491481338843133355E-14, -1.224646799147353256E-15, 10.00000000000000000 ) ) ;
#93 = EDGE_CURVE ( 'NONE', #268, #268, #158, .T. ) ;
#94 = CYLINDRICAL_SURFACE ( 'NONE', #286, 1.499999999999996891 ) ;
#95 = DIRECTION ( 'NONE',  ( 4.275831445896958607E-31, 1.000000000000000000, 1.224646799147353207E-16 ) ) ;
#96 = CARTESIAN_POINT ( 'NONE',  ( 2.433562493173664138E-13, 1.499999999999992673, 69.70000000000001705 ) ) ;
#97 = CIRCLE ( 'NONE', #275, 1.579999999999994076 ) ;
#98 = APPROVAL_DATE_TIME ( #58, #185 ) ;
#99 = DIRECTION ( 'NONE',  ( 0.0000000000000000000, 1.000000000000000000, 0.0000000000000000000 ) ) ;
#100 = CARTESIAN_POINT ( 'NONE',  ( 3.491481338843133355E-14, 1.829999999999993632, 10.00000000000000000 ) ) ;
#101 = EDGE_LOOP ( 'NONE', ( #48 ) ) ;
#102 = CONICAL_SURFACE ( 'NONE', #143, 1.829999999999994964, 0.5235987755983009251 ) ;
#103 = PERSON_AND_ORGANIZATION ( #106, #221 ) ;
#104 = UNCERTAINTY_MEASURE_WITH_UNIT (LENGTH_MEASURE( 1.000000000000000082E-05 ), #16, 'distance_accuracy_value', 'NONE');
#105 = ORIENTED_EDGE ( 'NONE', *, *, #282, .T. ) ;
#106 = PERSON ( 'UNSPECIFIED', 'UNSPECIFIED', 'UNSPECIFIED', ('UNSPECIFIED'), ('UNSPECIFIED'), ('UNSPECIFIED') ) ;
#107 = DATE_AND_TIME ( #63, #188 ) ;
#108 = DIRECTION ( 'NONE',  ( 0.0000000000000000000, 1.000000000000000000, 0.0000000000000000000 ) ) ;
#109 = EDGE_LOOP ( 'NONE', ( #278 ) ) ;
#110 = EDGE_LOOP ( 'NONE', ( #204 ) ) ;
#111 = AXIS2_PLACEMENT_3D ( 'NONE', #71, #182, #237 ) ;
#112 = FACE_OUTER_BOUND ( 'NONE', #132, .T. ) ;
#113 = DIRECTION ( 'NONE',  ( 0.0000000000000000000, 1.000000000000000000, 0.0000000000000000000 ) ) ;
#114 = DIRECTION ( 'NONE',  ( -3.491481338843133355E-15, 1.224646799147353207E-16, -1.000000000000000000 ) ) ;
#115 = FACE_OUTER_BOUND ( 'NONE', #277, .T. ) ;
#116 = DIRECTION ( 'NONE',  ( 4.275831445896958607E-31, 1.000000000000000000, 1.224646799147353207E-16 ) ) ;
#117 = AXIS2_PLACEMENT_3D ( 'NONE', #150, #249, #108 ) ;
#118 = DIRECTION ( 'NONE',  ( 0.0000000000000000000, 1.000000000000000000, 0.0000000000000000000 ) ) ;
#119 = MECHANICAL_CONTEXT ( 'NONE', #5, 'mechanical' ) ;
#120 = CARTESIAN_POINT ( 'NONE',  ( 8.552847072295026068E-47, 1.579999999999994076, 0.0000000000000000000 ) ) ;
#121 = CARTESIAN_POINT ( 'NONE',  ( 2.444036937190193601E-13, 1.199999999999992628, 70.00000000000000000 ) ) ;
#122 = VERTEX_POINT ( 'NONE', #96 ) ;
#123 = APPROVAL ( #198, 'UNSPECIFIED' ) ;
#124 = FACE_OUTER_BOUND ( 'NONE', #86, .T. ) ;
#125 = AXIS2_PLACEMENT_3D ( 'NONE', #214, #79, #146 ) ;
#126 = EDGE_LOOP ( 'NONE', ( #28 ) ) ;
#127 = ADVANCED_FACE ( 'NONE', ( #287, #235 ), #102, .T. ) ;
#128 = PERSON_AND_ORGANIZATION ( #106, #221 ) ;
#129 = FACE_OUTER_BOUND ( 'NONE', #101, .T. ) ;
#130 = CC_DESIGN_PERSON_AND_ORGANIZATION_ASSIGNMENT ( #226, #252, ( #43 ) ) ;
#131 = COORDINATED_UNIVERSAL_TIME_OFFSET ( 1, 0, .AHEAD. ) ;
#132 = EDGE_LOOP ( 'NONE', ( #180 ) ) ;
#133 = DATE_AND_TIME ( #276, #8 ) ;
#134 = LOCAL_TIME ( 10, 35, 54.00000000000000000, #27 ) ;
#135 = EDGE_LOOP ( 'NONE', ( #274 ) ) ;
#136 = ADVANCED_FACE ( 'NONE', ( #184 ), #33, .F. ) ;
#137 = CYLINDRICAL_SURFACE ( 'NONE', #236, 1.829999999999994964 ) ;
#138 = DIRECTION ( 'NONE',  ( 0.0000000000000000000, 1.000000000000000000, 0.0000000000000000000 ) ) ;
#139 = DIRECTION ( 'NONE',  ( 0.0000000000000000000, 1.000000000000000000, 0.0000000000000000000 ) ) ;
#140 = CARTESIAN_POINT ( 'NONE',  ( -6.755813684517168814E-31, 2.369620456605726317E-32, -1.934941942652810825E-16 ) ) ;
#141 = DIRECTION ( 'NONE',  ( -3.491481338843133355E-15, 1.224646799147353207E-16, -1.000000000000000000 ) ) ;
#142 = VERTEX_POINT ( 'NONE', #15 ) ;
#143 = AXIS2_PLACEMENT_3D ( 'NONE', #92, #50, #139 ) ;
#144 = CARTESIAN_POINT ( 'NONE',  ( 2.433562493173664138E-13, -8.535788190057053710E-15, 69.70000000000001705 ) ) ;
#145 = CC_DESIGN_DATE_AND_TIME_ASSIGNMENT ( #176, #230, ( #43 ) ) ;
#146 = DIRECTION ( 'NONE',  ( 1.000000000000000000, 0.0000000000000000000, 0.0000000000000000000 ) ) ;
#147 = DESIGN_CONTEXT ( 'detailed design', #14, 'design' ) ;
#148 = LOCAL_TIME ( 10, 35, 54.00000000000000000, #243 ) ;
#149 = APPLICATION_PROTOCOL_DEFINITION ( 'international standard', 'config_control_design', 1994, #14 ) ;
#150 = CARTESIAN_POINT ( 'NONE',  ( 3.491481338843133355E-14, -1.224646799147353256E-15, 10.00000000000000000 ) ) ;
#151 = ORIENTED_EDGE ( 'NONE', *, *, #298, .T. ) ;
#152 = PERSON_AND_ORGANIZATION ( #106, #221 ) ;
#153 = DIRECTION ( 'NONE',  ( -3.491481338843133355E-15, 1.224646799147353207E-16, -1.000000000000000000 ) ) ;
#154 = ADVANCED_FACE ( 'NONE', ( #161, #257 ), #137, .T. ) ;
#155 = PERSON_AND_ORGANIZATION_ROLE ( 'creator' ) ;
#156 = CIRCLE ( 'NONE', #270, 1.829999999999994964 ) ;
#157 = DIRECTION ( 'NONE',  ( -3.491481338843133355E-15, 1.224646799147353207E-16, -1.000000000000000000 ) ) ;
#158 = CIRCLE ( 'NONE', #260, 1.200000000000001510 ) ;
#159 = DIRECTION ( 'NONE',  ( 0.0000000000000000000, 1.000000000000000000, 0.0000000000000000000 ) ) ;
#160 = FACE_OUTER_BOUND ( 'NONE', #24, .T. ) ;
#161 = FACE_OUTER_BOUND ( 'NONE', #255, .T. ) ;
#162 = CARTESIAN_POINT ( 'NONE',  ( 0.0000000000000000000, 0.0000000000000000000, 0.0000000000000000000 ) ) ;
#163 = MANIFOLD_SOLID_BREP ( 'Corps-Déplacer/Copier1[2]', #285 ) ;
#164 = EDGE_CURVE ( 'NONE', #290, #290, #97, .T. ) ;
#165 = DIRECTION ( 'NONE',  ( 4.275831445896958607E-31, 1.000000000000000000, 1.224646799147353207E-16 ) ) ;
#166 = VERTEX_POINT ( 'NONE', #36 ) ;
#167 = CC_DESIGN_PERSON_AND_ORGANIZATION_ASSIGNMENT ( #128, #155, ( #168 ) ) ;
#168 = PRODUCT_DEFINITION_FORMATION_WITH_SPECIFIED_SOURCE ( 'ANY', '', #284, .NOT_KNOWN. ) ;
#169 =( NAMED_UNIT ( * ) PLANE_ANGLE_UNIT ( ) SI_UNIT ( $, .RADIAN. ) );
#170 = ADVANCED_FACE ( 'NONE', ( #239, #115 ), #29, .T. ) ;
#171 = CC_DESIGN_PERSON_AND_ORGANIZATION_ASSIGNMENT ( #217, #11, ( #284 ) ) ;
#172 = CC_DESIGN_APPROVAL ( #247, ( #43 ) ) ;
#173 = ORIENTED_EDGE ( 'NONE', *, *, #164, .T. ) ;
#174 = COORDINATED_UNIVERSAL_TIME_OFFSET ( 1, 0, .AHEAD. ) ;
#175 = CARTESIAN_POINT ( 'NONE',  ( 3.491481338843133355E-14, -1.224646799147353256E-15, 10.00000000000000000 ) ) ;
#176 = DATE_AND_TIME ( #23, #134 ) ;
#177 = CIRCLE ( 'NONE', #54, 1.499999999999992895 ) ;
#178 = EDGE_LOOP ( 'NONE', ( #303 ) ) ;
#179 = EDGE_CURVE ( 'NONE', #40, #40, #216, .T. ) ;
#180 = ORIENTED_EDGE ( 'NONE', *, *, #41, .T. ) ;
#181 = CIRCLE ( 'NONE', #111, 1.500000000000001110 ) ;
#182 = DIRECTION ( 'NONE',  ( -3.491481338843133355E-15, 1.224646799147353207E-16, -1.000000000000000000 ) ) ;
#183 = FACE_OUTER_BOUND ( 'NONE', #82, .T. ) ;
#184 = FACE_OUTER_BOUND ( 'NONE', #110, .T. ) ;
#185 = APPROVAL ( #289, 'UNSPECIFIED' ) ;
#186 = FACE_OUTER_BOUND ( 'NONE', #279, .T. ) ;
#187 = CONICAL_SURFACE ( 'NONE', #254, 1.579999999999994076, 0.7853981633974500554 ) ;
#188 = LOCAL_TIME ( 10, 35, 54.00000000000000000, #131 ) ;
#189 = ADVANCED_FACE ( 'NONE', ( #283 ), #205, .F. ) ;
#190 = DIRECTION ( 'NONE',  ( -3.491481338843133355E-15, 1.224646799147353207E-16, -1.000000000000000000 ) ) ;
#191 = APPLICATION_PROTOCOL_DEFINITION ( 'international standard', 'config_control_design', 1994, #5 ) ;
#192 = APPROVAL_ROLE ( '' ) ;
#193 = ORIENTED_EDGE ( 'NONE', *, *, #179, .F. ) ;
#194 = APPROVAL_ROLE ( '' ) ;
#195 = DIRECTION ( 'NONE',  ( -4.275831445896958607E-31, -1.000000000000000000, -1.224646799147353207E-16 ) ) ;
#196 = APPROVAL_DATE_TIME ( #107, #123 ) ;
#197 = FACE_BOUND ( 'NONE', #81, .T. ) ;
#198 = APPROVAL_STATUS ( 'not_yet_approved' ) ;
#199 = CARTESIAN_POINT ( 'NONE',  ( -6.755813684517168814E-31, 2.369620456605726317E-32, -1.934941942652810825E-16 ) ) ;
#200 = CLOSED_SHELL ( 'NONE', ( #3, #78, #170, #292, #136 ) ) ;
#201 = APPROVAL_PERSON_ORGANIZATION ( #76, #185, #192 ) ;
#202 = ORIENTED_EDGE ( 'NONE', *, *, #224, .T. ) ;
#203 = PRODUCT_RELATED_PRODUCT_CATEGORY ( 'detail', '', ( #284 ) ) ;
#204 = ORIENTED_EDGE ( 'NONE', *, *, #93, .F. ) ;
#205 = PLANE ( 'NONE',  #68 ) ;
#206 = EDGE_CURVE ( 'NONE', #265, #265, #90, .T. ) ;
#207 = AXIS2_PLACEMENT_3D ( 'NONE', #7, #190, #113 ) ;
#208 = DIRECTION ( 'NONE',  ( -3.491481338843133355E-15, 1.224646799147353207E-16, -1.000000000000000000 ) ) ;
#209 = CARTESIAN_POINT ( 'NONE',  ( 3.691046300237445485E-14, -1.294644764903197103E-15, 10.57157676649773137 ) ) ;
#210 = DIRECTION ( 'NONE',  ( -3.491481338843133355E-15, 1.224646799147353207E-16, -1.000000000000000000 ) ) ;
#211 = DIRECTION ( 'NONE',  ( -3.491481338843133355E-15, 1.224646799147353207E-16, -1.000000000000000000 ) ) ;
#212 = AXIS2_PLACEMENT_3D ( 'NONE', #233, #281, #138 ) ;
#213 =( NAMED_UNIT ( * ) SI_UNIT ( $, .STERADIAN. ) SOLID_ANGLE_UNIT ( ) );
#214 = CARTESIAN_POINT ( 'NONE',  ( 0.0000000000000000000, 0.0000000000000000000, 0.0000000000000000000 ) ) ;
#215 = CIRCLE ( 'NONE', #59, 1.829999999999994964 ) ;
#216 = CIRCLE ( 'NONE', #212, 1.499999999999992895 ) ;
#217 = PERSON_AND_ORGANIZATION ( #106, #221 ) ;
#218 = PERSON_AND_ORGANIZATION ( #106, #221 ) ;
#219 = ADVANCED_FACE ( 'NONE', ( #288, #263 ), #266, .T. ) ;
#220 = PLANE ( 'NONE',  #72 ) ;
#221 = ORGANIZATION ( 'UNSPECIFIED', 'UNSPECIFIED', '' ) ;
#222 = APPROVAL_STATUS ( 'not_yet_approved' ) ;
#223 = ORIENTED_EDGE ( 'NONE', *, *, #179, .T. ) ;
#224 = EDGE_CURVE ( 'NONE', #264, #264, #20, .T. ) ;
#225 = FACE_OUTER_BOUND ( 'NONE', #87, .T. ) ;
#226 = PERSON_AND_ORGANIZATION ( #106, #221 ) ;
#227 = EDGE_LOOP ( 'NONE', ( #302 ) ) ;
#228 = PRODUCT_DEFINITION_SHAPE ( 'NONE', 'NONE',  #244 ) ;
#229 = CC_DESIGN_APPROVAL ( #123, ( #168 ) ) ;
#230 = DATE_TIME_ROLE ( 'classification_date' ) ;
#231 =( GEOMETRIC_REPRESENTATION_CONTEXT ( 3 ) GLOBAL_UNCERTAINTY_ASSIGNED_CONTEXT ( ( #104 ) ) GLOBAL_UNIT_ASSIGNED_CONTEXT ( ( #16, #169, #213 ) ) REPRESENTATION_CONTEXT ( 'NONE', 'WORKASPACE' ) );
#232 = EDGE_LOOP ( 'NONE', ( #300 ) ) ;
#233 = CARTESIAN_POINT ( 'NONE',  ( 3.691046300237445485E-14, -1.294644764903197103E-15, 10.57157676649773137 ) ) ;
#234 = EDGE_CURVE ( 'NONE', #166, #166, #181, .T. ) ;
#235 = FACE_OUTER_BOUND ( 'NONE', #109, .T. ) ;
#236 = AXIS2_PLACEMENT_3D ( 'NONE', #70, #51, #116 ) ;
#237 = DIRECTION ( 'NONE',  ( 0.0000000000000000000, 1.000000000000000000, 0.0000000000000000000 ) ) ;
#238 = DIRECTION ( 'NONE',  ( -3.491481338843133355E-15, 1.224646799147353207E-16, -1.000000000000000000 ) ) ;
#239 = FACE_OUTER_BOUND ( 'NONE', #178, .T. ) ;
#240 = CARTESIAN_POINT ( 'NONE',  ( 8.728703347107833388E-16, 1.829999999999994964, 0.2500000000000000000 ) ) ;
#241 = CIRCLE ( 'NONE', #295, 1.500000000000001110 ) ;
#242 = AXIS2_PLACEMENT_3D ( 'NONE', #9, #210, #280 ) ;
#243 = COORDINATED_UNIVERSAL_TIME_OFFSET ( 1, 0, .AHEAD. ) ;
#244 = PRODUCT_DEFINITION ( 'UNKNOWN', '', #168, #147 ) ;
#245 = CARTESIAN_POINT ( 'NONE',  ( 3.491481338843133355E-14, 1.829999999999993632, 10.00000000000000000 ) ) ;
#246 = COORDINATED_UNIVERSAL_TIME_OFFSET ( 1, 0, .AHEAD. ) ;
#247 = APPROVAL ( #222, 'UNSPECIFIED' ) ;
#248 = PERSON_AND_ORGANIZATION ( #106, #221 ) ;
#249 = DIRECTION ( 'NONE',  ( -3.491481338843133355E-15, 1.224646799147353207E-16, -1.000000000000000000 ) ) ;
#250 = ORIENTED_EDGE ( 'NONE', *, *, #93, .T. ) ;
#251 = DIRECTION ( 'NONE',  ( -4.275831445896958607E-31, -1.000000000000000000, -1.224646799147353207E-16 ) ) ;
#252 = PERSON_AND_ORGANIZATION_ROLE ( 'classification_officer' ) ;
#253 = EDGE_LOOP ( 'NONE', ( #223 ) ) ;
#254 = AXIS2_PLACEMENT_3D ( 'NONE', #199, #299, #251 ) ;
#255 = EDGE_LOOP ( 'NONE', ( #202 ) ) ;
#256 = ADVANCED_FACE ( 'NONE', ( #183, #160 ), #94, .T. ) ;
#257 = FACE_OUTER_BOUND ( 'NONE', #232, .T. ) ;
#258 = CC_DESIGN_PERSON_AND_ORGANIZATION_ASSIGNMENT ( #218, #291, ( #244 ) ) ;
#259 = DIRECTION ( 'NONE',  ( -3.491481338843133355E-15, 1.224646799147353207E-16, -1.000000000000000000 ) ) ;
#260 = AXIS2_PLACEMENT_3D ( 'NONE', #62, #211, #159 ) ;
#261 = AXIS2_PLACEMENT_3D ( 'NONE', #69, #208, #91 ) ;
#262 = DIRECTION ( 'NONE',  ( 0.0000000000000000000, 1.000000000000000000, 0.0000000000000000000 ) ) ;
#263 = FACE_BOUND ( 'NONE', #126, .T. ) ;
#264 = VERTEX_POINT ( 'NONE', #100 ) ;
#265 = VERTEX_POINT ( 'NONE', #121 ) ;
#266 = CONICAL_SURFACE ( 'NONE', #301, 1.200000000000001510, 0.7853981633974566057 ) ;
#267 = EDGE_CURVE ( 'NONE', #142, #142, #177, .T. ) ;
#268 = VERTEX_POINT ( 'NONE', #38 ) ;
#269 = DIRECTION ( 'NONE',  ( -3.491481338843133355E-15, 1.224646799147353207E-16, -1.000000000000000000 ) ) ;
#270 = AXIS2_PLACEMENT_3D ( 'NONE', #55, #238, #34 ) ;
#271 = CC_DESIGN_DATE_AND_TIME_ASSIGNMENT ( #18, #66, ( #244 ) ) ;
#272 = MANIFOLD_SOLID_BREP ( 'Corps-Déplacer/Copier1[1]', #200 ) ;
#273 = CARTESIAN_POINT ( 'NONE',  ( -3.377906842258584407E-31, 1.184810228302863159E-32, -9.674709713264054123E-17 ) ) ;
#274 = ORIENTED_EDGE ( 'NONE', *, *, #298, .F. ) ;
#275 = AXIS2_PLACEMENT_3D ( 'NONE', #140, #32, #165 ) ;
#276 = CALENDAR_DATE ( 2021, 2, 12 ) ;
#277 = EDGE_LOOP ( 'NONE', ( #21 ) ) ;
#278 = ORIENTED_EDGE ( 'NONE', *, *, #224, .F. ) ;
#279 = EDGE_LOOP ( 'NONE', ( #84 ) ) ;
#280 = DIRECTION ( 'NONE',  ( 4.275831445896958607E-31, 1.000000000000000000, 1.224646799147353207E-16 ) ) ;
#281 = DIRECTION ( 'NONE',  ( -3.491481338843133355E-15, 1.224646799147353207E-16, -1.000000000000000000 ) ) ;
#282 = EDGE_CURVE ( 'NONE', #57, #57, #156, .T. ) ;
#283 = FACE_OUTER_BOUND ( 'NONE', #227, .T. ) ;
#284 = PRODUCT ( '321592', '321592', '', ( #119 ) ) ;
#285 = CLOSED_SHELL ( 'NONE', ( #127, #154, #88, #52, #189, #219, #256 ) ) ;
#286 = AXIS2_PLACEMENT_3D ( 'NONE', #53, #114, #74 ) ;
#287 = FACE_BOUND ( 'NONE', #253, .T. ) ;
#288 = FACE_OUTER_BOUND ( 'NONE', #135, .T. ) ;
#289 = APPROVAL_STATUS ( 'not_yet_approved' ) ;
#290 = VERTEX_POINT ( 'NONE', #120 ) ;
#291 = PERSON_AND_ORGANIZATION_ROLE ( 'creator' ) ;
#292 = ADVANCED_FACE ( 'NONE', ( #186, #73 ), #39, .T. ) ;
#293 = ADVANCED_BREP_SHAPE_REPRESENTATION ( '321592', ( #272, #163, #125 ), #231 ) ;
#294 = CARTESIAN_POINT ( 'NONE',  ( 3.691046300237445485E-14, 1.499999999999991562, 10.57157676649773137 ) ) ;
#295 = AXIS2_PLACEMENT_3D ( 'NONE', #144, #269, #99 ) ;
#296 = DIRECTION ( 'NONE',  ( 0.0000000000000000000, 1.000000000000000000, 0.0000000000000000000 ) ) ;
#297 = SECURITY_CLASSIFICATION_LEVEL ( 'unclassified' ) ;
#298 = EDGE_CURVE ( 'NONE', #122, #122, #241, .T. ) ;
#299 = DIRECTION ( 'NONE',  ( 3.491481338843133355E-15, -1.224646799147353207E-16, 1.000000000000000000 ) ) ;
#300 = ORIENTED_EDGE ( 'NONE', *, *, #282, .F. ) ;
#301 = AXIS2_PLACEMENT_3D ( 'NONE', #89, #259, #56 ) ;
#302 = ORIENTED_EDGE ( 'NONE', *, *, #206, .F. ) ;
#303 = ORIENTED_EDGE ( 'NONE', *, *, #267, .F. ) ;
ENDSEC;
END-ISO-10303-21;
