ISO-10303-21;
HEADER;
FILE_DESCRIPTION (( 'STEP AP203' ),
    '1' );
FILE_NAME ('321591.step',
    '2021-12-02T09:35:54',
    ( '' ),
    ( '' ),
    'SwSTEP 2.0',
    'SolidWorks 2019',
    '' );
FILE_SCHEMA (( 'CONFIG_CONTROL_DESIGN' ));
ENDSEC;

DATA;
#1 = MECHANICAL_CONTEXT ( 'NONE', #79, 'mechanical' ) ;
#2 = EDGE_LOOP ( 'NONE', ( #234 ) ) ;
#3 = COORDINATED_UNIVERSAL_TIME_OFFSET ( 1, 0, .AHEAD. ) ;
#4 = ORIENTED_EDGE ( 'NONE', *, *, #191, .F. ) ;
#5 = CALENDAR_DATE ( 2021, 2, 12 ) ;
#6 = DIRECTION ( 'NONE',  ( -3.491481338843133355E-15, 1.224646799147353207E-16, -1.000000000000000000 ) ) ;
#7 = APPROVAL_ROLE ( '' ) ;
#8 = ORIENTED_EDGE ( 'NONE', *, *, #302, .F. ) ;
#9 = AXIS2_PLACEMENT_3D ( 'NONE', #37, #175, #268 ) ;
#10 = ORIENTED_EDGE ( 'NONE', *, *, #131, .F. ) ;
#11 = FACE_OUTER_BOUND ( 'NONE', #30, .T. ) ;
#12 = DIRECTION ( 'NONE',  ( -3.491481338843133355E-15, 1.224646799147353207E-16, -1.000000000000000000 ) ) ;
#13 = CONICAL_SURFACE ( 'NONE', #177, 1.200000000000001510, 0.7853981633974566057 ) ;
#14 = DIRECTION ( 'NONE',  ( -3.491481338843133355E-15, 1.224646799147353207E-16, -1.000000000000000000 ) ) ;
#15 = FACE_OUTER_BOUND ( 'NONE', #187, .T. ) ;
#16 = FACE_BOUND ( 'NONE', #49, .T. ) ;
#17 = CONICAL_SURFACE ( 'NONE', #150, 1.200000000000001510, 0.7853981633974566057 ) ;
#18 = FACE_OUTER_BOUND ( 'NONE', #117, .T. ) ;
#19 = DIRECTION ( 'NONE',  ( -3.491481338843133355E-15, 1.224646799147353207E-16, -1.000000000000000000 ) ) ;
#20 = DIRECTION ( 'NONE',  ( -3.491481338843133355E-15, 1.224646799147353207E-16, -1.000000000000000000 ) ) ;
#21 = LOCAL_TIME ( 10, 35, 53.00000000000000000, #24 ) ;
#22 = VERTEX_POINT ( 'NONE', #84 ) ;
#23 = PERSON_AND_ORGANIZATION_ROLE ( 'creator' ) ;
#24 = COORDINATED_UNIVERSAL_TIME_OFFSET ( 1, 0, .AHEAD. ) ;
#25 = EDGE_LOOP ( 'NONE', ( #122 ) ) ;
#26 = AXIS2_PLACEMENT_3D ( 'NONE', #145, #123, #218 ) ;
#27 = CC_DESIGN_APPROVAL ( #109, ( #292 ) ) ;
#28 = SECURITY_CLASSIFICATION_LEVEL ( 'unclassified' ) ;
#29 = EDGE_LOOP ( 'NONE', ( #210 ) ) ;
#30 = EDGE_LOOP ( 'NONE', ( #185 ) ) ;
#31 = APPROVAL_DATE_TIME ( #89, #163 ) ;
#32 = EDGE_LOOP ( 'NONE', ( #142 ) ) ;
#33 = ADVANCED_FACE ( 'NONE', ( #283 ), #120, .T. ) ;
#34 = AXIS2_PLACEMENT_3D ( 'NONE', #103, #291, #78 ) ;
#35 = PLANE ( 'NONE',  #269 ) ;
#36 = CARTESIAN_POINT ( 'NONE',  ( 2.444036937190193601E-13, -8.572527594031472993E-15, 70.00000000000000000 ) ) ;
#37 = CARTESIAN_POINT ( 'NONE',  ( 2.444036937190193601E-13, -8.572527594031472993E-15, 70.00000000000000000 ) ) ;
#38 = FACE_OUTER_BOUND ( 'NONE', #118, .T. ) ;
#39 = DIRECTION ( 'NONE',  ( 4.275831445896958607E-31, 1.000000000000000000, 1.224646799147353454E-16 ) ) ;
#40 = CIRCLE ( 'NONE', #133, 1.500000000000001110 ) ;
#41 = DIRECTION ( 'NONE',  ( -3.491481338843133355E-15, 1.224646799147353207E-16, -1.000000000000000000 ) ) ;
#42 = CARTESIAN_POINT ( 'NONE',  ( -6.734434527287684976E-31, 2.362121657692416974E-32, -1.928818708657074195E-16 ) ) ;
#43 = CC_DESIGN_PERSON_AND_ORGANIZATION_ASSIGNMENT ( #136, #137, ( #290 ) ) ;
#44 = CARTESIAN_POINT ( 'NONE',  ( 8.728703347107833388E-16, 1.824999999999995071, 0.2500000000000000000 ) ) ;
#45 = AXIS2_PLACEMENT_3D ( 'NONE', #227, #19, #130 ) ;
#46 = APPROVAL_STATUS ( 'not_yet_approved' ) ;
#47 = DATE_AND_TIME ( #119, #152 ) ;
#48 = PERSON_AND_ORGANIZATION ( #151, #284 ) ;
#49 = EDGE_LOOP ( 'NONE', ( #280 ) ) ;
#50 = CC_DESIGN_PERSON_AND_ORGANIZATION_ASSIGNMENT ( #228, #72, ( #87 ) ) ;
#51 = ORIENTED_EDGE ( 'NONE', *, *, #86, .T. ) ;
#52 = CC_DESIGN_PERSON_AND_ORGANIZATION_ASSIGNMENT ( #68, #211, ( #292 ) ) ;
#53 = CARTESIAN_POINT ( 'NONE',  ( 3.491481338843133355E-14, -1.224646799147353256E-15, 10.00000000000000000 ) ) ;
#54 = MANIFOLD_SOLID_BREP ( 'Corps-Déplacer/Copier1[1]', #196 ) ;
#55 = PLANE ( 'NONE',  #26 ) ;
#56 = DIRECTION ( 'NONE',  ( 4.221216316465185870E-31, 1.000000000000000000, 1.188166764367679300E-16 ) ) ;
#57 = DIRECTION ( 'NONE',  ( -3.491481338843133355E-15, 1.224646799147353207E-16, -1.000000000000000000 ) ) ;
#58 = CARTESIAN_POINT ( 'NONE',  ( 0.0000000000000000000, 1.574999999999994182, 0.0000000000000000000 ) ) ;
#59 = AXIS2_PLACEMENT_3D ( 'NONE', #69, #259, #193 ) ;
#60 = VERTEX_POINT ( 'NONE', #275 ) ;
#61 = VERTEX_POINT ( 'NONE', #225 ) ;
#62 = VERTEX_POINT ( 'NONE', #155 ) ;
#63 = CONICAL_SURFACE ( 'NONE', #144, 1.824999999999995071, 0.5235987755983001479 ) ;
#64 = COORDINATED_UNIVERSAL_TIME_OFFSET ( 1, 0, .AHEAD. ) ;
#65 = ORIENTED_EDGE ( 'NONE', *, *, #86, .F. ) ;
#66 = PERSON_AND_ORGANIZATION_ROLE ( 'design_owner' ) ;
#67 = DIRECTION ( 'NONE',  ( -3.491481338843133355E-15, 1.224646799147353207E-16, -1.000000000000000000 ) ) ;
#68 = PERSON_AND_ORGANIZATION ( #151, #284 ) ;
#69 = CARTESIAN_POINT ( 'NONE',  ( 2.444036937190193601E-13, -8.572527594031472993E-15, 70.00000000000000000 ) ) ;
#70 = AXIS2_PLACEMENT_3D ( 'NONE', #220, #12, #76 ) ;
#71 = APPLICATION_CONTEXT ( 'configuration controlled 3d designs of mechanical parts and assemblies' ) ;
#72 = PERSON_AND_ORGANIZATION_ROLE ( 'design_supplier' ) ;
#73 = EDGE_LOOP ( 'NONE', ( #257 ) ) ;
#74 = EDGE_CURVE ( 'NONE', #301, #301, #204, .T. ) ;
#75 = FACE_OUTER_BOUND ( 'NONE', #216, .T. ) ;
#76 = DIRECTION ( 'NONE',  ( 4.275831445896959482E-31, 1.000000000000000000, 1.224646799147352961E-16 ) ) ;
#77 = CIRCLE ( 'NONE', #249, 1.574999999999994182 ) ;
#78 = DIRECTION ( 'NONE',  ( 0.0000000000000000000, 1.000000000000000000, 0.0000000000000000000 ) ) ;
#79 = APPLICATION_CONTEXT ( 'configuration controlled 3d designs of mechanical parts and assemblies' ) ;
#80 = DIRECTION ( 'NONE',  ( -3.491481338843133355E-15, 1.224646799147353207E-16, -1.000000000000000000 ) ) ;
#81 = ADVANCED_FACE ( 'NONE', ( #75 ), #35, .F. ) ;
#82 = DIRECTION ( 'NONE',  ( 0.0000000000000000000, 1.000000000000000000, 0.0000000000000000000 ) ) ;
#83 = CC_DESIGN_APPROVAL ( #219, ( #87 ) ) ;
#84 = CARTESIAN_POINT ( 'NONE',  ( 3.688022588701169243E-14, 1.499999999999991562, 10.56291651245988739 ) ) ;
#85 = DIRECTION ( 'NONE',  ( 3.491481338843133355E-15, -1.224646799147353207E-16, 1.000000000000000000 ) ) ;
#86 = EDGE_CURVE ( 'NONE', #60, #60, #121, .T. ) ;
#87 = PRODUCT_DEFINITION_FORMATION_WITH_SPECIFIED_SOURCE ( 'ANY', '', #242, .NOT_KNOWN. ) ;
#88 = DIRECTION ( 'NONE',  ( -4.275831445896958607E-31, -1.000000000000000000, -1.224646799147353207E-16 ) ) ;
#89 = DATE_AND_TIME ( #116, #21 ) ;
#90 = CC_DESIGN_DATE_AND_TIME_ASSIGNMENT ( #47, #233, ( #292 ) ) ;
#91 = PERSON_AND_ORGANIZATION ( #151, #284 ) ;
#92 = EDGE_LOOP ( 'NONE', ( #8 ) ) ;
#93 = APPROVAL_DATE_TIME ( #281, #109 ) ;
#94 = DIRECTION ( 'NONE',  ( 0.0000000000000000000, 1.000000000000000000, 0.0000000000000000000 ) ) ;
#95 = ORIENTED_EDGE ( 'NONE', *, *, #274, .F. ) ;
#96 = AXIS2_PLACEMENT_3D ( 'NONE', #53, #143, #140 ) ;
#97 = EDGE_CURVE ( 'NONE', #61, #61, #40, .T. ) ;
#98 = APPROVAL_STATUS ( 'not_yet_approved' ) ;
#99 = CARTESIAN_POINT ( 'NONE',  ( -3.367217263643842488E-31, 1.181060828846208487E-32, -9.644093543285370977E-17 ) ) ;
#100 = FACE_OUTER_BOUND ( 'NONE', #162, .T. ) ;
#101 = ADVANCED_FACE ( 'NONE', ( #238, #173 ), #104, .T. ) ;
#102 = CARTESIAN_POINT ( 'NONE',  ( 3.491481338843133355E-14, -1.224646799147353256E-15, 10.00000000000000000 ) ) ;
#103 = CARTESIAN_POINT ( 'NONE',  ( 3.491481338843133355E-14, -1.224646799147353256E-15, 10.00000000000000000 ) ) ;
#104 = CYLINDRICAL_SURFACE ( 'NONE', #272, 1.499999999999996891 ) ;
#105 = DIRECTION ( 'NONE',  ( 4.275831445896958607E-31, 1.000000000000000000, 1.224646799147353207E-16 ) ) ;
#106 = CARTESIAN_POINT ( 'NONE',  ( 2.433562493173664138E-13, -8.535788190057053710E-15, 69.70000000000001705 ) ) ;
#107 = AXIS2_PLACEMENT_3D ( 'NONE', #178, #286, #208 ) ;
#108 = DIRECTION ( 'NONE',  ( 0.0000000000000000000, 1.000000000000000000, 0.0000000000000000000 ) ) ;
#109 = APPROVAL ( #229, 'UNSPECIFIED' ) ;
#110 = VERTEX_POINT ( 'NONE', #207 ) ;
#111 = CC_DESIGN_DATE_AND_TIME_ASSIGNMENT ( #181, #279, ( #290 ) ) ;
#112 = APPROVAL_ROLE ( '' ) ;
#113 = LOCAL_TIME ( 10, 35, 53.00000000000000000, #160 ) ;
#114 = ORIENTED_EDGE ( 'NONE', *, *, #206, .T. ) ;
#115 = APPROVAL_PERSON_ORGANIZATION ( #231, #219, #7 ) ;
#116 = CALENDAR_DATE ( 2021, 2, 12 ) ;
#117 = EDGE_LOOP ( 'NONE', ( #190 ) ) ;
#118 = EDGE_LOOP ( 'NONE', ( #4 ) ) ;
#119 = CALENDAR_DATE ( 2021, 2, 12 ) ;
#120 = PLANE ( 'NONE',  #124 ) ;
#121 = CIRCLE ( 'NONE', #96, 1.824999999999995071 ) ;
#122 = ORIENTED_EDGE ( 'NONE', *, *, #97, .T. ) ;
#123 = DIRECTION ( 'NONE',  ( 3.491481338843133355E-15, -1.224646799147353207E-16, 1.000000000000000000 ) ) ;
#124 = AXIS2_PLACEMENT_3D ( 'NONE', #99, #67, #282 ) ;
#125 = FACE_BOUND ( 'NONE', #164, .T. ) ;
#126 = DIRECTION ( 'NONE',  ( 0.0000000000000000000, 1.000000000000000000, 0.0000000000000000000 ) ) ;
#127 = FACE_OUTER_BOUND ( 'NONE', #214, .T. ) ;
#128 = AXIS2_PLACEMENT_3D ( 'NONE', #106, #41, #108 ) ;
#129 = CARTESIAN_POINT ( 'NONE',  ( -6.734434527287684976E-31, 2.362121657692416974E-32, -1.928818708657074195E-16 ) ) ;
#130 = DIRECTION ( 'NONE',  ( 4.275831445896958607E-31, 1.000000000000000000, 1.224646799147353454E-16 ) ) ;
#131 = EDGE_CURVE ( 'NONE', #253, #253, #199, .T. ) ;
#132 = CARTESIAN_POINT ( 'NONE',  ( 2.444036937190193601E-13, 1.199999999999992628, 70.00000000000000000 ) ) ;
#133 = AXIS2_PLACEMENT_3D ( 'NONE', #212, #6, #94 ) ;
#134 = CARTESIAN_POINT ( 'NONE',  ( 3.491481338843133355E-14, 1.824999999999993738, 10.00000000000000000 ) ) ;
#135 = ADVANCED_FACE ( 'NONE', ( #146, #244 ), #63, .T. ) ;
#136 = PERSON_AND_ORGANIZATION ( #151, #284 ) ;
#137 = PERSON_AND_ORGANIZATION_ROLE ( 'creator' ) ;
#138 = APPROVAL_ROLE ( '' ) ;
#139 = AXIS2_PLACEMENT_3D ( 'NONE', #293, #80, #205 ) ;
#140 = DIRECTION ( 'NONE',  ( 0.0000000000000000000, 1.000000000000000000, 0.0000000000000000000 ) ) ;
#141 = ORIENTED_EDGE ( 'NONE', *, *, #302, .T. ) ;
#142 = ORIENTED_EDGE ( 'NONE', *, *, #243, .F. ) ;
#143 = DIRECTION ( 'NONE',  ( -3.491481338843133355E-15, 1.224646799147353207E-16, -1.000000000000000000 ) ) ;
#144 = AXIS2_PLACEMENT_3D ( 'NONE', #172, #14, #82 ) ;
#145 = CARTESIAN_POINT ( 'NONE',  ( 3.491481338843133355E-14, 1.368530801678939456E-32, 10.00000000000000000 ) ) ;
#146 = FACE_BOUND ( 'NONE', #2, .T. ) ;
#147 = APPROVAL_PERSON_ORGANIZATION ( #166, #163, #138 ) ;
#148 = DIRECTION ( 'NONE',  ( 0.0000000000000000000, 1.000000000000000000, 0.0000000000000000000 ) ) ;
#149 =( NAMED_UNIT ( * ) SI_UNIT ( $, .STERADIAN. ) SOLID_ANGLE_UNIT ( ) );
#150 = AXIS2_PLACEMENT_3D ( 'NONE', #296, #294, #148 ) ;
#151 = PERSON ( 'UNSPECIFIED', 'UNSPECIFIED', 'UNSPECIFIED', ('UNSPECIFIED'), ('UNSPECIFIED'), ('UNSPECIFIED') ) ;
#152 = LOCAL_TIME ( 10, 35, 53.00000000000000000, #256 ) ;
#153 = FACE_BOUND ( 'NONE', #92, .T. ) ;
#154 = CLOSED_SHELL ( 'NONE', ( #135, #179, #246, #33, #165, #184, #251 ) ) ;
#155 = CARTESIAN_POINT ( 'NONE',  ( 2.433562493173664138E-13, 1.499999999999992673, 69.70000000000001705 ) ) ;
#156 = CC_DESIGN_APPROVAL ( #163, ( #290 ) ) ;
#157 = LOCAL_TIME ( 10, 35, 53.00000000000000000, #3 ) ;
#158 = APPROVAL_DATE_TIME ( #188, #219 ) ;
#159 = EDGE_LOOP ( 'NONE', ( #65 ) ) ;
#160 = COORDINATED_UNIVERSAL_TIME_OFFSET ( 1, 0, .AHEAD. ) ;
#161 = ORIENTED_EDGE ( 'NONE', *, *, #74, .T. ) ;
#162 = EDGE_LOOP ( 'NONE', ( #51 ) ) ;
#163 = APPROVAL ( #46, 'UNSPECIFIED' ) ;
#164 = EDGE_LOOP ( 'NONE', ( #161 ) ) ;
#165 = ADVANCED_FACE ( 'NONE', ( #38 ), #217, .F. ) ;
#166 = PERSON_AND_ORGANIZATION ( #151, #284 ) ;
#167 = DIRECTION ( 'NONE',  ( -3.491481338843133355E-15, 1.224646799147353207E-16, -1.000000000000000000 ) ) ;
#168 = CC_DESIGN_PERSON_AND_ORGANIZATION_ASSIGNMENT ( #91, #66, ( #242 ) ) ;
#169 = FACE_OUTER_BOUND ( 'NONE', #237, .T. ) ;
#170 = AXIS2_PLACEMENT_3D ( 'NONE', #129, #85, #88 ) ;
#171 = LOCAL_TIME ( 10, 35, 53.00000000000000000, #64 ) ;
#172 = CARTESIAN_POINT ( 'NONE',  ( 3.491481338843133355E-14, -1.224646799147353256E-15, 10.00000000000000000 ) ) ;
#173 = FACE_OUTER_BOUND ( 'NONE', #25, .T. ) ;
#174 = DIRECTION ( 'NONE',  ( -3.491481338843133355E-15, 1.224646799147353207E-16, -1.000000000000000000 ) ) ;
#175 = DIRECTION ( 'NONE',  ( -3.491481338843133355E-15, 1.224646799147353207E-16, -1.000000000000000000 ) ) ;
#176 = ADVANCED_FACE ( 'NONE', ( #11, #125 ), #13, .T. ) ;
#177 = AXIS2_PLACEMENT_3D ( 'NONE', #36, #270, #126 ) ;
#178 = CARTESIAN_POINT ( 'NONE',  ( 0.0000000000000000000, 0.0000000000000000000, 0.0000000000000000000 ) ) ;
#179 = ADVANCED_FACE ( 'NONE', ( #100, #15 ), #241, .T. ) ;
#180 = VERTEX_POINT ( 'NONE', #134 ) ;
#181 = DATE_AND_TIME ( #5, #113 ) ;
#182 = ORIENTED_EDGE ( 'NONE', *, *, #206, .F. ) ;
#183 = CALENDAR_DATE ( 2021, 2, 12 ) ;
#184 = ADVANCED_FACE ( 'NONE', ( #288, #16 ), #17, .T. ) ;
#185 = ORIENTED_EDGE ( 'NONE', *, *, #97, .F. ) ;
#186 = SHAPE_DEFINITION_REPRESENTATION ( #202, #266 ) ;
#187 = EDGE_LOOP ( 'NONE', ( #10 ) ) ;
#188 = DATE_AND_TIME ( #192, #171 ) ;
#189 = AXIS2_PLACEMENT_3D ( 'NONE', #102, #264, #197 ) ;
#190 = ORIENTED_EDGE ( 'NONE', *, *, #131, .T. ) ;
#191 = EDGE_CURVE ( 'NONE', #271, #271, #226, .T. ) ;
#192 = CALENDAR_DATE ( 2021, 2, 12 ) ;
#193 = DIRECTION ( 'NONE',  ( 0.0000000000000000000, 1.000000000000000000, 0.0000000000000000000 ) ) ;
#194 = CARTESIAN_POINT ( 'NONE',  ( 0.0000000000000000000, 0.0000000000000000000, 0.0000000000000000000 ) ) ;
#195 = FACE_BOUND ( 'NONE', #73, .T. ) ;
#196 = CLOSED_SHELL ( 'NONE', ( #239, #200, #101, #176, #81 ) ) ;
#197 = DIRECTION ( 'NONE',  ( 0.0000000000000000000, 1.000000000000000000, 0.0000000000000000000 ) ) ;
#198 = CIRCLE ( 'NONE', #139, 1.499999999999992895 ) ;
#199 = CIRCLE ( 'NONE', #277, 1.824999999999995071 ) ;
#200 = ADVANCED_FACE ( 'NONE', ( #195, #169 ), #289, .T. ) ;
#201 = CC_DESIGN_SECURITY_CLASSIFICATION ( #292, ( #87 ) ) ;
#202 = PRODUCT_DEFINITION_SHAPE ( 'NONE', 'NONE',  #290 ) ;
#203 = PRODUCT_RELATED_PRODUCT_CATEGORY ( 'detail', '', ( #242 ) ) ;
#204 = CIRCLE ( 'NONE', #59, 1.200000000000001510 ) ;
#205 = DIRECTION ( 'NONE',  ( 0.0000000000000000000, 1.000000000000000000, 0.0000000000000000000 ) ) ;
#206 = EDGE_CURVE ( 'NONE', #180, #180, #222, .T. ) ;
#207 = CARTESIAN_POINT ( 'NONE',  ( 3.688022588701169243E-14, 1.499999999999991562, 10.56291651245988739 ) ) ;
#208 = DIRECTION ( 'NONE',  ( 1.000000000000000000, 0.0000000000000000000, 0.0000000000000000000 ) ) ;
#209 = AXIS2_PLACEMENT_3D ( 'NONE', #273, #250, #252 ) ;
#210 = ORIENTED_EDGE ( 'NONE', *, *, #295, .F. ) ;
#211 = PERSON_AND_ORGANIZATION_ROLE ( 'classification_officer' ) ;
#212 = CARTESIAN_POINT ( 'NONE',  ( 2.433562493173664138E-13, -8.535788190057053710E-15, 69.70000000000001705 ) ) ;
#213 = PERSON_AND_ORGANIZATION ( #151, #284 ) ;
#214 = EDGE_LOOP ( 'NONE', ( #95 ) ) ;
#215 = CIRCLE ( 'NONE', #128, 1.500000000000001110 ) ;
#216 = EDGE_LOOP ( 'NONE', ( #235 ) ) ;
#217 = PLANE ( 'NONE',  #9 ) ;
#218 = DIRECTION ( 'NONE',  ( -4.275831445896958607E-31, -1.000000000000000000, -1.224646799147353207E-16 ) ) ;
#219 = APPROVAL ( #98, 'UNSPECIFIED' ) ;
#220 = CARTESIAN_POINT ( 'NONE',  ( 0.0000000000000000000, 0.0000000000000000000, 0.0000000000000000000 ) ) ;
#221 = CARTESIAN_POINT ( 'NONE',  ( 2.444036937190193601E-13, -8.572527594031472993E-15, 70.00000000000000000 ) ) ;
#222 = CIRCLE ( 'NONE', #34, 1.824999999999995071 ) ;
#223 = CYLINDRICAL_SURFACE ( 'NONE', #45, 1.499999999999996891 ) ;
#224 = CARTESIAN_POINT ( 'NONE',  ( 2.444036937190193601E-13, 1.199999999999992628, 70.00000000000000000 ) ) ;
#225 = CARTESIAN_POINT ( 'NONE',  ( 2.433562493173664138E-13, 1.499999999999992673, 69.70000000000001705 ) ) ;
#226 = CIRCLE ( 'NONE', #236, 1.200000000000001510 ) ;
#227 = CARTESIAN_POINT ( 'NONE',  ( 0.0000000000000000000, 0.0000000000000000000, 0.0000000000000000000 ) ) ;
#228 = PERSON_AND_ORGANIZATION ( #151, #284 ) ;
#229 = APPROVAL_STATUS ( 'not_yet_approved' ) ;
#230 = ORIENTED_EDGE ( 'NONE', *, *, #295, .T. ) ;
#231 = PERSON_AND_ORGANIZATION ( #151, #284 ) ;
#232 = EDGE_LOOP ( 'NONE', ( #114 ) ) ;
#233 = DATE_TIME_ROLE ( 'classification_date' ) ;
#234 = ORIENTED_EDGE ( 'NONE', *, *, #274, .T. ) ;
#235 = ORIENTED_EDGE ( 'NONE', *, *, #74, .F. ) ;
#236 = AXIS2_PLACEMENT_3D ( 'NONE', #221, #174, #247 ) ;
#237 = EDGE_LOOP ( 'NONE', ( #182 ) ) ;
#238 = FACE_OUTER_BOUND ( 'NONE', #32, .T. ) ;
#239 = ADVANCED_FACE ( 'NONE', ( #265 ), #55, .F. ) ;
#240 = DESIGN_CONTEXT ( 'detailed design', #71, 'design' ) ;
#241 = CYLINDRICAL_SURFACE ( 'NONE', #70, 1.824999999999995071 ) ;
#242 = PRODUCT ( '321591', '321591', '', ( #1 ) ) ;
#243 = EDGE_CURVE ( 'NONE', #22, #22, #198, .T. ) ;
#244 = FACE_OUTER_BOUND ( 'NONE', #159, .T. ) ;
#245 = CIRCLE ( 'NONE', #209, 1.499999999999992895 ) ;
#246 = ADVANCED_FACE ( 'NONE', ( #18, #153 ), #254, .T. ) ;
#247 = DIRECTION ( 'NONE',  ( 0.0000000000000000000, 1.000000000000000000, 0.0000000000000000000 ) ) ;
#248 = DIRECTION ( 'NONE',  ( -3.491481338843133355E-15, 1.224646799147353207E-16, -1.000000000000000000 ) ) ;
#249 = AXIS2_PLACEMENT_3D ( 'NONE', #42, #20, #105 ) ;
#250 = DIRECTION ( 'NONE',  ( -3.491481338843133355E-15, 1.224646799147353207E-16, -1.000000000000000000 ) ) ;
#251 = ADVANCED_FACE ( 'NONE', ( #127, #298 ), #223, .T. ) ;
#252 = DIRECTION ( 'NONE',  ( 0.0000000000000000000, 1.000000000000000000, 0.0000000000000000000 ) ) ;
#253 = VERTEX_POINT ( 'NONE', #44 ) ;
#254 = CONICAL_SURFACE ( 'NONE', #170, 1.574999999999994182, 0.7853981633974500554 ) ;
#255 =( NAMED_UNIT ( * ) PLANE_ANGLE_UNIT ( ) SI_UNIT ( $, .RADIAN. ) );
#256 = COORDINATED_UNIVERSAL_TIME_OFFSET ( 1, 0, .AHEAD. ) ;
#257 = ORIENTED_EDGE ( 'NONE', *, *, #243, .T. ) ;
#258 = APPLICATION_PROTOCOL_DEFINITION ( 'international standard', 'config_control_design', 1994, #71 ) ;
#259 = DIRECTION ( 'NONE',  ( -3.491481338843133355E-15, 1.224646799147353207E-16, -1.000000000000000000 ) ) ;
#260 = MANIFOLD_SOLID_BREP ( 'Corps-Déplacer/Copier1[2]', #154 ) ;
#261 = EDGE_LOOP ( 'NONE', ( #230 ) ) ;
#262 = DIRECTION ( 'NONE',  ( 4.275831445896958607E-31, 1.000000000000000000, 1.224646799147353207E-16 ) ) ;
#263 = UNCERTAINTY_MEASURE_WITH_UNIT (LENGTH_MEASURE( 1.000000000000000082E-05 ), #276, 'distance_accuracy_value', 'NONE');
#264 = DIRECTION ( 'NONE',  ( -3.491481338843133355E-15, 1.224646799147353207E-16, -1.000000000000000000 ) ) ;
#265 = FACE_OUTER_BOUND ( 'NONE', #232, .T. ) ;
#266 = ADVANCED_BREP_SHAPE_REPRESENTATION ( '321591', ( #54, #260, #107 ), #300 ) ;
#267 = CARTESIAN_POINT ( 'NONE',  ( 8.728703347107825500E-16, -3.061616997868380553E-17, 0.2499999999999997780 ) ) ;
#268 = DIRECTION ( 'NONE',  ( 4.275831445896958607E-31, 1.000000000000000000, 1.224646799147353207E-16 ) ) ;
#269 = AXIS2_PLACEMENT_3D ( 'NONE', #287, #167, #262 ) ;
#270 = DIRECTION ( 'NONE',  ( -3.491481338843133355E-15, 1.224646799147353207E-16, -1.000000000000000000 ) ) ;
#271 = VERTEX_POINT ( 'NONE', #224 ) ;
#272 = AXIS2_PLACEMENT_3D ( 'NONE', #194, #248, #39 ) ;
#273 = CARTESIAN_POINT ( 'NONE',  ( 3.688022588701169243E-14, -1.293584189664472454E-15, 10.56291651245988739 ) ) ;
#274 = EDGE_CURVE ( 'NONE', #110, #110, #245, .T. ) ;
#275 = CARTESIAN_POINT ( 'NONE',  ( 3.491481338843133355E-14, 1.824999999999993738, 10.00000000000000000 ) ) ;
#276 =( LENGTH_UNIT ( ) NAMED_UNIT ( * ) SI_UNIT ( .MILLI., .METRE. ) );
#277 = AXIS2_PLACEMENT_3D ( 'NONE', #267, #57, #56 ) ;
#278 = CC_DESIGN_PERSON_AND_ORGANIZATION_ASSIGNMENT ( #48, #23, ( #87 ) ) ;
#279 = DATE_TIME_ROLE ( 'creation_date' ) ;
#280 = ORIENTED_EDGE ( 'NONE', *, *, #191, .T. ) ;
#281 = DATE_AND_TIME ( #183, #157 ) ;
#282 = DIRECTION ( 'NONE',  ( 4.275831445896958607E-31, 1.000000000000000000, 1.224646799147353207E-16 ) ) ;
#283 = FACE_OUTER_BOUND ( 'NONE', #285, .T. ) ;
#284 = ORGANIZATION ( 'UNSPECIFIED', 'UNSPECIFIED', '' ) ;
#285 = EDGE_LOOP ( 'NONE', ( #141 ) ) ;
#286 = DIRECTION ( 'NONE',  ( 0.0000000000000000000, 0.0000000000000000000, 1.000000000000000000 ) ) ;
#287 = CARTESIAN_POINT ( 'NONE',  ( 2.444036937190193601E-13, 8.998558695971026591E-33, 70.00000000000000000 ) ) ;
#288 = FACE_OUTER_BOUND ( 'NONE', #29, .T. ) ;
#289 = CONICAL_SURFACE ( 'NONE', #189, 1.824999999999995071, 0.5235987755983001479 ) ;
#290 = PRODUCT_DEFINITION ( 'UNKNOWN', '', #87, #240 ) ;
#291 = DIRECTION ( 'NONE',  ( -3.491481338843133355E-15, 1.224646799147353207E-16, -1.000000000000000000 ) ) ;
#292 = SECURITY_CLASSIFICATION ( '', '', #28 ) ;
#293 = CARTESIAN_POINT ( 'NONE',  ( 3.688022588701169243E-14, -1.293584189664472454E-15, 10.56291651245988739 ) ) ;
#294 = DIRECTION ( 'NONE',  ( -3.491481338843133355E-15, 1.224646799147353207E-16, -1.000000000000000000 ) ) ;
#295 = EDGE_CURVE ( 'NONE', #62, #62, #215, .T. ) ;
#296 = CARTESIAN_POINT ( 'NONE',  ( 2.444036937190193601E-13, -8.572527594031472993E-15, 70.00000000000000000 ) ) ;
#297 = APPROVAL_PERSON_ORGANIZATION ( #213, #109, #112 ) ;
#298 = FACE_OUTER_BOUND ( 'NONE', #261, .T. ) ;
#299 = APPLICATION_PROTOCOL_DEFINITION ( 'international standard', 'config_control_design', 1994, #79 ) ;
#300 =( GEOMETRIC_REPRESENTATION_CONTEXT ( 3 ) GLOBAL_UNCERTAINTY_ASSIGNED_CONTEXT ( ( #263 ) ) GLOBAL_UNIT_ASSIGNED_CONTEXT ( ( #276, #255, #149 ) ) REPRESENTATION_CONTEXT ( 'NONE', 'WORKASPACE' ) );
#301 = VERTEX_POINT ( 'NONE', #132 ) ;
#302 = EDGE_CURVE ( 'NONE', #303, #303, #77, .T. ) ;
#303 = VERTEX_POINT ( 'NONE', #58 ) ;
ENDSEC;
END-ISO-10303-21;
