ISO-10303-21;
HEADER;
FILE_DESCRIPTION (( 'STEP AP203' ),
    '1' );
FILE_NAME ('321590.step',
    '2021-12-02T09:35:53',
    ( '' ),
    ( '' ),
    'SwSTEP 2.0',
    'SolidWorks 2019',
    '' );
FILE_SCHEMA (( 'CONFIG_CONTROL_DESIGN' ));
ENDSEC;

DATA;
#1 = FACE_OUTER_BOUND ( 'NONE', #244, .T. ) ;
#2 = CIRCLE ( 'NONE', #275, 1.200000000000001510 ) ;
#3 = MANIFOLD_SOLID_BREP ( 'Corps-Déplacer/Copier1[2]', #26 ) ;
#4 = VERTEX_POINT ( 'NONE', #259 ) ;
#5 = VERTEX_POINT ( 'NONE', #102 ) ;
#6 = EDGE_LOOP ( 'NONE', ( #23 ) ) ;
#7 = ADVANCED_FACE ( 'NONE', ( #298 ), #250, .F. ) ;
#8 = FACE_OUTER_BOUND ( 'NONE', #227, .T. ) ;
#9 = AXIS2_PLACEMENT_3D ( 'NONE', #216, #74, #45 ) ;
#10 = MANIFOLD_SOLID_BREP ( 'Corps-Déplacer/Copier1[1]', #61 ) ;
#11 = DIRECTION ( 'NONE',  ( 0.0000000000000000000, 1.000000000000000000, 0.0000000000000000000 ) ) ;
#12 = DATE_AND_TIME ( #266, #150 ) ;
#13 = EDGE_LOOP ( 'NONE', ( #232 ) ) ;
#14 = DATE_AND_TIME ( #247, #37 ) ;
#15 = DIRECTION ( 'NONE',  ( -3.491481338843133355E-15, 1.224646799147353207E-16, -1.000000000000000000 ) ) ;
#16 = AXIS2_PLACEMENT_3D ( 'NONE', #278, #277, #300 ) ;
#17 = ORIENTED_EDGE ( 'NONE', *, *, #154, .F. ) ;
#18 = PRODUCT ( '321590', '321590', '', ( #19 ) ) ;
#19 = MECHANICAL_CONTEXT ( 'NONE', #299, 'mechanical' ) ;
#20 = DIRECTION ( 'NONE',  ( 4.275831445896958607E-31, 1.000000000000000000, 1.224646799147353207E-16 ) ) ;
#21 = PERSON_AND_ORGANIZATION ( #146, #52 ) ;
#22 = EDGE_LOOP ( 'NONE', ( #130 ) ) ;
#23 = ORIENTED_EDGE ( 'NONE', *, *, #90, .F. ) ;
#24 = DIRECTION ( 'NONE',  ( -3.491481338843133355E-15, 1.224646799147353207E-16, -1.000000000000000000 ) ) ;
#25 = ADVANCED_FACE ( 'NONE', ( #183, #234 ), #162, .T. ) ;
#26 = CLOSED_SHELL ( 'NONE', ( #280, #192, #101, #239, #7, #256, #285 ) ) ;
#27 = PLANE ( 'NONE',  #77 ) ;
#28 = CIRCLE ( 'NONE', #104, 1.819999999999994955 ) ;
#29 = VERTEX_POINT ( 'NONE', #79 ) ;
#30 = APPROVAL ( #155, 'UNSPECIFIED' ) ;
#31 = DIRECTION ( 'NONE',  ( 0.0000000000000000000, 1.000000000000000000, 0.0000000000000000000 ) ) ;
#32 = FACE_OUTER_BOUND ( 'NONE', #64, .T. ) ;
#33 = EDGE_LOOP ( 'NONE', ( #108 ) ) ;
#34 = ORIENTED_EDGE ( 'NONE', *, *, #50, .F. ) ;
#35 = DATE_AND_TIME ( #288, #62 ) ;
#36 = CYLINDRICAL_SURFACE ( 'NONE', #213, 1.499999999999996891 ) ;
#37 = LOCAL_TIME ( 10, 35, 53.00000000000000000, #249 ) ;
#38 = EDGE_LOOP ( 'NONE', ( #199 ) ) ;
#39 = APPROVAL_ROLE ( '' ) ;
#40 = FACE_OUTER_BOUND ( 'NONE', #13, .T. ) ;
#41 = COORDINATED_UNIVERSAL_TIME_OFFSET ( 1, 0, .AHEAD. ) ;
#42 = DIRECTION ( 'NONE',  ( -4.275831445896958607E-31, -1.000000000000000000, -1.224646799147353207E-16 ) ) ;
#43 = CARTESIAN_POINT ( 'NONE',  ( 3.684998877164891108E-14, -1.292523614425747409E-15, 10.55425625842204163 ) ) ;
#44 = DIRECTION ( 'NONE',  ( 4.275831445896958607E-31, 1.000000000000000000, 1.224646799147352961E-16 ) ) ;
#45 = DIRECTION ( 'NONE',  ( 0.0000000000000000000, 1.000000000000000000, 0.0000000000000000000 ) ) ;
#46 = APPLICATION_PROTOCOL_DEFINITION ( 'international standard', 'config_control_design', 1994, #299 ) ;
#47 = CARTESIAN_POINT ( 'NONE',  ( 3.684998877164891108E-14, 1.499999999999991562, 10.55425625842204163 ) ) ;
#48 = CIRCLE ( 'NONE', #197, 1.499999999999992895 ) ;
#49 = CARTESIAN_POINT ( 'NONE',  ( -3.356527685029100131E-31, 1.177311429389553953E-32, -9.613477373306686598E-17 ) ) ;
#50 = EDGE_CURVE ( 'NONE', #123, #123, #117, .T. ) ;
#51 = AXIS2_PLACEMENT_3D ( 'NONE', #268, #177, #131 ) ;
#52 = ORGANIZATION ( 'UNSPECIFIED', 'UNSPECIFIED', '' ) ;
#53 = CC_DESIGN_DATE_AND_TIME_ASSIGNMENT ( #14, #109, ( #220 ) ) ;
#54 = DIRECTION ( 'NONE',  ( -3.491481338843133355E-15, 1.224646799147353207E-16, -1.000000000000000000 ) ) ;
#55 = DESIGN_CONTEXT ( 'detailed design', #65, 'design' ) ;
#56 = CARTESIAN_POINT ( 'NONE',  ( 0.0000000000000000000, 0.0000000000000000000, 0.0000000000000000000 ) ) ;
#57 = CARTESIAN_POINT ( 'NONE',  ( 2.444036937190193601E-13, -8.572527594031472993E-15, 70.00000000000000000 ) ) ;
#58 = COORDINATED_UNIVERSAL_TIME_OFFSET ( 1, 0, .AHEAD. ) ;
#59 = DIRECTION ( 'NONE',  ( -3.491481338843133355E-15, 1.224646799147353207E-16, -1.000000000000000000 ) ) ;
#60 = EDGE_CURVE ( 'NONE', #218, #218, #2, .T. ) ;
#61 = CLOSED_SHELL ( 'NONE', ( #243, #140, #95, #25, #136 ) ) ;
#62 = LOCAL_TIME ( 10, 35, 53.00000000000000000, #58 ) ;
#63 = COORDINATED_UNIVERSAL_TIME_OFFSET ( 1, 0, .AHEAD. ) ;
#64 = EDGE_LOOP ( 'NONE', ( #34 ) ) ;
#65 = APPLICATION_CONTEXT ( 'configuration controlled 3d designs of mechanical parts and assemblies' ) ;
#66 = ORIENTED_EDGE ( 'NONE', *, *, #236, .F. ) ;
#67 = FACE_BOUND ( 'NONE', #201, .T. ) ;
#68 = AXIS2_PLACEMENT_3D ( 'NONE', #253, #158, #42 ) ;
#69 = PRODUCT_DEFINITION_FORMATION_WITH_SPECIFIED_SOURCE ( 'ANY', '', #18, .NOT_KNOWN. ) ;
#70 = CC_DESIGN_PERSON_AND_ORGANIZATION_ASSIGNMENT ( #107, #200, ( #163 ) ) ;
#71 = CYLINDRICAL_SURFACE ( 'NONE', #92, 1.819999999999994955 ) ;
#72 = DIRECTION ( 'NONE',  ( -3.491481338843133355E-15, 1.224646799147353207E-16, -1.000000000000000000 ) ) ;
#73 = AXIS2_PLACEMENT_3D ( 'NONE', #57, #116, #20 ) ;
#74 = DIRECTION ( 'NONE',  ( -3.491481338843133355E-15, 1.224646799147353207E-16, -1.000000000000000000 ) ) ;
#75 = FACE_OUTER_BOUND ( 'NONE', #269, .T. ) ;
#76 = VERTEX_POINT ( 'NONE', #99 ) ;
#77 = AXIS2_PLACEMENT_3D ( 'NONE', #49, #240, #129 ) ;
#78 = EDGE_CURVE ( 'NONE', #4, #4, #260, .T. ) ;
#79 = CARTESIAN_POINT ( 'NONE',  ( 8.728703347107833388E-16, 1.819999999999994955, 0.2500000000000000000 ) ) ;
#80 =( NAMED_UNIT ( * ) PLANE_ANGLE_UNIT ( ) SI_UNIT ( $, .RADIAN. ) );
#81 = DIRECTION ( 'NONE',  ( 1.000000000000000000, 0.0000000000000000000, 0.0000000000000000000 ) ) ;
#82 = ORIENTED_EDGE ( 'NONE', *, *, #178, .T. ) ;
#83 = APPROVAL_DATE_TIME ( #35, #166 ) ;
#84 = DIRECTION ( 'NONE',  ( 0.0000000000000000000, 1.000000000000000000, 0.0000000000000000000 ) ) ;
#85 = PERSON_AND_ORGANIZATION ( #146, #52 ) ;
#86 = DIRECTION ( 'NONE',  ( 0.0000000000000000000, 1.000000000000000000, 0.0000000000000000000 ) ) ;
#87 = CONICAL_SURFACE ( 'NONE', #257, 1.819999999999994955, 0.5235987755983008141 ) ;
#88 = CALENDAR_DATE ( 2021, 2, 12 ) ;
#89 = DIRECTION ( 'NONE',  ( -3.491481338843133355E-15, 1.224646799147353207E-16, -1.000000000000000000 ) ) ;
#90 = EDGE_CURVE ( 'NONE', #29, #29, #28, .T. ) ;
#91 = DIRECTION ( 'NONE',  ( -3.491481338843133355E-15, 1.224646799147353207E-16, -1.000000000000000000 ) ) ;
#92 = AXIS2_PLACEMENT_3D ( 'NONE', #237, #255, #44 ) ;
#93 = CARTESIAN_POINT ( 'NONE',  ( 3.491481338843133355E-14, -1.224646799147353256E-15, 10.00000000000000000 ) ) ;
#94 = DIRECTION ( 'NONE',  ( 0.0000000000000000000, 1.000000000000000000, 0.0000000000000000000 ) ) ;
#95 = ADVANCED_FACE ( 'NONE', ( #40, #293 ), #36, .T. ) ;
#96 = AXIS2_PLACEMENT_3D ( 'NONE', #235, #143, #190 ) ;
#97 = ADVANCED_BREP_SHAPE_REPRESENTATION ( '321590', ( #10, #3, #265 ), #176 ) ;
#98 = APPROVAL_PERSON_ORGANIZATION ( #203, #166, #230 ) ;
#99 = CARTESIAN_POINT ( 'NONE',  ( 3.491481338843133355E-14, 1.819999999999993623, 10.00000000000000000 ) ) ;
#100 = CARTESIAN_POINT ( 'NONE',  ( 3.684998877164891108E-14, 1.499999999999991562, 10.55425625842204163 ) ) ;
#101 = ADVANCED_FACE ( 'NONE', ( #134, #138 ), #127, .T. ) ;
#102 = CARTESIAN_POINT ( 'NONE',  ( 2.433562493173664138E-13, 1.499999999999992673, 69.70000000000001705 ) ) ;
#103 = CARTESIAN_POINT ( 'NONE',  ( 2.433562493173664138E-13, 1.499999999999992673, 69.70000000000001705 ) ) ;
#104 = AXIS2_PLACEMENT_3D ( 'NONE', #160, #15, #111 ) ;
#105 = FACE_OUTER_BOUND ( 'NONE', #33, .T. ) ;
#106 = CC_DESIGN_PERSON_AND_ORGANIZATION_ASSIGNMENT ( #231, #290, ( #220 ) ) ;
#107 = PERSON_AND_ORGANIZATION ( #146, #52 ) ;
#108 = ORIENTED_EDGE ( 'NONE', *, *, #50, .T. ) ;
#109 = DATE_TIME_ROLE ( 'creation_date' ) ;
#110 = ORIENTED_EDGE ( 'NONE', *, *, #206, .F. ) ;
#111 = DIRECTION ( 'NONE',  ( 4.232813064587343219E-31, 1.000000000000000000, 1.191430958775282884E-16 ) ) ;
#112 = CC_DESIGN_DATE_AND_TIME_ASSIGNMENT ( #270, #132, ( #163 ) ) ;
#113 = DIRECTION ( 'NONE',  ( -3.491481338843133355E-15, 1.224646799147353207E-16, -1.000000000000000000 ) ) ;
#114 = PERSON_AND_ORGANIZATION_ROLE ( 'creator' ) ;
#115 = ORIENTED_EDGE ( 'NONE', *, *, #187, .T. ) ;
#116 = DIRECTION ( 'NONE',  ( -3.491481338843133355E-15, 1.224646799147353207E-16, -1.000000000000000000 ) ) ;
#117 = CIRCLE ( 'NONE', #51, 1.500000000000001110 ) ;
#118 = DIRECTION ( 'NONE',  ( 0.0000000000000000000, 1.000000000000000000, 0.0000000000000000000 ) ) ;
#119 = FACE_OUTER_BOUND ( 'NONE', #38, .T. ) ;
#120 = CC_DESIGN_APPROVAL ( #30, ( #163 ) ) ;
#121 = DIRECTION ( 'NONE',  ( -3.491481338843133355E-15, 1.224646799147353207E-16, -1.000000000000000000 ) ) ;
#122 = CC_DESIGN_PERSON_AND_ORGANIZATION_ASSIGNMENT ( #208, #180, ( #69 ) ) ;
#123 = VERTEX_POINT ( 'NONE', #103 ) ;
#124 = VERTEX_POINT ( 'NONE', #172 ) ;
#125 = CC_DESIGN_PERSON_AND_ORGANIZATION_ASSIGNMENT ( #21, #137, ( #18 ) ) ;
#126 =( LENGTH_UNIT ( ) NAMED_UNIT ( * ) SI_UNIT ( .MILLI., .METRE. ) );
#127 = CONICAL_SURFACE ( 'NONE', #68, 1.569999999999994067, 0.7853981633974500554 ) ;
#128 = LOCAL_TIME ( 10, 35, 53.00000000000000000, #41 ) ;
#129 = DIRECTION ( 'NONE',  ( 4.275831445896958607E-31, 1.000000000000000000, 1.224646799147353207E-16 ) ) ;
#130 = ORIENTED_EDGE ( 'NONE', *, *, #159, .T. ) ;
#131 = DIRECTION ( 'NONE',  ( 0.0000000000000000000, 1.000000000000000000, 0.0000000000000000000 ) ) ;
#132 = DATE_TIME_ROLE ( 'classification_date' ) ;
#133 = AXIS2_PLACEMENT_3D ( 'NONE', #164, #72, #165 ) ;
#134 = FACE_OUTER_BOUND ( 'NONE', #173, .T. ) ;
#135 = APPROVAL_PERSON_ORGANIZATION ( #292, #263, #39 ) ;
#136 = ADVANCED_FACE ( 'NONE', ( #272 ), #141, .F. ) ;
#137 = PERSON_AND_ORGANIZATION_ROLE ( 'design_owner' ) ;
#138 = FACE_BOUND ( 'NONE', #204, .T. ) ;
#139 = APPROVAL_STATUS ( 'not_yet_approved' ) ;
#140 = ADVANCED_FACE ( 'NONE', ( #67, #119 ), #241, .T. ) ;
#141 = PLANE ( 'NONE',  #133 ) ;
#142 = DIRECTION ( 'NONE',  ( 4.275831445896958607E-31, 1.000000000000000000, 1.224646799147353207E-16 ) ) ;
#143 = DIRECTION ( 'NONE',  ( -3.491481338843133355E-15, 1.224646799147353207E-16, -1.000000000000000000 ) ) ;
#144 = CIRCLE ( 'NONE', #16, 1.500000000000001110 ) ;
#145 = FACE_BOUND ( 'NONE', #22, .T. ) ;
#146 = PERSON ( 'UNSPECIFIED', 'UNSPECIFIED', 'UNSPECIFIED', ('UNSPECIFIED'), ('UNSPECIFIED'), ('UNSPECIFIED') ) ;
#147 = DIRECTION ( 'NONE',  ( -4.275831445896958607E-31, -1.000000000000000000, -1.224646799147353207E-16 ) ) ;
#148 = VERTEX_POINT ( 'NONE', #100 ) ;
#149 = AXIS2_PLACEMENT_3D ( 'NONE', #93, #24, #94 ) ;
#150 = LOCAL_TIME ( 10, 35, 53.00000000000000000, #152 ) ;
#151 = CARTESIAN_POINT ( 'NONE',  ( 0.0000000000000000000, 0.0000000000000000000, 0.0000000000000000000 ) ) ;
#152 = COORDINATED_UNIVERSAL_TIME_OFFSET ( 1, 0, .AHEAD. ) ;
#153 = CARTESIAN_POINT ( 'NONE',  ( 3.491481338843133355E-14, -1.224646799147353256E-15, 10.00000000000000000 ) ) ;
#154 = EDGE_CURVE ( 'NONE', #5, #5, #144, .T. ) ;
#155 = APPROVAL_STATUS ( 'not_yet_approved' ) ;
#156 = DIRECTION ( 'NONE',  ( 4.275831445896958607E-31, 1.000000000000000000, 1.224646799147353454E-16 ) ) ;
#157 = SHAPE_DEFINITION_REPRESENTATION ( #179, #97 ) ;
#158 = DIRECTION ( 'NONE',  ( 3.491481338843133355E-15, -1.224646799147353207E-16, 1.000000000000000000 ) ) ;
#159 = EDGE_CURVE ( 'NONE', #174, #174, #48, .T. ) ;
#160 = CARTESIAN_POINT ( 'NONE',  ( 8.728703347107825500E-16, -3.061616997868380553E-17, 0.2499999999999997780 ) ) ;
#161 = CARTESIAN_POINT ( 'NONE',  ( 3.491481338843133355E-14, -1.224646799147353256E-15, 10.00000000000000000 ) ) ;
#162 = CONICAL_SURFACE ( 'NONE', #217, 1.200000000000001510, 0.7853981633974566057 ) ;
#163 = SECURITY_CLASSIFICATION ( '', '', #295 ) ;
#164 = CARTESIAN_POINT ( 'NONE',  ( 2.444036937190193601E-13, 8.998558695971026591E-33, 70.00000000000000000 ) ) ;
#165 = DIRECTION ( 'NONE',  ( 4.275831445896958607E-31, 1.000000000000000000, 1.224646799147353207E-16 ) ) ;
#166 = APPROVAL ( #139, 'UNSPECIFIED' ) ;
#167 = AXIS2_PLACEMENT_3D ( 'NONE', #161, #303, #211 ) ;
#168 = CIRCLE ( 'NONE', #149, 1.819999999999994955 ) ;
#169 = FACE_OUTER_BOUND ( 'NONE', #209, .T. ) ;
#170 =( NAMED_UNIT ( * ) SI_UNIT ( $, .STERADIAN. ) SOLID_ANGLE_UNIT ( ) );
#171 = PLANE ( 'NONE',  #175 ) ;
#172 = CARTESIAN_POINT ( 'NONE',  ( 0.0000000000000000000, 1.569999999999994067, 0.0000000000000000000 ) ) ;
#173 = EDGE_LOOP ( 'NONE', ( #291 ) ) ;
#174 = VERTEX_POINT ( 'NONE', #47 ) ;
#175 = AXIS2_PLACEMENT_3D ( 'NONE', #194, #246, #147 ) ;
#176 =( GEOMETRIC_REPRESENTATION_CONTEXT ( 3 ) GLOBAL_UNCERTAINTY_ASSIGNED_CONTEXT ( ( #215 ) ) GLOBAL_UNIT_ASSIGNED_CONTEXT ( ( #126, #80, #170 ) ) REPRESENTATION_CONTEXT ( 'NONE', 'WORKASPACE' ) );
#177 = DIRECTION ( 'NONE',  ( -3.491481338843133355E-15, 1.224646799147353207E-16, -1.000000000000000000 ) ) ;
#178 = EDGE_CURVE ( 'NONE', #262, #262, #238, .T. ) ;
#179 = PRODUCT_DEFINITION_SHAPE ( 'NONE', 'NONE',  #220 ) ;
#180 = PERSON_AND_ORGANIZATION_ROLE ( 'design_supplier' ) ;
#181 = ORIENTED_EDGE ( 'NONE', *, *, #154, .T. ) ;
#182 = APPROVAL_ROLE ( '' ) ;
#183 = FACE_OUTER_BOUND ( 'NONE', #245, .T. ) ;
#184 = APPROVAL_DATE_TIME ( #12, #263 ) ;
#185 = CONICAL_SURFACE ( 'NONE', #223, 1.200000000000001510, 0.7853981633974566057 ) ;
#186 = EDGE_LOOP ( 'NONE', ( #252 ) ) ;
#187 = EDGE_CURVE ( 'NONE', #148, #148, #191, .T. ) ;
#188 = APPROVAL_STATUS ( 'not_yet_approved' ) ;
#189 = CARTESIAN_POINT ( 'NONE',  ( 2.444036937190193601E-13, -8.572527594031472993E-15, 70.00000000000000000 ) ) ;
#190 = DIRECTION ( 'NONE',  ( 0.0000000000000000000, 1.000000000000000000, 0.0000000000000000000 ) ) ;
#191 = CIRCLE ( 'NONE', #9, 1.499999999999992895 ) ;
#192 = ADVANCED_FACE ( 'NONE', ( #169, #276 ), #71, .T. ) ;
#193 = CYLINDRICAL_SURFACE ( 'NONE', #214, 1.499999999999996891 ) ;
#194 = CARTESIAN_POINT ( 'NONE',  ( 3.491481338843133355E-14, 1.364781402222285059E-32, 10.00000000000000000 ) ) ;
#195 = FACE_BOUND ( 'NONE', #248, .T. ) ;
#196 = ORIENTED_EDGE ( 'NONE', *, *, #60, .T. ) ;
#197 = AXIS2_PLACEMENT_3D ( 'NONE', #43, #91, #118 ) ;
#198 = CARTESIAN_POINT ( 'NONE',  ( 2.444036937190193601E-13, -8.572527594031472993E-15, 70.00000000000000000 ) ) ;
#199 = ORIENTED_EDGE ( 'NONE', *, *, #78, .F. ) ;
#200 = PERSON_AND_ORGANIZATION_ROLE ( 'classification_officer' ) ;
#201 = EDGE_LOOP ( 'NONE', ( #115 ) ) ;
#202 = AXIS2_PLACEMENT_3D ( 'NONE', #153, #54, #86 ) ;
#203 = PERSON_AND_ORGANIZATION ( #146, #52 ) ;
#204 = EDGE_LOOP ( 'NONE', ( #66 ) ) ;
#205 = ORIENTED_EDGE ( 'NONE', *, *, #78, .T. ) ;
#206 = EDGE_CURVE ( 'NONE', #76, #76, #168, .T. ) ;
#207 = ORIENTED_EDGE ( 'NONE', *, *, #236, .T. ) ;
#208 = PERSON_AND_ORGANIZATION ( #146, #52 ) ;
#209 = EDGE_LOOP ( 'NONE', ( #289 ) ) ;
#210 = CARTESIAN_POINT ( 'NONE',  ( 2.444036937190193601E-13, -8.572527594031472993E-15, 70.00000000000000000 ) ) ;
#211 = DIRECTION ( 'NONE',  ( 0.0000000000000000000, 1.000000000000000000, 0.0000000000000000000 ) ) ;
#212 = CARTESIAN_POINT ( 'NONE',  ( -6.713055370058200262E-31, 2.354622858779107905E-32, -1.922695474661337320E-16 ) ) ;
#213 = AXIS2_PLACEMENT_3D ( 'NONE', #151, #89, #156 ) ;
#214 = AXIS2_PLACEMENT_3D ( 'NONE', #219, #282, #242 ) ;
#215 = UNCERTAINTY_MEASURE_WITH_UNIT (LENGTH_MEASURE( 1.000000000000000082E-05 ), #126, 'distance_accuracy_value', 'NONE');
#216 = CARTESIAN_POINT ( 'NONE',  ( 3.684998877164891108E-14, -1.292523614425747409E-15, 10.55425625842204163 ) ) ;
#217 = AXIS2_PLACEMENT_3D ( 'NONE', #189, #59, #84 ) ;
#218 = VERTEX_POINT ( 'NONE', #284 ) ;
#219 = CARTESIAN_POINT ( 'NONE',  ( 0.0000000000000000000, 0.0000000000000000000, 0.0000000000000000000 ) ) ;
#220 = PRODUCT_DEFINITION ( 'UNKNOWN', '', #69, #55 ) ;
#221 = FACE_OUTER_BOUND ( 'NONE', #229, .T. ) ;
#222 = EDGE_LOOP ( 'NONE', ( #225 ) ) ;
#223 = AXIS2_PLACEMENT_3D ( 'NONE', #198, #279, #31 ) ;
#224 = CARTESIAN_POINT ( 'NONE',  ( 3.491481338843133355E-14, -1.224646799147353256E-15, 10.00000000000000000 ) ) ;
#225 = ORIENTED_EDGE ( 'NONE', *, *, #60, .F. ) ;
#226 = APPLICATION_PROTOCOL_DEFINITION ( 'international standard', 'config_control_design', 1994, #65 ) ;
#227 = EDGE_LOOP ( 'NONE', ( #110 ) ) ;
#228 = DATE_AND_TIME ( #286, #296 ) ;
#229 = EDGE_LOOP ( 'NONE', ( #261 ) ) ;
#230 = APPROVAL_ROLE ( '' ) ;
#231 = PERSON_AND_ORGANIZATION ( #146, #52 ) ;
#232 = ORIENTED_EDGE ( 'NONE', *, *, #187, .F. ) ;
#233 = CC_DESIGN_APPROVAL ( #263, ( #220 ) ) ;
#234 = FACE_BOUND ( 'NONE', #287, .T. ) ;
#235 = CARTESIAN_POINT ( 'NONE',  ( 2.444036937190193601E-13, -8.572527594031472993E-15, 70.00000000000000000 ) ) ;
#236 = EDGE_CURVE ( 'NONE', #124, #124, #264, .T. ) ;
#237 = CARTESIAN_POINT ( 'NONE',  ( 0.0000000000000000000, 0.0000000000000000000, 0.0000000000000000000 ) ) ;
#238 = CIRCLE ( 'NONE', #96, 1.200000000000001510 ) ;
#239 = ADVANCED_FACE ( 'NONE', ( #75 ), #27, .T. ) ;
#240 = DIRECTION ( 'NONE',  ( -3.491481338843133355E-15, 1.224646799147353207E-16, -1.000000000000000000 ) ) ;
#241 = CONICAL_SURFACE ( 'NONE', #167, 1.819999999999994955, 0.5235987755983008141 ) ;
#242 = DIRECTION ( 'NONE',  ( 4.275831445896958607E-31, 1.000000000000000000, 1.224646799147353454E-16 ) ) ;
#243 = ADVANCED_FACE ( 'NONE', ( #1 ), #171, .F. ) ;
#244 = EDGE_LOOP ( 'NONE', ( #205 ) ) ;
#245 = EDGE_LOOP ( 'NONE', ( #17 ) ) ;
#246 = DIRECTION ( 'NONE',  ( 3.491481338843133355E-15, -1.224646799147353207E-16, 1.000000000000000000 ) ) ;
#247 = CALENDAR_DATE ( 2021, 2, 12 ) ;
#248 = EDGE_LOOP ( 'NONE', ( #196 ) ) ;
#249 = COORDINATED_UNIVERSAL_TIME_OFFSET ( 1, 0, .AHEAD. ) ;
#250 = PLANE ( 'NONE',  #73 ) ;
#251 = APPROVAL_DATE_TIME ( #228, #30 ) ;
#252 = ORIENTED_EDGE ( 'NONE', *, *, #178, .F. ) ;
#253 = CARTESIAN_POINT ( 'NONE',  ( -6.713055370058200262E-31, 2.354622858779107905E-32, -1.922695474661337320E-16 ) ) ;
#254 = CC_DESIGN_PERSON_AND_ORGANIZATION_ASSIGNMENT ( #85, #114, ( #69 ) ) ;
#255 = DIRECTION ( 'NONE',  ( -3.491481338843133355E-15, 1.224646799147353207E-16, -1.000000000000000000 ) ) ;
#256 = ADVANCED_FACE ( 'NONE', ( #32, #195 ), #185, .T. ) ;
#257 = AXIS2_PLACEMENT_3D ( 'NONE', #224, #121, #11 ) ;
#258 = APPROVAL_PERSON_ORGANIZATION ( #273, #30, #182 ) ;
#259 = CARTESIAN_POINT ( 'NONE',  ( 3.491481338843133355E-14, 1.819999999999993623, 10.00000000000000000 ) ) ;
#260 = CIRCLE ( 'NONE', #202, 1.819999999999994955 ) ;
#261 = ORIENTED_EDGE ( 'NONE', *, *, #159, .F. ) ;
#262 = VERTEX_POINT ( 'NONE', #281 ) ;
#263 = APPROVAL ( #188, 'UNSPECIFIED' ) ;
#264 = CIRCLE ( 'NONE', #294, 1.569999999999994067 ) ;
#265 = AXIS2_PLACEMENT_3D ( 'NONE', #56, #267, #81 ) ;
#266 = CALENDAR_DATE ( 2021, 2, 12 ) ;
#267 = DIRECTION ( 'NONE',  ( 0.0000000000000000000, 0.0000000000000000000, 1.000000000000000000 ) ) ;
#268 = CARTESIAN_POINT ( 'NONE',  ( 2.433562493173664138E-13, -8.535788190057053710E-15, 69.70000000000001705 ) ) ;
#269 = EDGE_LOOP ( 'NONE', ( #207 ) ) ;
#270 = DATE_AND_TIME ( #88, #128 ) ;
#271 = CC_DESIGN_APPROVAL ( #166, ( #69 ) ) ;
#272 = FACE_OUTER_BOUND ( 'NONE', #186, .T. ) ;
#273 = PERSON_AND_ORGANIZATION ( #146, #52 ) ;
#274 = EDGE_LOOP ( 'NONE', ( #181 ) ) ;
#275 = AXIS2_PLACEMENT_3D ( 'NONE', #210, #113, #297 ) ;
#276 = FACE_OUTER_BOUND ( 'NONE', #6, .T. ) ;
#277 = DIRECTION ( 'NONE',  ( -3.491481338843133355E-15, 1.224646799147353207E-16, -1.000000000000000000 ) ) ;
#278 = CARTESIAN_POINT ( 'NONE',  ( 2.433562493173664138E-13, -8.535788190057053710E-15, 69.70000000000001705 ) ) ;
#279 = DIRECTION ( 'NONE',  ( -3.491481338843133355E-15, 1.224646799147353207E-16, -1.000000000000000000 ) ) ;
#280 = ADVANCED_FACE ( 'NONE', ( #145, #8 ), #87, .T. ) ;
#281 = CARTESIAN_POINT ( 'NONE',  ( 2.444036937190193601E-13, 1.199999999999992628, 70.00000000000000000 ) ) ;
#282 = DIRECTION ( 'NONE',  ( -3.491481338843133355E-15, 1.224646799147353207E-16, -1.000000000000000000 ) ) ;
#283 = CC_DESIGN_SECURITY_CLASSIFICATION ( #163, ( #69 ) ) ;
#284 = CARTESIAN_POINT ( 'NONE',  ( 2.444036937190193601E-13, 1.199999999999992628, 70.00000000000000000 ) ) ;
#285 = ADVANCED_FACE ( 'NONE', ( #221, #105 ), #193, .T. ) ;
#286 = CALENDAR_DATE ( 2021, 2, 12 ) ;
#287 = EDGE_LOOP ( 'NONE', ( #82 ) ) ;
#288 = CALENDAR_DATE ( 2021, 2, 12 ) ;
#289 = ORIENTED_EDGE ( 'NONE', *, *, #206, .T. ) ;
#290 = PERSON_AND_ORGANIZATION_ROLE ( 'creator' ) ;
#291 = ORIENTED_EDGE ( 'NONE', *, *, #90, .T. ) ;
#292 = PERSON_AND_ORGANIZATION ( #146, #52 ) ;
#293 = FACE_OUTER_BOUND ( 'NONE', #274, .T. ) ;
#294 = AXIS2_PLACEMENT_3D ( 'NONE', #212, #301, #142 ) ;
#295 = SECURITY_CLASSIFICATION_LEVEL ( 'unclassified' ) ;
#296 = LOCAL_TIME ( 10, 35, 53.00000000000000000, #63 ) ;
#297 = DIRECTION ( 'NONE',  ( 0.0000000000000000000, 1.000000000000000000, 0.0000000000000000000 ) ) ;
#298 = FACE_OUTER_BOUND ( 'NONE', #222, .T. ) ;
#299 = APPLICATION_CONTEXT ( 'configuration controlled 3d designs of mechanical parts and assemblies' ) ;
#300 = DIRECTION ( 'NONE',  ( 0.0000000000000000000, 1.000000000000000000, 0.0000000000000000000 ) ) ;
#301 = DIRECTION ( 'NONE',  ( -3.491481338843133355E-15, 1.224646799147353207E-16, -1.000000000000000000 ) ) ;
#302 = PRODUCT_RELATED_PRODUCT_CATEGORY ( 'detail', '', ( #18 ) ) ;
#303 = DIRECTION ( 'NONE',  ( -3.491481338843133355E-15, 1.224646799147353207E-16, -1.000000000000000000 ) ) ;
ENDSEC;
END-ISO-10303-21;
