ISO-10303-21;
HEADER;
FILE_DESCRIPTION (( 'STEP AP203' ),
    '1' );
FILE_NAME ('321589.step',
    '2021-12-02T09:35:52',
    ( '' ),
    ( '' ),
    'SwSTEP 2.0',
    'SolidWorks 2019',
    '' );
FILE_SCHEMA (( 'CONFIG_CONTROL_DESIGN' ));
ENDSEC;

DATA;
#1 = CARTESIAN_POINT ( 'NONE',  ( 3.491481338843133355E-14, 1.361032002765629840E-32, 10.00000000000000000 ) ) ;
#2 = CIRCLE ( 'NONE', #186, 1.499999999999992895 ) ;
#3 = CC_DESIGN_APPROVAL ( #168, ( #221 ) ) ;
#4 = CARTESIAN_POINT ( 'NONE',  ( 2.444036937190193601E-13, -8.572527594031472993E-15, 70.00000000000000000 ) ) ;
#5 = DIRECTION ( 'NONE',  ( -3.491481338843133355E-15, 1.224646799147353207E-16, -1.000000000000000000 ) ) ;
#6 = DIRECTION ( 'NONE',  ( 0.0000000000000000000, 1.000000000000000000, 0.0000000000000000000 ) ) ;
#7 = EDGE_CURVE ( 'NONE', #34, #34, #2, .T. ) ;
#8 = FACE_BOUND ( 'NONE', #143, .T. ) ;
#9 = CIRCLE ( 'NONE', #271, 1.814999999999995062 ) ;
#10 = FACE_OUTER_BOUND ( 'NONE', #91, .T. ) ;
#11 = VERTEX_POINT ( 'NONE', #102 ) ;
#12 = COORDINATED_UNIVERSAL_TIME_OFFSET ( 1, 0, .AHEAD. ) ;
#13 = EDGE_CURVE ( 'NONE', #11, #11, #93, .T. ) ;
#14 = DESIGN_CONTEXT ( 'detailed design', #213, 'design' ) ;
#15 = APPROVAL_STATUS ( 'not_yet_approved' ) ;
#16 = EDGE_LOOP ( 'NONE', ( #163 ) ) ;
#17 = AXIS2_PLACEMENT_3D ( 'NONE', #240, #212, #164 ) ;
#18 = DATE_AND_TIME ( #200, #54 ) ;
#19 = EDGE_LOOP ( 'NONE', ( #250 ) ) ;
#20 = ORIENTED_EDGE ( 'NONE', *, *, #152, .T. ) ;
#21 = MANIFOLD_SOLID_BREP ( 'Corps-Déplacer/Copier1[1]', #165 ) ;
#22 = DIRECTION ( 'NONE',  ( 0.0000000000000000000, 1.000000000000000000, 0.0000000000000000000 ) ) ;
#23 = ORGANIZATION ( 'UNSPECIFIED', 'UNSPECIFIED', '' ) ;
#24 = ORIENTED_EDGE ( 'NONE', *, *, #13, .F. ) ;
#25 = CARTESIAN_POINT ( 'NONE',  ( 2.433562493173664138E-13, -8.535788190057053710E-15, 69.70000000000001705 ) ) ;
#26 = PRODUCT_RELATED_PRODUCT_CATEGORY ( 'detail', '', ( #145 ) ) ;
#27 = EDGE_LOOP ( 'NONE', ( #71 ) ) ;
#28 = AXIS2_PLACEMENT_3D ( 'NONE', #303, #45, #184 ) ;
#29 = CONICAL_SURFACE ( 'NONE', #166, 1.814999999999995062, 0.5235987755983001479 ) ;
#30 = CARTESIAN_POINT ( 'NONE',  ( 8.728703347107825500E-16, -3.061616997868380553E-17, 0.2499999999999997780 ) ) ;
#31 = ADVANCED_FACE ( 'NONE', ( #44 ), #117, .F. ) ;
#32 = DIRECTION ( 'NONE',  ( -3.491481338843133355E-15, 1.224646799147353207E-16, -1.000000000000000000 ) ) ;
#33 = DIRECTION ( 'NONE',  ( 0.0000000000000000000, 1.000000000000000000, 0.0000000000000000000 ) ) ;
#34 = VERTEX_POINT ( 'NONE', #219 ) ;
#35 = PRODUCT_DEFINITION ( 'UNKNOWN', '', #221, #14 ) ;
#36 = CIRCLE ( 'NONE', #98, 1.499999999999992895 ) ;
#37 = PERSON_AND_ORGANIZATION_ROLE ( 'creator' ) ;
#38 = CARTESIAN_POINT ( 'NONE',  ( 3.491481338843133355E-14, 1.814999999999993729, 10.00000000000000000 ) ) ;
#39 = EDGE_LOOP ( 'NONE', ( #206 ) ) ;
#40 = VERTEX_POINT ( 'NONE', #244 ) ;
#41 = CARTESIAN_POINT ( 'NONE',  ( 8.728703347107833388E-16, 1.814999999999995062, 0.2500000000000000000 ) ) ;
#42 = ORIENTED_EDGE ( 'NONE', *, *, #277, .T. ) ;
#43 = PERSON_AND_ORGANIZATION_ROLE ( 'design_supplier' ) ;
#44 = FACE_OUTER_BOUND ( 'NONE', #139, .T. ) ;
#45 = DIRECTION ( 'NONE',  ( -3.491481338843133355E-15, 1.224646799147353207E-16, -1.000000000000000000 ) ) ;
#46 = ORIENTED_EDGE ( 'NONE', *, *, #176, .F. ) ;
#47 = AXIS2_PLACEMENT_3D ( 'NONE', #120, #100, #6 ) ;
#48 = APPROVAL_PERSON_ORGANIZATION ( #198, #168, #202 ) ;
#49 = COORDINATED_UNIVERSAL_TIME_OFFSET ( 1, 0, .AHEAD. ) ;
#50 = CARTESIAN_POINT ( 'NONE',  ( 3.491481338843133355E-14, -1.224646799147353256E-15, 10.00000000000000000 ) ) ;
#51 = ORIENTED_EDGE ( 'NONE', *, *, #132, .F. ) ;
#52 = DIRECTION ( 'NONE',  ( -3.491481338843133355E-15, 1.224646799147353207E-16, -1.000000000000000000 ) ) ;
#53 = CC_DESIGN_PERSON_AND_ORGANIZATION_ASSIGNMENT ( #129, #275, ( #221 ) ) ;
#54 = LOCAL_TIME ( 10, 35, 52.00000000000000000, #104 ) ;
#55 = DIRECTION ( 'NONE',  ( 4.275831445896958607E-31, 1.000000000000000000, 1.224646799147353207E-16 ) ) ;
#56 = FACE_OUTER_BOUND ( 'NONE', #27, .T. ) ;
#57 = CC_DESIGN_APPROVAL ( #296, ( #35 ) ) ;
#58 = DIRECTION ( 'NONE',  ( 4.275831445896958607E-31, 1.000000000000000000, 1.224646799147353207E-16 ) ) ;
#59 =( NAMED_UNIT ( * ) PLANE_ANGLE_UNIT ( ) SI_UNIT ( $, .RADIAN. ) );
#60 = APPROVAL_DATE_TIME ( #268, #168 ) ;
#61 = CARTESIAN_POINT ( 'NONE',  ( 2.444036937190193601E-13, 1.199999999999992628, 70.00000000000000000 ) ) ;
#62 = PERSON_AND_ORGANIZATION_ROLE ( 'design_owner' ) ;
#63 = APPROVAL_DATE_TIME ( #18, #296 ) ;
#64 = EDGE_LOOP ( 'NONE', ( #42 ) ) ;
#65 = PERSON_AND_ORGANIZATION ( #88, #23 ) ;
#66 = ORIENTED_EDGE ( 'NONE', *, *, #13, .T. ) ;
#67 = DIRECTION ( 'NONE',  ( 3.491481338843133355E-15, -1.224646799147353207E-16, 1.000000000000000000 ) ) ;
#68 = DIRECTION ( 'NONE',  ( 0.0000000000000000000, 1.000000000000000000, 0.0000000000000000000 ) ) ;
#69 = PERSON_AND_ORGANIZATION ( #88, #23 ) ;
#70 = EDGE_LOOP ( 'NONE', ( #111 ) ) ;
#71 = ORIENTED_EDGE ( 'NONE', *, *, #242, .T. ) ;
#72 = APPLICATION_CONTEXT ( 'configuration controlled 3d designs of mechanical parts and assemblies' ) ;
#73 = DIRECTION ( 'NONE',  ( -3.491481338843133355E-15, 1.224646799147353207E-16, -1.000000000000000000 ) ) ;
#74 = CONICAL_SURFACE ( 'NONE', #247, 1.564999999999994174, 0.7853981633974500554 ) ;
#75 = FACE_OUTER_BOUND ( 'NONE', #19, .T. ) ;
#76 = FACE_OUTER_BOUND ( 'NONE', #16, .T. ) ;
#77 = DIRECTION ( 'NONE',  ( -3.491481338843133355E-15, 1.224646799147353207E-16, -1.000000000000000000 ) ) ;
#78 = CONICAL_SURFACE ( 'NONE', #214, 1.200000000000001510, 0.7853981633974566057 ) ;
#79 = AXIS2_PLACEMENT_3D ( 'NONE', #193, #287, #124 ) ;
#80 = CARTESIAN_POINT ( 'NONE',  ( 3.681975165628614235E-14, 1.499999999999991562, 10.54559600438419942 ) ) ;
#81 = APPROVAL_STATUS ( 'not_yet_approved' ) ;
#82 = AXIS2_PLACEMENT_3D ( 'NONE', #118, #211, #58 ) ;
#83 = LOCAL_TIME ( 10, 35, 52.00000000000000000, #12 ) ;
#84 = CARTESIAN_POINT ( 'NONE',  ( 3.491481338843133355E-14, 1.814999999999993729, 10.00000000000000000 ) ) ;
#85 = ADVANCED_FACE ( 'NONE', ( #255, #115 ), #78, .T. ) ;
#86 = DIRECTION ( 'NONE',  ( -3.491481338843133355E-15, 1.224646799147353207E-16, -1.000000000000000000 ) ) ;
#87 = DIRECTION ( 'NONE',  ( 4.275831445896958607E-31, 1.000000000000000000, 1.224646799147353454E-16 ) ) ;
#88 = PERSON ( 'UNSPECIFIED', 'UNSPECIFIED', 'UNSPECIFIED', ('UNSPECIFIED'), ('UNSPECIFIED'), ('UNSPECIFIED') ) ;
#89 = CC_DESIGN_PERSON_AND_ORGANIZATION_ASSIGNMENT ( #232, #113, ( #294 ) ) ;
#90 = DATE_AND_TIME ( #302, #226 ) ;
#91 = EDGE_LOOP ( 'NONE', ( #105 ) ) ;
#92 = DIRECTION ( 'NONE',  ( -3.491481338843133355E-15, 1.224646799147353207E-16, -1.000000000000000000 ) ) ;
#93 = CIRCLE ( 'NONE', #207, 1.500000000000001110 ) ;
#94 = ADVANCED_FACE ( 'NONE', ( #95, #136 ), #203, .T. ) ;
#95 = FACE_OUTER_BOUND ( 'NONE', #231, .T. ) ;
#96 = DIRECTION ( 'NONE',  ( 0.0000000000000000000, 1.000000000000000000, 0.0000000000000000000 ) ) ;
#97 = FACE_BOUND ( 'NONE', #259, .T. ) ;
#98 = AXIS2_PLACEMENT_3D ( 'NONE', #301, #281, #234 ) ;
#99 = PLANE ( 'NONE',  #79 ) ;
#100 = DIRECTION ( 'NONE',  ( -3.491481338843133355E-15, 1.224646799147353207E-16, -1.000000000000000000 ) ) ;
#101 = PRODUCT_DEFINITION_SHAPE ( 'NONE', 'NONE',  #35 ) ;
#102 = CARTESIAN_POINT ( 'NONE',  ( 2.433562493173664138E-13, 1.499999999999992673, 69.70000000000001705 ) ) ;
#103 = PERSON_AND_ORGANIZATION ( #88, #23 ) ;
#104 = COORDINATED_UNIVERSAL_TIME_OFFSET ( 1, 0, .AHEAD. ) ;
#105 = ORIENTED_EDGE ( 'NONE', *, *, #256, .F. ) ;
#106 = APPROVAL_ROLE ( '' ) ;
#107 = CC_DESIGN_SECURITY_CLASSIFICATION ( #294, ( #221 ) ) ;
#108 = EDGE_LOOP ( 'NONE', ( #188 ) ) ;
#109 = ADVANCED_FACE ( 'NONE', ( #157 ), #112, .F. ) ;
#110 = DATE_AND_TIME ( #197, #83 ) ;
#111 = ORIENTED_EDGE ( 'NONE', *, *, #277, .F. ) ;
#112 = PLANE ( 'NONE',  #28 ) ;
#113 = PERSON_AND_ORGANIZATION_ROLE ( 'classification_officer' ) ;
#114 = CARTESIAN_POINT ( 'NONE',  ( 2.433562493173664138E-13, -8.535788190057053710E-15, 69.70000000000001705 ) ) ;
#115 = FACE_BOUND ( 'NONE', #64, .T. ) ;
#116 = COORDINATED_UNIVERSAL_TIME_OFFSET ( 1, 0, .AHEAD. ) ;
#117 = PLANE ( 'NONE',  #285 ) ;
#118 = CARTESIAN_POINT ( 'NONE',  ( 0.0000000000000000000, 0.0000000000000000000, 0.0000000000000000000 ) ) ;
#119 = ADVANCED_BREP_SHAPE_REPRESENTATION ( '321589', ( #21, #217, #252 ), #290 ) ;
#120 = CARTESIAN_POINT ( 'NONE',  ( 3.491481338843133355E-14, -1.224646799147353256E-15, 10.00000000000000000 ) ) ;
#121 = DIRECTION ( 'NONE',  ( 0.0000000000000000000, 1.000000000000000000, 0.0000000000000000000 ) ) ;
#122 = AXIS2_PLACEMENT_3D ( 'NONE', #299, #183, #87 ) ;
#123 = CIRCLE ( 'NONE', #127, 1.200000000000001510 ) ;
#124 = DIRECTION ( 'NONE',  ( 4.275831445896958607E-31, 1.000000000000000000, 1.224646799147353207E-16 ) ) ;
#125 = CARTESIAN_POINT ( 'NONE',  ( 2.444036937190193601E-13, 8.998558695971026591E-33, 70.00000000000000000 ) ) ;
#126 = ADVANCED_FACE ( 'NONE', ( #278, #138 ), #74, .T. ) ;
#127 = AXIS2_PLACEMENT_3D ( 'NONE', #264, #194, #288 ) ;
#128 = AXIS2_PLACEMENT_3D ( 'NONE', #30, #172, #151 ) ;
#129 = PERSON_AND_ORGANIZATION ( #88, #23 ) ;
#130 = ORIENTED_EDGE ( 'NONE', *, *, #7, .T. ) ;
#131 = ORIENTED_EDGE ( 'NONE', *, *, #132, .T. ) ;
#132 = EDGE_CURVE ( 'NONE', #196, #196, #36, .T. ) ;
#133 = AXIS2_PLACEMENT_3D ( 'NONE', #114, #279, #68 ) ;
#134 = MECHANICAL_CONTEXT ( 'NONE', #72, 'mechanical' ) ;
#135 = EDGE_LOOP ( 'NONE', ( #46 ) ) ;
#136 = FACE_OUTER_BOUND ( 'NONE', #276, .T. ) ;
#137 = EDGE_CURVE ( 'NONE', #189, #189, #270, .T. ) ;
#138 = FACE_BOUND ( 'NONE', #228, .T. ) ;
#139 = EDGE_LOOP ( 'NONE', ( #272 ) ) ;
#140 = AXIS2_PLACEMENT_3D ( 'NONE', #263, #77, #243 ) ;
#141 = SECURITY_CLASSIFICATION_LEVEL ( 'unclassified' ) ;
#142 = APPROVAL_STATUS ( 'not_yet_approved' ) ;
#143 = EDGE_LOOP ( 'NONE', ( #130 ) ) ;
#144 = CYLINDRICAL_SURFACE ( 'NONE', #82, 1.814999999999995062 ) ;
#145 = PRODUCT ( '321589', '321589', '', ( #134 ) ) ;
#146 = DIRECTION ( 'NONE',  ( 4.275831445896958607E-31, 1.000000000000000000, 1.224646799147353454E-16 ) ) ;
#147 = APPROVAL ( #142, 'UNSPECIFIED' ) ;
#148 = DIRECTION ( 'NONE',  ( -3.491481338843133355E-15, 1.224646799147353207E-16, -1.000000000000000000 ) ) ;
#149 = FACE_OUTER_BOUND ( 'NONE', #70, .T. ) ;
#150 = AXIS2_PLACEMENT_3D ( 'NONE', #286, #5, #146 ) ;
#151 = DIRECTION ( 'NONE',  ( 4.244473706638548270E-31, 1.000000000000000000, 1.194713137725077122E-16 ) ) ;
#152 = EDGE_CURVE ( 'NONE', #298, #298, #248, .T. ) ;
#153 = PERSON_AND_ORGANIZATION ( #88, #23 ) ;
#154 = PERSON_AND_ORGANIZATION ( #88, #23 ) ;
#155 = APPROVAL_DATE_TIME ( #208, #147 ) ;
#156 = CC_DESIGN_PERSON_AND_ORGANIZATION_ASSIGNMENT ( #154, #37, ( #35 ) ) ;
#157 = FACE_OUTER_BOUND ( 'NONE', #135, .T. ) ;
#158 = DIRECTION ( 'NONE',  ( 0.0000000000000000000, 1.000000000000000000, 0.0000000000000000000 ) ) ;
#159 = ORIENTED_EDGE ( 'NONE', *, *, #137, .T. ) ;
#160 = APPROVAL_PERSON_ORGANIZATION ( #65, #147, #280 ) ;
#161 = CALENDAR_DATE ( 2021, 2, 12 ) ;
#162 = CARTESIAN_POINT ( 'NONE',  ( 3.681975165628614235E-14, -1.291463039187022760E-15, 10.54559600438419942 ) ) ;
#163 = ORIENTED_EDGE ( 'NONE', *, *, #152, .F. ) ;
#164 = DIRECTION ( 'NONE',  ( 4.275831445896958607E-31, 1.000000000000000000, 1.224646799147353207E-16 ) ) ;
#165 = CLOSED_SHELL ( 'NONE', ( #31, #182, #94, #85, #222 ) ) ;
#166 = AXIS2_PLACEMENT_3D ( 'NONE', #261, #32, #266 ) ;
#167 = CC_DESIGN_APPROVAL ( #147, ( #294 ) ) ;
#168 = APPROVAL ( #81, 'UNSPECIFIED' ) ;
#169 = CARTESIAN_POINT ( 'NONE',  ( 2.444036937190193601E-13, -8.572527594031472993E-15, 70.00000000000000000 ) ) ;
#170 = FACE_OUTER_BOUND ( 'NONE', #199, .T. ) ;
#171 = UNCERTAINTY_MEASURE_WITH_UNIT (LENGTH_MEASURE( 1.000000000000000082E-05 ), #249, 'distance_accuracy_value', 'NONE');
#172 = DIRECTION ( 'NONE',  ( -3.491481338843133355E-15, 1.224646799147353207E-16, -1.000000000000000000 ) ) ;
#173 = CLOSED_SHELL ( 'NONE', ( #195, #201, #126, #267, #109, #251, #237 ) ) ;
#174 = LOCAL_TIME ( 10, 35, 52.00000000000000000, #116 ) ;
#175 = DATE_TIME_ROLE ( 'creation_date' ) ;
#176 = EDGE_CURVE ( 'NONE', #223, #223, #123, .T. ) ;
#177 = CALENDAR_DATE ( 2021, 2, 12 ) ;
#178 = APPLICATION_PROTOCOL_DEFINITION ( 'international standard', 'config_control_design', 1994, #72 ) ;
#179 = CIRCLE ( 'NONE', #140, 1.200000000000001510 ) ;
#180 = VERTEX_POINT ( 'NONE', #41 ) ;
#181 = EDGE_LOOP ( 'NONE', ( #24 ) ) ;
#182 = ADVANCED_FACE ( 'NONE', ( #8, #218 ), #29, .T. ) ;
#183 = DIRECTION ( 'NONE',  ( -3.491481338843133355E-15, 1.224646799147353207E-16, -1.000000000000000000 ) ) ;
#184 = DIRECTION ( 'NONE',  ( 4.275831445896958607E-31, 1.000000000000000000, 1.224646799147353207E-16 ) ) ;
#185 = DIRECTION ( 'NONE',  ( -4.275831445896958607E-31, -1.000000000000000000, -1.224646799147353207E-16 ) ) ;
#186 = AXIS2_PLACEMENT_3D ( 'NONE', #162, #86, #22 ) ;
#187 = CARTESIAN_POINT ( 'NONE',  ( -6.691676212828714672E-31, 2.347124059865798562E-32, -1.916572240665600690E-16 ) ) ;
#188 = ORIENTED_EDGE ( 'NONE', *, *, #260, .F. ) ;
#189 = VERTEX_POINT ( 'NONE', #284 ) ;
#190 = FACE_OUTER_BOUND ( 'NONE', #235, .T. ) ;
#191 = AXIS2_PLACEMENT_3D ( 'NONE', #169, #73, #33 ) ;
#192 = LOCAL_TIME ( 10, 35, 52.00000000000000000, #246 ) ;
#193 = CARTESIAN_POINT ( 'NONE',  ( -3.345838106414357336E-31, 1.173562029932899281E-32, -9.582861203328003452E-17 ) ) ;
#194 = DIRECTION ( 'NONE',  ( -3.491481338843133355E-15, 1.224646799147353207E-16, -1.000000000000000000 ) ) ;
#195 = ADVANCED_FACE ( 'NONE', ( #97, #76 ), #233, .T. ) ;
#196 = VERTEX_POINT ( 'NONE', #80 ) ;
#197 = CALENDAR_DATE ( 2021, 2, 12 ) ;
#198 = PERSON_AND_ORGANIZATION ( #88, #23 ) ;
#199 = EDGE_LOOP ( 'NONE', ( #159 ) ) ;
#200 = CALENDAR_DATE ( 2021, 2, 12 ) ;
#201 = ADVANCED_FACE ( 'NONE', ( #289, #10 ), #144, .T. ) ;
#202 = APPROVAL_ROLE ( '' ) ;
#203 = CYLINDRICAL_SURFACE ( 'NONE', #122, 1.499999999999996891 ) ;
#204 = ORIENTED_EDGE ( 'NONE', *, *, #7, .F. ) ;
#205 = ORIENTED_EDGE ( 'NONE', *, *, #176, .T. ) ;
#206 = ORIENTED_EDGE ( 'NONE', *, *, #256, .T. ) ;
#207 = AXIS2_PLACEMENT_3D ( 'NONE', #25, #282, #236 ) ;
#208 = DATE_AND_TIME ( #161, #174 ) ;
#209 = DIRECTION ( 'NONE',  ( -4.275831445896958607E-31, -1.000000000000000000, -1.224646799147353207E-16 ) ) ;
#210 = CC_DESIGN_PERSON_AND_ORGANIZATION_ASSIGNMENT ( #103, #62, ( #145 ) ) ;
#211 = DIRECTION ( 'NONE',  ( -3.491481338843133355E-15, 1.224646799147353207E-16, -1.000000000000000000 ) ) ;
#212 = DIRECTION ( 'NONE',  ( -3.491481338843133355E-15, 1.224646799147353207E-16, -1.000000000000000000 ) ) ;
#213 = APPLICATION_CONTEXT ( 'configuration controlled 3d designs of mechanical parts and assemblies' ) ;
#214 = AXIS2_PLACEMENT_3D ( 'NONE', #4, #92, #158 ) ;
#215 = CARTESIAN_POINT ( 'NONE',  ( 3.491481338843133355E-14, -1.224646799147353256E-15, 10.00000000000000000 ) ) ;
#216 = AXIS2_PLACEMENT_3D ( 'NONE', #125, #148, #55 ) ;
#217 = MANIFOLD_SOLID_BREP ( 'Corps-Déplacer/Copier1[2]', #173 ) ;
#218 = FACE_OUTER_BOUND ( 'NONE', #108, .T. ) ;
#219 = CARTESIAN_POINT ( 'NONE',  ( 3.681975165628614235E-14, 1.499999999999991562, 10.54559600438419942 ) ) ;
#220 = APPLICATION_PROTOCOL_DEFINITION ( 'international standard', 'config_control_design', 1994, #213 ) ;
#221 = PRODUCT_DEFINITION_FORMATION_WITH_SPECIFIED_SOURCE ( 'ANY', '', #145, .NOT_KNOWN. ) ;
#222 = ADVANCED_FACE ( 'NONE', ( #149 ), #238, .F. ) ;
#223 = VERTEX_POINT ( 'NONE', #61 ) ;
#224 = EDGE_LOOP ( 'NONE', ( #205 ) ) ;
#225 = CONICAL_SURFACE ( 'NONE', #191, 1.200000000000001510, 0.7853981633974566057 ) ;
#226 = LOCAL_TIME ( 10, 35, 52.00000000000000000, #49 ) ;
#227 = DIRECTION ( 'NONE',  ( 0.0000000000000000000, 0.0000000000000000000, 1.000000000000000000 ) ) ;
#228 = EDGE_LOOP ( 'NONE', ( #253 ) ) ;
#229 = CC_DESIGN_DATE_AND_TIME_ASSIGNMENT ( #110, #175, ( #35 ) ) ;
#230 = SHAPE_DEFINITION_REPRESENTATION ( #101, #119 ) ;
#231 = EDGE_LOOP ( 'NONE', ( #204 ) ) ;
#232 = PERSON_AND_ORGANIZATION ( #88, #23 ) ;
#233 = CONICAL_SURFACE ( 'NONE', #47, 1.814999999999995062, 0.5235987755983001479 ) ;
#234 = DIRECTION ( 'NONE',  ( 0.0000000000000000000, 1.000000000000000000, 0.0000000000000000000 ) ) ;
#235 = EDGE_LOOP ( 'NONE', ( #51 ) ) ;
#236 = DIRECTION ( 'NONE',  ( 0.0000000000000000000, 1.000000000000000000, 0.0000000000000000000 ) ) ;
#237 = ADVANCED_FACE ( 'NONE', ( #190, #170 ), #241, .T. ) ;
#238 = PLANE ( 'NONE',  #216 ) ;
#239 = DIRECTION ( 'NONE',  ( -3.491481338843133355E-15, 1.224646799147353207E-16, -1.000000000000000000 ) ) ;
#240 = CARTESIAN_POINT ( 'NONE',  ( -6.691676212828714672E-31, 2.347124059865798562E-32, -1.916572240665600690E-16 ) ) ;
#241 = CYLINDRICAL_SURFACE ( 'NONE', #150, 1.499999999999996891 ) ;
#242 = EDGE_CURVE ( 'NONE', #40, #40, #274, .T. ) ;
#243 = DIRECTION ( 'NONE',  ( 0.0000000000000000000, 1.000000000000000000, 0.0000000000000000000 ) ) ;
#244 = CARTESIAN_POINT ( 'NONE',  ( 0.0000000000000000000, 1.564999999999994174, 0.0000000000000000000 ) ) ;
#245 = CC_DESIGN_DATE_AND_TIME_ASSIGNMENT ( #90, #254, ( #294 ) ) ;
#246 = COORDINATED_UNIVERSAL_TIME_OFFSET ( 1, 0, .AHEAD. ) ;
#247 = AXIS2_PLACEMENT_3D ( 'NONE', #187, #67, #185 ) ;
#248 = CIRCLE ( 'NONE', #262, 1.814999999999995062 ) ;
#249 =( LENGTH_UNIT ( ) NAMED_UNIT ( * ) SI_UNIT ( .MILLI., .METRE. ) );
#250 = ORIENTED_EDGE ( 'NONE', *, *, #137, .F. ) ;
#251 = ADVANCED_FACE ( 'NONE', ( #75, #265 ), #225, .T. ) ;
#252 = AXIS2_PLACEMENT_3D ( 'NONE', #293, #227, #291 ) ;
#253 = ORIENTED_EDGE ( 'NONE', *, *, #242, .F. ) ;
#254 = DATE_TIME_ROLE ( 'classification_date' ) ;
#255 = FACE_OUTER_BOUND ( 'NONE', #181, .T. ) ;
#256 = EDGE_CURVE ( 'NONE', #180, #180, #300, .T. ) ;
#257 = DIRECTION ( 'NONE',  ( 3.491481338843133355E-15, -1.224646799147353207E-16, 1.000000000000000000 ) ) ;
#258 = EDGE_LOOP ( 'NONE', ( #20 ) ) ;
#259 = EDGE_LOOP ( 'NONE', ( #131 ) ) ;
#260 = EDGE_CURVE ( 'NONE', #273, #273, #9, .T. ) ;
#261 = CARTESIAN_POINT ( 'NONE',  ( 3.491481338843133355E-14, -1.224646799147353256E-15, 10.00000000000000000 ) ) ;
#262 = AXIS2_PLACEMENT_3D ( 'NONE', #50, #239, #121 ) ;
#263 = CARTESIAN_POINT ( 'NONE',  ( 2.444036937190193601E-13, -8.572527594031472993E-15, 70.00000000000000000 ) ) ;
#264 = CARTESIAN_POINT ( 'NONE',  ( 2.444036937190193601E-13, -8.572527594031472993E-15, 70.00000000000000000 ) ) ;
#265 = FACE_BOUND ( 'NONE', #224, .T. ) ;
#266 = DIRECTION ( 'NONE',  ( 0.0000000000000000000, 1.000000000000000000, 0.0000000000000000000 ) ) ;
#267 = ADVANCED_FACE ( 'NONE', ( #56 ), #99, .T. ) ;
#268 = DATE_AND_TIME ( #177, #192 ) ;
#269 =( NAMED_UNIT ( * ) SI_UNIT ( $, .STERADIAN. ) SOLID_ANGLE_UNIT ( ) );
#270 = CIRCLE ( 'NONE', #133, 1.500000000000001110 ) ;
#271 = AXIS2_PLACEMENT_3D ( 'NONE', #215, #52, #96 ) ;
#272 = ORIENTED_EDGE ( 'NONE', *, *, #260, .T. ) ;
#273 = VERTEX_POINT ( 'NONE', #84 ) ;
#274 = CIRCLE ( 'NONE', #17, 1.564999999999994174 ) ;
#275 = PERSON_AND_ORGANIZATION_ROLE ( 'creator' ) ;
#276 = EDGE_LOOP ( 'NONE', ( #66 ) ) ;
#277 = EDGE_CURVE ( 'NONE', #292, #292, #179, .T. ) ;
#278 = FACE_OUTER_BOUND ( 'NONE', #39, .T. ) ;
#279 = DIRECTION ( 'NONE',  ( -3.491481338843133355E-15, 1.224646799147353207E-16, -1.000000000000000000 ) ) ;
#280 = APPROVAL_ROLE ( '' ) ;
#281 = DIRECTION ( 'NONE',  ( -3.491481338843133355E-15, 1.224646799147353207E-16, -1.000000000000000000 ) ) ;
#282 = DIRECTION ( 'NONE',  ( -3.491481338843133355E-15, 1.224646799147353207E-16, -1.000000000000000000 ) ) ;
#283 = CC_DESIGN_PERSON_AND_ORGANIZATION_ASSIGNMENT ( #69, #43, ( #221 ) ) ;
#284 = CARTESIAN_POINT ( 'NONE',  ( 2.433562493173664138E-13, 1.499999999999992673, 69.70000000000001705 ) ) ;
#285 = AXIS2_PLACEMENT_3D ( 'NONE', #1, #257, #209 ) ;
#286 = CARTESIAN_POINT ( 'NONE',  ( 0.0000000000000000000, 0.0000000000000000000, 0.0000000000000000000 ) ) ;
#287 = DIRECTION ( 'NONE',  ( -3.491481338843133355E-15, 1.224646799147353207E-16, -1.000000000000000000 ) ) ;
#288 = DIRECTION ( 'NONE',  ( 0.0000000000000000000, 1.000000000000000000, 0.0000000000000000000 ) ) ;
#289 = FACE_OUTER_BOUND ( 'NONE', #258, .T. ) ;
#290 =( GEOMETRIC_REPRESENTATION_CONTEXT ( 3 ) GLOBAL_UNCERTAINTY_ASSIGNED_CONTEXT ( ( #171 ) ) GLOBAL_UNIT_ASSIGNED_CONTEXT ( ( #249, #59, #269 ) ) REPRESENTATION_CONTEXT ( 'NONE', 'WORKASPACE' ) );
#291 = DIRECTION ( 'NONE',  ( 1.000000000000000000, 0.0000000000000000000, 0.0000000000000000000 ) ) ;
#292 = VERTEX_POINT ( 'NONE', #297 ) ;
#293 = CARTESIAN_POINT ( 'NONE',  ( 0.0000000000000000000, 0.0000000000000000000, 0.0000000000000000000 ) ) ;
#294 = SECURITY_CLASSIFICATION ( '', '', #141 ) ;
#295 = APPROVAL_PERSON_ORGANIZATION ( #153, #296, #106 ) ;
#296 = APPROVAL ( #15, 'UNSPECIFIED' ) ;
#297 = CARTESIAN_POINT ( 'NONE',  ( 2.444036937190193601E-13, 1.199999999999992628, 70.00000000000000000 ) ) ;
#298 = VERTEX_POINT ( 'NONE', #38 ) ;
#299 = CARTESIAN_POINT ( 'NONE',  ( 0.0000000000000000000, 0.0000000000000000000, 0.0000000000000000000 ) ) ;
#300 = CIRCLE ( 'NONE', #128, 1.814999999999995062 ) ;
#301 = CARTESIAN_POINT ( 'NONE',  ( 3.681975165628614235E-14, -1.291463039187022760E-15, 10.54559600438419942 ) ) ;
#302 = CALENDAR_DATE ( 2021, 2, 12 ) ;
#303 = CARTESIAN_POINT ( 'NONE',  ( 2.444036937190193601E-13, -8.572527594031472993E-15, 70.00000000000000000 ) ) ;
ENDSEC;
END-ISO-10303-21;
