ISO-10303-21;
HEADER;
FILE_DESCRIPTION (( 'STEP AP203' ),
    '1' );
FILE_NAME ('321588.step',
    '2021-12-02T09:35:52',
    ( '' ),
    ( '' ),
    'SwSTEP 2.0',
    'SolidWorks 2019',
    '' );
FILE_SCHEMA (( 'CONFIG_CONTROL_DESIGN' ));
ENDSEC;

DATA;
#1 = CIRCLE ( 'NONE', #78, 1.809999999999994946 ) ;
#2 = CARTESIAN_POINT ( 'NONE',  ( 2.433562493173664138E-13, -8.535788190057053710E-15, 69.70000000000001705 ) ) ;
#3 = FACE_OUTER_BOUND ( 'NONE', #80, .T. ) ;
#4 = ORIENTED_EDGE ( 'NONE', *, *, #16, .T. ) ;
#5 = DIRECTION ( 'NONE',  ( 0.0000000000000000000, 1.000000000000000000, 0.0000000000000000000 ) ) ;
#6 = APPROVAL ( #31, 'UNSPECIFIED' ) ;
#7 = DIRECTION ( 'NONE',  ( -3.491481338843133355E-15, 1.224646799147353207E-16, -1.000000000000000000 ) ) ;
#8 = ORIENTED_EDGE ( 'NONE', *, *, #71, .T. ) ;
#9 = DIRECTION ( 'NONE',  ( 4.275831445896959482E-31, 1.000000000000000000, 1.224646799147353207E-16 ) ) ;
#10 = EDGE_CURVE ( 'NONE', #205, #205, #54, .T. ) ;
#11 = ORIENTED_EDGE ( 'NONE', *, *, #42, .F. ) ;
#12 = DIRECTION ( 'NONE',  ( 0.0000000000000000000, 1.000000000000000000, 0.0000000000000000000 ) ) ;
#13 = CARTESIAN_POINT ( 'NONE',  ( 3.678951454092336099E-14, -1.290402463948297715E-15, 10.53693575034635366 ) ) ;
#14 = PERSON_AND_ORGANIZATION ( #82, #192 ) ;
#15 = CARTESIAN_POINT ( 'NONE',  ( 3.491481338843133355E-14, 1.809999999999993614, 10.00000000000000000 ) ) ;
#16 = EDGE_CURVE ( 'NONE', #276, #276, #135, .T. ) ;
#17 = DIRECTION ( 'NONE',  ( -3.491481338843133355E-15, 1.224646799147353207E-16, -1.000000000000000000 ) ) ;
#18 = LOCAL_TIME ( 10, 35, 52.00000000000000000, #169 ) ;
#19 = DIRECTION ( 'NONE',  ( -4.275831445896959482E-31, -1.000000000000000000, -1.224646799147353207E-16 ) ) ;
#20 = CONICAL_SURFACE ( 'NONE', #230, 1.200000000000001510, 0.7853981633974566057 ) ;
#21 = CARTESIAN_POINT ( 'NONE',  ( -6.670297055599230833E-31, 2.339625260952489220E-32, -1.910449006669863815E-16 ) ) ;
#22 = VERTEX_POINT ( 'NONE', #43 ) ;
#23 = PRODUCT_RELATED_PRODUCT_CATEGORY ( 'detail', '', ( #174 ) ) ;
#24 = DIRECTION ( 'NONE',  ( -3.491481338843133355E-15, 1.224646799147353207E-16, -1.000000000000000000 ) ) ;
#25 = FACE_OUTER_BOUND ( 'NONE', #145, .T. ) ;
#26 = ORIENTED_EDGE ( 'NONE', *, *, #220, .F. ) ;
#27 = PERSON_AND_ORGANIZATION ( #82, #192 ) ;
#28 = PLANE ( 'NONE',  #256 ) ;
#29 = FACE_BOUND ( 'NONE', #121, .T. ) ;
#30 = AXIS2_PLACEMENT_3D ( 'NONE', #271, #219, #9 ) ;
#31 = APPROVAL_STATUS ( 'not_yet_approved' ) ;
#32 = EDGE_LOOP ( 'NONE', ( #11 ) ) ;
#33 = CC_DESIGN_PERSON_AND_ORGANIZATION_ASSIGNMENT ( #93, #113, ( #265 ) ) ;
#34 = DIRECTION ( 'NONE',  ( 0.0000000000000000000, 1.000000000000000000, 0.0000000000000000000 ) ) ;
#35 = DIRECTION ( 'NONE',  ( 4.275831445896958607E-31, 1.000000000000000000, 1.224646799147353207E-16 ) ) ;
#36 = CC_DESIGN_PERSON_AND_ORGANIZATION_ASSIGNMENT ( #123, #76, ( #236 ) ) ;
#37 = CIRCLE ( 'NONE', #209, 1.809999999999994946 ) ;
#38 = CARTESIAN_POINT ( 'NONE',  ( 0.0000000000000000000, 0.0000000000000000000, 0.0000000000000000000 ) ) ;
#39 = AXIS2_PLACEMENT_3D ( 'NONE', #118, #130, #264 ) ;
#40 = MANIFOLD_SOLID_BREP ( 'Corps-Déplacer/Copier1[1]', #228 ) ;
#41 = VERTEX_POINT ( 'NONE', #202 ) ;
#42 = EDGE_CURVE ( 'NONE', #233, #233, #284, .T. ) ;
#43 = CARTESIAN_POINT ( 'NONE',  ( 2.433562493173664138E-13, 1.499999999999992673, 69.70000000000001705 ) ) ;
#44 = PRODUCT_DEFINITION_SHAPE ( 'NONE', 'NONE',  #236 ) ;
#45 = AXIS2_PLACEMENT_3D ( 'NONE', #137, #278, #300 ) ;
#46 = CARTESIAN_POINT ( 'NONE',  ( 2.433562493173664138E-13, 1.499999999999992673, 69.70000000000001705 ) ) ;
#47 = LOCAL_TIME ( 10, 35, 52.00000000000000000, #153 ) ;
#48 = CIRCLE ( 'NONE', #262, 1.500000000000001110 ) ;
#49 = PERSON_AND_ORGANIZATION ( #82, #192 ) ;
#50 = DIRECTION ( 'NONE',  ( 0.0000000000000000000, 1.000000000000000000, 0.0000000000000000000 ) ) ;
#51 = FACE_OUTER_BOUND ( 'NONE', #100, .T. ) ;
#52 = DIRECTION ( 'NONE',  ( -3.491481338843133355E-15, 1.224646799147353207E-16, -1.000000000000000000 ) ) ;
#53 = EDGE_LOOP ( 'NONE', ( #124 ) ) ;
#54 = CIRCLE ( 'NONE', #30, 1.559999999999994058 ) ;
#55 = ORIENTED_EDGE ( 'NONE', *, *, #152, .F. ) ;
#56 = EDGE_LOOP ( 'NONE', ( #197 ) ) ;
#57 = CONICAL_SURFACE ( 'NONE', #171, 1.559999999999994058, 0.7853981633974500554 ) ;
#58 = EDGE_LOOP ( 'NONE', ( #191 ) ) ;
#59 = FACE_OUTER_BOUND ( 'NONE', #53, .T. ) ;
#60 = ADVANCED_FACE ( 'NONE', ( #75 ), #173, .F. ) ;
#61 = DIRECTION ( 'NONE',  ( 0.0000000000000000000, 1.000000000000000000, 0.0000000000000000000 ) ) ;
#62 = VERTEX_POINT ( 'NONE', #110 ) ;
#63 = APPLICATION_CONTEXT ( 'configuration controlled 3d designs of mechanical parts and assemblies' ) ;
#64 = PRODUCT_DEFINITION_FORMATION_WITH_SPECIFIED_SOURCE ( 'ANY', '', #174, .NOT_KNOWN. ) ;
#65 = FACE_OUTER_BOUND ( 'NONE', #292, .T. ) ;
#66 = CARTESIAN_POINT ( 'NONE',  ( 2.444036937190193601E-13, -8.572527594031472993E-15, 70.00000000000000000 ) ) ;
#67 = CALENDAR_DATE ( 2021, 2, 12 ) ;
#68 = LOCAL_TIME ( 10, 35, 52.00000000000000000, #253 ) ;
#69 = CIRCLE ( 'NONE', #160, 1.499999999999992895 ) ;
#70 = DIRECTION ( 'NONE',  ( 0.0000000000000000000, 1.000000000000000000, 0.0000000000000000000 ) ) ;
#71 = EDGE_CURVE ( 'NONE', #62, #62, #1, .T. ) ;
#72 = DIRECTION ( 'NONE',  ( -3.491481338843133355E-15, 1.224646799147353207E-16, -1.000000000000000000 ) ) ;
#73 = CYLINDRICAL_SURFACE ( 'NONE', #157, 1.499999999999996891 ) ;
#74 = AXIS2_PLACEMENT_3D ( 'NONE', #96, #122, #141 ) ;
#75 = FACE_OUTER_BOUND ( 'NONE', #56, .T. ) ;
#76 = PERSON_AND_ORGANIZATION_ROLE ( 'creator' ) ;
#77 = ORIENTED_EDGE ( 'NONE', *, *, #16, .F. ) ;
#78 = AXIS2_PLACEMENT_3D ( 'NONE', #240, #7, #85 ) ;
#79 = EDGE_LOOP ( 'NONE', ( #8 ) ) ;
#80 = EDGE_LOOP ( 'NONE', ( #4 ) ) ;
#81 = CONICAL_SURFACE ( 'NONE', #226, 1.200000000000001510, 0.7853981633974566057 ) ;
#82 = PERSON ( 'UNSPECIFIED', 'UNSPECIFIED', 'UNSPECIFIED', ('UNSPECIFIED'), ('UNSPECIFIED'), ('UNSPECIFIED') ) ;
#83 = AXIS2_PLACEMENT_3D ( 'NONE', #296, #17, #61 ) ;
#84 = PERSON_AND_ORGANIZATION_ROLE ( 'creator' ) ;
#85 = DIRECTION ( 'NONE',  ( 4.256198772126499730E-31, 1.000000000000000000, 1.198013450260229175E-16 ) ) ;
#86 = LOCAL_TIME ( 10, 35, 52.00000000000000000, #138 ) ;
#87 = CARTESIAN_POINT ( 'NONE',  ( 2.444036937190193601E-13, 1.199999999999992628, 70.00000000000000000 ) ) ;
#88 = FACE_BOUND ( 'NONE', #146, .T. ) ;
#89 = VERTEX_POINT ( 'NONE', #206 ) ;
#90 = CC_DESIGN_APPROVAL ( #269, ( #64 ) ) ;
#91 = SECURITY_CLASSIFICATION_LEVEL ( 'unclassified' ) ;
#92 = FACE_OUTER_BOUND ( 'NONE', #273, .T. ) ;
#93 = PERSON_AND_ORGANIZATION ( #82, #192 ) ;
#94 = AXIS2_PLACEMENT_3D ( 'NONE', #215, #295, #97 ) ;
#95 = ADVANCED_FACE ( 'NONE', ( #162, #59 ), #109, .T. ) ;
#96 = CARTESIAN_POINT ( 'NONE',  ( 2.444036937190193601E-13, -8.572527594031472993E-15, 70.00000000000000000 ) ) ;
#97 = DIRECTION ( 'NONE',  ( -4.275831445896958607E-31, -1.000000000000000000, -1.224646799147353207E-16 ) ) ;
#98 = LOCAL_TIME ( 10, 35, 52.00000000000000000, #116 ) ;
#99 = FACE_OUTER_BOUND ( 'NONE', #238, .T. ) ;
#100 = EDGE_LOOP ( 'NONE', ( #55 ) ) ;
#101 = CARTESIAN_POINT ( 'NONE',  ( 3.491481338843133355E-14, -1.224646799147353256E-15, 10.00000000000000000 ) ) ;
#102 = EDGE_LOOP ( 'NONE', ( #104 ) ) ;
#103 = ADVANCED_FACE ( 'NONE', ( #144 ), #28, .T. ) ;
#104 = ORIENTED_EDGE ( 'NONE', *, *, #220, .T. ) ;
#105 = APPROVAL_STATUS ( 'not_yet_approved' ) ;
#106 = DESIGN_CONTEXT ( 'detailed design', #249, 'design' ) ;
#107 = DIRECTION ( 'NONE',  ( -3.491481338843133355E-15, 1.224646799147353207E-16, -1.000000000000000000 ) ) ;
#108 = CARTESIAN_POINT ( 'NONE',  ( 3.491481338843133355E-14, 1.809999999999993614, 10.00000000000000000 ) ) ;
#109 = CONICAL_SURFACE ( 'NONE', #211, 1.809999999999994946, 0.5235987755983007030 ) ;
#110 = CARTESIAN_POINT ( 'NONE',  ( 8.728703347107833388E-16, 1.809999999999994946, 0.2500000000000000000 ) ) ;
#111 = APPLICATION_PROTOCOL_DEFINITION ( 'international standard', 'config_control_design', 1994, #63 ) ;
#112 = CYLINDRICAL_SURFACE ( 'NONE', #286, 1.499999999999996891 ) ;
#113 = PERSON_AND_ORGANIZATION_ROLE ( 'classification_officer' ) ;
#114 = DIRECTION ( 'NONE',  ( 4.275831445896958607E-31, 1.000000000000000000, 1.224646799147353454E-16 ) ) ;
#115 = CC_DESIGN_PERSON_AND_ORGANIZATION_ASSIGNMENT ( #27, #159, ( #174 ) ) ;
#116 = COORDINATED_UNIVERSAL_TIME_OFFSET ( 1, 0, .AHEAD. ) ;
#117 = DIRECTION ( 'NONE',  ( 0.0000000000000000000, 1.000000000000000000, 0.0000000000000000000 ) ) ;
#118 = CARTESIAN_POINT ( 'NONE',  ( 2.444036937190193601E-13, 8.998558695971026591E-33, 70.00000000000000000 ) ) ;
#119 = ORIENTED_EDGE ( 'NONE', *, *, #186, .T. ) ;
#120 = CARTESIAN_POINT ( 'NONE',  ( 0.0000000000000000000, 0.0000000000000000000, 0.0000000000000000000 ) ) ;
#121 = EDGE_LOOP ( 'NONE', ( #244 ) ) ;
#122 = DIRECTION ( 'NONE',  ( -3.491481338843133355E-15, 1.224646799147353207E-16, -1.000000000000000000 ) ) ;
#123 = PERSON_AND_ORGANIZATION ( #82, #192 ) ;
#124 = ORIENTED_EDGE ( 'NONE', *, *, #198, .F. ) ;
#125 = ORIENTED_EDGE ( 'NONE', *, *, #225, .F. ) ;
#126 = ORIENTED_EDGE ( 'NONE', *, *, #225, .T. ) ;
#127 = ADVANCED_BREP_SHAPE_REPRESENTATION ( '321588', ( #40, #185, #151 ), #282 ) ;
#128 = CARTESIAN_POINT ( 'NONE',  ( 2.444036937190193601E-13, -8.572527594031472993E-15, 70.00000000000000000 ) ) ;
#129 = CC_DESIGN_DATE_AND_TIME_ASSIGNMENT ( #183, #303, ( #265 ) ) ;
#130 = DIRECTION ( 'NONE',  ( -3.491481338843133355E-15, 1.224646799147353207E-16, -1.000000000000000000 ) ) ;
#131 = PERSON_AND_ORGANIZATION_ROLE ( 'design_supplier' ) ;
#132 = CIRCLE ( 'NONE', #302, 1.499999999999992895 ) ;
#133 = CARTESIAN_POINT ( 'NONE',  ( 0.0000000000000000000, 1.559999999999994058, 0.0000000000000000000 ) ) ;
#134 = DIRECTION ( 'NONE',  ( 0.0000000000000000000, 0.0000000000000000000, 1.000000000000000000 ) ) ;
#135 = CIRCLE ( 'NONE', #203, 1.809999999999994946 ) ;
#136 = DIRECTION ( 'NONE',  ( -3.491481338843133355E-15, 1.224646799147353207E-16, -1.000000000000000000 ) ) ;
#137 = CARTESIAN_POINT ( 'NONE',  ( 2.433562493173664138E-13, -8.535788190057053710E-15, 69.70000000000001705 ) ) ;
#138 = COORDINATED_UNIVERSAL_TIME_OFFSET ( 1, 0, .AHEAD. ) ;
#139 = DIRECTION ( 'NONE',  ( -3.491481338843133355E-15, 1.224646799147353207E-16, -1.000000000000000000 ) ) ;
#140 = ADVANCED_FACE ( 'NONE', ( #189 ), #213, .F. ) ;
#141 = DIRECTION ( 'NONE',  ( 4.275831445896958607E-31, 1.000000000000000000, 1.224646799147353207E-16 ) ) ;
#142 = DIRECTION ( 'NONE',  ( -3.491481338843133355E-15, 1.224646799147353207E-16, -1.000000000000000000 ) ) ;
#143 = ADVANCED_FACE ( 'NONE', ( #51, #270 ), #73, .T. ) ;
#144 = FACE_OUTER_BOUND ( 'NONE', #166, .T. ) ;
#145 = EDGE_LOOP ( 'NONE', ( #126 ) ) ;
#146 = EDGE_LOOP ( 'NONE', ( #119 ) ) ;
#147 = ADVANCED_FACE ( 'NONE', ( #288, #29 ), #81, .T. ) ;
#148 = EDGE_LOOP ( 'NONE', ( #170 ) ) ;
#149 = CARTESIAN_POINT ( 'NONE',  ( 3.491481338843133355E-14, -1.224646799147353256E-15, 10.00000000000000000 ) ) ;
#150 = DIRECTION ( 'NONE',  ( 4.275831445896958607E-31, 1.000000000000000000, 1.224646799147353454E-16 ) ) ;
#151 = AXIS2_PLACEMENT_3D ( 'NONE', #38, #134, #227 ) ;
#152 = EDGE_CURVE ( 'NONE', #259, #259, #132, .T. ) ;
#153 = COORDINATED_UNIVERSAL_TIME_OFFSET ( 1, 0, .AHEAD. ) ;
#154 = DIRECTION ( 'NONE',  ( 0.0000000000000000000, 1.000000000000000000, 0.0000000000000000000 ) ) ;
#155 = DIRECTION ( 'NONE',  ( 3.491481338843133355E-15, -1.224646799147353207E-16, 1.000000000000000000 ) ) ;
#156 = CARTESIAN_POINT ( 'NONE',  ( 0.0000000000000000000, 0.0000000000000000000, 0.0000000000000000000 ) ) ;
#157 = AXIS2_PLACEMENT_3D ( 'NONE', #120, #72, #150 ) ;
#158 = CC_DESIGN_APPROVAL ( #239, ( #265 ) ) ;
#159 = PERSON_AND_ORGANIZATION_ROLE ( 'design_owner' ) ;
#160 = AXIS2_PLACEMENT_3D ( 'NONE', #13, #107, #117 ) ;
#161 = DIRECTION ( 'NONE',  ( -3.491481338843133355E-15, 1.224646799147353207E-16, -1.000000000000000000 ) ) ;
#162 = FACE_BOUND ( 'NONE', #58, .T. ) ;
#163 = ORIENTED_EDGE ( 'NONE', *, *, #10, .T. ) ;
#164 = CARTESIAN_POINT ( 'NONE',  ( 0.0000000000000000000, 0.0000000000000000000, 0.0000000000000000000 ) ) ;
#165 = AXIS2_PLACEMENT_3D ( 'NONE', #188, #52, #266 ) ;
#166 = EDGE_LOOP ( 'NONE', ( #163 ) ) ;
#167 = CARTESIAN_POINT ( 'NONE',  ( -3.335148527799615417E-31, 1.169812630476244610E-32, -9.552245033349319073E-17 ) ) ;
#168 = EDGE_LOOP ( 'NONE', ( #291 ) ) ;
#169 = COORDINATED_UNIVERSAL_TIME_OFFSET ( 1, 0, .AHEAD. ) ;
#170 = ORIENTED_EDGE ( 'NONE', *, *, #281, .T. ) ;
#171 = AXIS2_PLACEMENT_3D ( 'NONE', #21, #155, #19 ) ;
#172 = PERSON_AND_ORGANIZATION ( #82, #192 ) ;
#173 = PLANE ( 'NONE',  #94 ) ;
#174 = PRODUCT ( '321588', '321588', '', ( #299 ) ) ;
#175 = CC_DESIGN_PERSON_AND_ORGANIZATION_ASSIGNMENT ( #294, #84, ( #64 ) ) ;
#176 = FACE_BOUND ( 'NONE', #102, .T. ) ;
#177 = DATE_TIME_ROLE ( 'creation_date' ) ;
#178 = FACE_OUTER_BOUND ( 'NONE', #79, .T. ) ;
#179 = DIRECTION ( 'NONE',  ( -3.491481338843133355E-15, 1.224646799147353207E-16, -1.000000000000000000 ) ) ;
#180 = APPROVAL_STATUS ( 'not_yet_approved' ) ;
#181 =( NAMED_UNIT ( * ) SI_UNIT ( $, .STERADIAN. ) SOLID_ANGLE_UNIT ( ) );
#182 = APPROVAL_DATE_TIME ( #280, #239 ) ;
#183 = DATE_AND_TIME ( #207, #98 ) ;
#184 = CLOSED_SHELL ( 'NONE', ( #293, #204, #263, #103, #201, #247, #234 ) ) ;
#185 = MANIFOLD_SOLID_BREP ( 'Corps-Déplacer/Copier1[2]', #184 ) ;
#186 = EDGE_CURVE ( 'NONE', #89, #89, #254, .T. ) ;
#187 = CIRCLE ( 'NONE', #45, 1.500000000000001110 ) ;
#188 = CARTESIAN_POINT ( 'NONE',  ( 2.444036937190193601E-13, -8.572527594031472993E-15, 70.00000000000000000 ) ) ;
#189 = FACE_OUTER_BOUND ( 'NONE', #32, .T. ) ;
#190 = APPROVAL_DATE_TIME ( #194, #6 ) ;
#191 = ORIENTED_EDGE ( 'NONE', *, *, #152, .T. ) ;
#192 = ORGANIZATION ( 'UNSPECIFIED', 'UNSPECIFIED', '' ) ;
#193 = PLANE ( 'NONE',  #74 ) ;
#194 = DATE_AND_TIME ( #248, #18 ) ;
#195 = DIRECTION ( 'NONE',  ( 0.0000000000000000000, 1.000000000000000000, 0.0000000000000000000 ) ) ;
#196 = EDGE_LOOP ( 'NONE', ( #250 ) ) ;
#197 = ORIENTED_EDGE ( 'NONE', *, *, #198, .T. ) ;
#198 = EDGE_CURVE ( 'NONE', #255, #255, #37, .T. ) ;
#199 = DATE_AND_TIME ( #232, #47 ) ;
#200 = APPROVAL_DATE_TIME ( #199, #269 ) ;
#201 = ADVANCED_FACE ( 'NONE', ( #99 ), #193, .F. ) ;
#202 = CARTESIAN_POINT ( 'NONE',  ( 3.678951454092336099E-14, 1.499999999999991562, 10.53693575034635366 ) ) ;
#203 = AXIS2_PLACEMENT_3D ( 'NONE', #149, #251, #34 ) ;
#204 = ADVANCED_FACE ( 'NONE', ( #3, #289 ), #216, .T. ) ;
#205 = VERTEX_POINT ( 'NONE', #133 ) ;
#206 = CARTESIAN_POINT ( 'NONE',  ( 2.444036937190193601E-13, 1.199999999999992628, 70.00000000000000000 ) ) ;
#207 = CALENDAR_DATE ( 2021, 2, 12 ) ;
#208 =( LENGTH_UNIT ( ) NAMED_UNIT ( * ) SI_UNIT ( .MILLI., .METRE. ) );
#209 = AXIS2_PLACEMENT_3D ( 'NONE', #235, #161, #5 ) ;
#210 = CC_DESIGN_PERSON_AND_ORGANIZATION_ASSIGNMENT ( #172, #131, ( #64 ) ) ;
#211 = AXIS2_PLACEMENT_3D ( 'NONE', #101, #242, #212 ) ;
#212 = DIRECTION ( 'NONE',  ( 0.0000000000000000000, 1.000000000000000000, 0.0000000000000000000 ) ) ;
#213 = PLANE ( 'NONE',  #39 ) ;
#214 = EDGE_LOOP ( 'NONE', ( #26 ) ) ;
#215 = CARTESIAN_POINT ( 'NONE',  ( 3.491481338843133355E-14, 1.357282603308975442E-32, 10.00000000000000000 ) ) ;
#216 = CYLINDRICAL_SURFACE ( 'NONE', #218, 1.809999999999994946 ) ;
#217 = ORIENTED_EDGE ( 'NONE', *, *, #71, .F. ) ;
#218 = AXIS2_PLACEMENT_3D ( 'NONE', #164, #24, #252 ) ;
#219 = DIRECTION ( 'NONE',  ( -3.491481338843133355E-15, 1.224646799147353207E-16, -1.000000000000000000 ) ) ;
#220 = EDGE_CURVE ( 'NONE', #41, #41, #69, .T. ) ;
#221 = APPROVAL_PERSON_ORGANIZATION ( #14, #269, #275 ) ;
#222 = DIRECTION ( 'NONE',  ( -3.491481338843133355E-15, 1.224646799147353207E-16, -1.000000000000000000 ) ) ;
#223 = UNCERTAINTY_MEASURE_WITH_UNIT (LENGTH_MEASURE( 1.000000000000000082E-05 ), #208, 'distance_accuracy_value', 'NONE');
#224 = DIRECTION ( 'NONE',  ( -3.491481338843133355E-15, 1.224646799147353207E-16, -1.000000000000000000 ) ) ;
#225 = EDGE_CURVE ( 'NONE', #257, #257, #48, .T. ) ;
#226 = AXIS2_PLACEMENT_3D ( 'NONE', #268, #139, #195 ) ;
#227 = DIRECTION ( 'NONE',  ( 1.000000000000000000, 0.0000000000000000000, 0.0000000000000000000 ) ) ;
#228 = CLOSED_SHELL ( 'NONE', ( #60, #95, #143, #147, #140 ) ) ;
#229 =( NAMED_UNIT ( * ) PLANE_ANGLE_UNIT ( ) SI_UNIT ( $, .RADIAN. ) );
#230 = AXIS2_PLACEMENT_3D ( 'NONE', #66, #179, #154 ) ;
#231 = CARTESIAN_POINT ( 'NONE',  ( 3.678951454092336099E-14, 1.499999999999991562, 10.53693575034635366 ) ) ;
#232 = CALENDAR_DATE ( 2021, 2, 12 ) ;
#233 = VERTEX_POINT ( 'NONE', #87 ) ;
#234 = ADVANCED_FACE ( 'NONE', ( #237, #25 ), #112, .T. ) ;
#235 = CARTESIAN_POINT ( 'NONE',  ( 3.491481338843133355E-14, -1.224646799147353256E-15, 10.00000000000000000 ) ) ;
#236 = PRODUCT_DEFINITION ( 'UNKNOWN', '', #64, #106 ) ;
#237 = FACE_OUTER_BOUND ( 'NONE', #214, .T. ) ;
#238 = EDGE_LOOP ( 'NONE', ( #241 ) ) ;
#239 = APPROVAL ( #180, 'UNSPECIFIED' ) ;
#240 = CARTESIAN_POINT ( 'NONE',  ( 8.728703347107825500E-16, -3.061616997868380553E-17, 0.2499999999999997780 ) ) ;
#241 = ORIENTED_EDGE ( 'NONE', *, *, #186, .F. ) ;
#242 = DIRECTION ( 'NONE',  ( -3.491481338843133355E-15, 1.224646799147353207E-16, -1.000000000000000000 ) ) ;
#243 = APPROVAL_ROLE ( '' ) ;
#244 = ORIENTED_EDGE ( 'NONE', *, *, #42, .T. ) ;
#245 = AXIS2_PLACEMENT_3D ( 'NONE', #128, #222, #12 ) ;
#246 = APPROVAL_PERSON_ORGANIZATION ( #301, #239, #283 ) ;
#247 = ADVANCED_FACE ( 'NONE', ( #92, #88 ), #20, .T. ) ;
#248 = CALENDAR_DATE ( 2021, 2, 12 ) ;
#249 = APPLICATION_CONTEXT ( 'configuration controlled 3d designs of mechanical parts and assemblies' ) ;
#250 = ORIENTED_EDGE ( 'NONE', *, *, #281, .F. ) ;
#251 = DIRECTION ( 'NONE',  ( -3.491481338843133355E-15, 1.224646799147353207E-16, -1.000000000000000000 ) ) ;
#252 = DIRECTION ( 'NONE',  ( 4.275831445896958607E-31, 1.000000000000000000, 1.224646799147353207E-16 ) ) ;
#253 = COORDINATED_UNIVERSAL_TIME_OFFSET ( 1, 0, .AHEAD. ) ;
#254 = CIRCLE ( 'NONE', #165, 1.200000000000001510 ) ;
#255 = VERTEX_POINT ( 'NONE', #108 ) ;
#256 = AXIS2_PLACEMENT_3D ( 'NONE', #167, #142, #35 ) ;
#257 = VERTEX_POINT ( 'NONE', #46 ) ;
#258 = CALENDAR_DATE ( 2021, 2, 12 ) ;
#259 = VERTEX_POINT ( 'NONE', #231 ) ;
#260 = SHAPE_DEFINITION_REPRESENTATION ( #44, #127 ) ;
#261 = APPLICATION_PROTOCOL_DEFINITION ( 'international standard', 'config_control_design', 1994, #249 ) ;
#262 = AXIS2_PLACEMENT_3D ( 'NONE', #2, #287, #70 ) ;
#263 = ADVANCED_FACE ( 'NONE', ( #178, #279 ), #57, .T. ) ;
#264 = DIRECTION ( 'NONE',  ( 4.275831445896958607E-31, 1.000000000000000000, 1.224646799147353207E-16 ) ) ;
#265 = SECURITY_CLASSIFICATION ( '', '', #91 ) ;
#266 = DIRECTION ( 'NONE',  ( 0.0000000000000000000, 1.000000000000000000, 0.0000000000000000000 ) ) ;
#267 = EDGE_LOOP ( 'NONE', ( #217 ) ) ;
#268 = CARTESIAN_POINT ( 'NONE',  ( 2.444036937190193601E-13, -8.572527594031472993E-15, 70.00000000000000000 ) ) ;
#269 = APPROVAL ( #105, 'UNSPECIFIED' ) ;
#270 = FACE_OUTER_BOUND ( 'NONE', #148, .T. ) ;
#271 = CARTESIAN_POINT ( 'NONE',  ( -6.670297055599230833E-31, 2.339625260952489220E-32, -1.910449006669863815E-16 ) ) ;
#272 = CONICAL_SURFACE ( 'NONE', #83, 1.809999999999994946, 0.5235987755983007030 ) ;
#273 = EDGE_LOOP ( 'NONE', ( #125 ) ) ;
#274 = CARTESIAN_POINT ( 'NONE',  ( 3.678951454092336099E-14, -1.290402463948297715E-15, 10.53693575034635366 ) ) ;
#275 = APPROVAL_ROLE ( '' ) ;
#276 = VERTEX_POINT ( 'NONE', #15 ) ;
#277 = CC_DESIGN_SECURITY_CLASSIFICATION ( #265, ( #64 ) ) ;
#278 = DIRECTION ( 'NONE',  ( -3.491481338843133355E-15, 1.224646799147353207E-16, -1.000000000000000000 ) ) ;
#279 = FACE_BOUND ( 'NONE', #168, .T. ) ;
#280 = DATE_AND_TIME ( #67, #86 ) ;
#281 = EDGE_CURVE ( 'NONE', #22, #22, #187, .T. ) ;
#282 =( GEOMETRIC_REPRESENTATION_CONTEXT ( 3 ) GLOBAL_UNCERTAINTY_ASSIGNED_CONTEXT ( ( #223 ) ) GLOBAL_UNIT_ASSIGNED_CONTEXT ( ( #208, #229, #181 ) ) REPRESENTATION_CONTEXT ( 'NONE', 'WORKASPACE' ) );
#283 = APPROVAL_ROLE ( '' ) ;
#284 = CIRCLE ( 'NONE', #245, 1.200000000000001510 ) ;
#285 = APPROVAL_PERSON_ORGANIZATION ( #49, #6, #243 ) ;
#286 = AXIS2_PLACEMENT_3D ( 'NONE', #156, #136, #114 ) ;
#287 = DIRECTION ( 'NONE',  ( -3.491481338843133355E-15, 1.224646799147353207E-16, -1.000000000000000000 ) ) ;
#288 = FACE_OUTER_BOUND ( 'NONE', #196, .T. ) ;
#289 = FACE_OUTER_BOUND ( 'NONE', #267, .T. ) ;
#290 = CC_DESIGN_DATE_AND_TIME_ASSIGNMENT ( #298, #177, ( #236 ) ) ;
#291 = ORIENTED_EDGE ( 'NONE', *, *, #10, .F. ) ;
#292 = EDGE_LOOP ( 'NONE', ( #77 ) ) ;
#293 = ADVANCED_FACE ( 'NONE', ( #176, #65 ), #272, .T. ) ;
#294 = PERSON_AND_ORGANIZATION ( #82, #192 ) ;
#295 = DIRECTION ( 'NONE',  ( 3.491481338843133355E-15, -1.224646799147353207E-16, 1.000000000000000000 ) ) ;
#296 = CARTESIAN_POINT ( 'NONE',  ( 3.491481338843133355E-14, -1.224646799147353256E-15, 10.00000000000000000 ) ) ;
#297 = CC_DESIGN_APPROVAL ( #6, ( #236 ) ) ;
#298 = DATE_AND_TIME ( #258, #68 ) ;
#299 = MECHANICAL_CONTEXT ( 'NONE', #63, 'mechanical' ) ;
#300 = DIRECTION ( 'NONE',  ( 0.0000000000000000000, 1.000000000000000000, 0.0000000000000000000 ) ) ;
#301 = PERSON_AND_ORGANIZATION ( #82, #192 ) ;
#302 = AXIS2_PLACEMENT_3D ( 'NONE', #274, #224, #50 ) ;
#303 = DATE_TIME_ROLE ( 'classification_date' ) ;
ENDSEC;
END-ISO-10303-21;
