ISO-10303-21;
HEADER;
FILE_DESCRIPTION (( 'STEP AP203' ),
    '1' );
FILE_NAME ('321587.step',
    '2021-12-02T09:35:51',
    ( '' ),
    ( '' ),
    'SwSTEP 2.0',
    'SolidWorks 2019',
    '' );
FILE_SCHEMA (( 'CONFIG_CONTROL_DESIGN' ));
ENDSEC;

DATA;
#1 = AXIS2_PLACEMENT_3D ( 'NONE', #72, #209, #295 ) ;
#2 = DIRECTION ( 'NONE',  ( 4.275831445896958607E-31, 1.000000000000000000, 1.224646799147353454E-16 ) ) ;
#3 = CC_DESIGN_APPROVAL ( #51, ( #190 ) ) ;
#4 = PLANE ( 'NONE',  #259 ) ;
#5 = EDGE_LOOP ( 'NONE', ( #242 ) ) ;
#6 = FACE_BOUND ( 'NONE', #111, .T. ) ;
#7 = FACE_OUTER_BOUND ( 'NONE', #201, .T. ) ;
#8 = MANIFOLD_SOLID_BREP ( 'Corps-Déplacer/Copier1[1]', #68 ) ;
#9 = CIRCLE ( 'NONE', #21, 1.500000000000001110 ) ;
#10 = EDGE_LOOP ( 'NONE', ( #186 ) ) ;
#11 = DIRECTION ( 'NONE',  ( 4.275831445896958607E-31, 1.000000000000000000, 1.224646799147353207E-16 ) ) ;
#12 = EDGE_LOOP ( 'NONE', ( #102 ) ) ;
#13 = CARTESIAN_POINT ( 'NONE',  ( 2.433562493173664138E-13, 1.499999999999992673, 69.70000000000001705 ) ) ;
#14 = ORIENTED_EDGE ( 'NONE', *, *, #187, .T. ) ;
#15 = DIRECTION ( 'NONE',  ( 0.0000000000000000000, 1.000000000000000000, 0.0000000000000000000 ) ) ;
#16 = AXIS2_PLACEMENT_3D ( 'NONE', #126, #200, #52 ) ;
#17 = DIRECTION ( 'NONE',  ( 4.275831445896958607E-31, 1.000000000000000000, 1.224646799147353454E-16 ) ) ;
#18 = APPLICATION_PROTOCOL_DEFINITION ( 'international standard', 'config_control_design', 1994, #256 ) ;
#19 = ADVANCED_FACE ( 'NONE', ( #69, #100 ), #261, .T. ) ;
#20 = CARTESIAN_POINT ( 'NONE',  ( 2.444036937190193601E-13, 1.199999999999992628, 70.00000000000000000 ) ) ;
#21 = AXIS2_PLACEMENT_3D ( 'NONE', #36, #243, #199 ) ;
#22 = LOCAL_TIME ( 10, 35, 51.00000000000000000, #197 ) ;
#23 = DATE_AND_TIME ( #213, #235 ) ;
#24 = CALENDAR_DATE ( 2021, 2, 12 ) ;
#25 = PERSON_AND_ORGANIZATION_ROLE ( 'classification_officer' ) ;
#26 = APPROVAL_PERSON_ORGANIZATION ( #285, #92, #192 ) ;
#27 = COORDINATED_UNIVERSAL_TIME_OFFSET ( 1, 0, .AHEAD. ) ;
#28 = FACE_OUTER_BOUND ( 'NONE', #158, .T. ) ;
#29 = CARTESIAN_POINT ( 'NONE',  ( 3.675927742556058595E-14, -1.289341888709572671E-15, 10.52827549630850967 ) ) ;
#30 = CC_DESIGN_PERSON_AND_ORGANIZATION_ASSIGNMENT ( #263, #25, ( #216 ) ) ;
#31 = ORIENTED_EDGE ( 'NONE', *, *, #109, .T. ) ;
#32 = CARTESIAN_POINT ( 'NONE',  ( 3.491481338843133355E-14, 1.353533203852320771E-32, 10.00000000000000000 ) ) ;
#33 = ORIENTED_EDGE ( 'NONE', *, *, #57, .T. ) ;
#34 = ADVANCED_FACE ( 'NONE', ( #97, #299 ), #207, .T. ) ;
#35 = FACE_OUTER_BOUND ( 'NONE', #179, .T. ) ;
#36 = CARTESIAN_POINT ( 'NONE',  ( 2.433562493173664138E-13, -8.535788190057053710E-15, 69.70000000000001705 ) ) ;
#37 = ADVANCED_FACE ( 'NONE', ( #191 ), #140, .F. ) ;
#38 = EDGE_LOOP ( 'NONE', ( #31 ) ) ;
#39 = DIRECTION ( 'NONE',  ( 0.0000000000000000000, 0.0000000000000000000, 1.000000000000000000 ) ) ;
#40 = CARTESIAN_POINT ( 'NONE',  ( 2.444036937190193601E-13, -8.572527594031472993E-15, 70.00000000000000000 ) ) ;
#41 = CARTESIAN_POINT ( 'NONE',  ( 0.0000000000000000000, 1.554999999999994165, 0.0000000000000000000 ) ) ;
#42 = DIRECTION ( 'NONE',  ( 0.0000000000000000000, 1.000000000000000000, 0.0000000000000000000 ) ) ;
#43 = VERTEX_POINT ( 'NONE', #275 ) ;
#44 = DIRECTION ( 'NONE',  ( 0.0000000000000000000, 1.000000000000000000, 0.0000000000000000000 ) ) ;
#45 =( LENGTH_UNIT ( ) NAMED_UNIT ( * ) SI_UNIT ( .MILLI., .METRE. ) );
#46 = CARTESIAN_POINT ( 'NONE',  ( 3.491481338843133355E-14, -1.224646799147353256E-15, 10.00000000000000000 ) ) ;
#47 = APPROVAL_DATE_TIME ( #23, #63 ) ;
#48 = SECURITY_CLASSIFICATION_LEVEL ( 'unclassified' ) ;
#49 = CIRCLE ( 'NONE', #244, 1.500000000000001110 ) ;
#50 = PERSON_AND_ORGANIZATION ( #128, #84 ) ;
#51 = APPROVAL ( #144, 'UNSPECIFIED' ) ;
#52 = DIRECTION ( 'NONE',  ( 4.267988796426019119E-31, 1.000000000000000000, 1.201332047075354464E-16 ) ) ;
#53 = AXIS2_PLACEMENT_3D ( 'NONE', #29, #222, #291 ) ;
#54 = DIRECTION ( 'NONE',  ( 4.275831445896958607E-31, 1.000000000000000000, 1.224646799147353207E-16 ) ) ;
#55 = FACE_BOUND ( 'NONE', #114, .T. ) ;
#56 = APPLICATION_CONTEXT ( 'configuration controlled 3d designs of mechanical parts and assemblies' ) ;
#57 = EDGE_CURVE ( 'NONE', #294, #294, #49, .T. ) ;
#58 = ORIENTED_EDGE ( 'NONE', *, *, #171, .T. ) ;
#59 = ADVANCED_FACE ( 'NONE', ( #257, #142 ), #79, .T. ) ;
#60 = FACE_OUTER_BOUND ( 'NONE', #155, .T. ) ;
#61 = CIRCLE ( 'NONE', #225, 1.554999999999994165 ) ;
#62 = ORIENTED_EDGE ( 'NONE', *, *, #123, .T. ) ;
#63 = APPROVAL ( #302, 'UNSPECIFIED' ) ;
#64 = EDGE_LOOP ( 'NONE', ( #221 ) ) ;
#65 = UNCERTAINTY_MEASURE_WITH_UNIT (LENGTH_MEASURE( 1.000000000000000082E-05 ), #45, 'distance_accuracy_value', 'NONE');
#66 = MECHANICAL_CONTEXT ( 'NONE', #256, 'mechanical' ) ;
#67 = EDGE_CURVE ( 'NONE', #188, #188, #210, .T. ) ;
#68 = CLOSED_SHELL ( 'NONE', ( #181, #59, #19, #205, #37 ) ) ;
#69 = FACE_OUTER_BOUND ( 'NONE', #64, .T. ) ;
#70 = LOCAL_TIME ( 10, 35, 51.00000000000000000, #122 ) ;
#71 = FACE_OUTER_BOUND ( 'NONE', #12, .T. ) ;
#72 = CARTESIAN_POINT ( 'NONE',  ( 2.444036937190193601E-13, 8.998558695971026591E-33, 70.00000000000000000 ) ) ;
#73 = DATE_AND_TIME ( #24, #22 ) ;
#74 = DIRECTION ( 'NONE',  ( -3.491481338843133355E-15, 1.224646799147353207E-16, -1.000000000000000000 ) ) ;
#75 = CIRCLE ( 'NONE', #238, 1.499999999999992895 ) ;
#76 = APPROVAL_ROLE ( '' ) ;
#77 = PRODUCT ( '321587', '321587', '', ( #66 ) ) ;
#78 = EDGE_CURVE ( 'NONE', #254, #254, #298, .T. ) ;
#79 = CONICAL_SURFACE ( 'NONE', #149, 1.804999999999995053, 0.5235987755983000369 ) ;
#80 = PERSON_AND_ORGANIZATION_ROLE ( 'design_supplier' ) ;
#81 = FACE_OUTER_BOUND ( 'NONE', #83, .T. ) ;
#82 = DIRECTION ( 'NONE',  ( -3.491481338843133355E-15, 1.224646799147353207E-16, -1.000000000000000000 ) ) ;
#83 = EDGE_LOOP ( 'NONE', ( #33 ) ) ;
#84 = ORGANIZATION ( 'UNSPECIFIED', 'UNSPECIFIED', '' ) ;
#85 = CARTESIAN_POINT ( 'NONE',  ( 2.444036937190193601E-13, -8.572527594031472993E-15, 70.00000000000000000 ) ) ;
#86 = DIRECTION ( 'NONE',  ( -3.491481338843133355E-15, 1.224646799147353207E-16, -1.000000000000000000 ) ) ;
#87 = EDGE_CURVE ( 'NONE', #276, #276, #9, .T. ) ;
#88 = ORIENTED_EDGE ( 'NONE', *, *, #87, .T. ) ;
#89 = CARTESIAN_POINT ( 'NONE',  ( -3.324458949184872622E-31, 1.166063231019589938E-32, -9.521628863370634695E-17 ) ) ;
#90 = VERTEX_POINT ( 'NONE', #228 ) ;
#91 = CIRCLE ( 'NONE', #107, 1.200000000000001510 ) ;
#92 = APPROVAL ( #262, 'UNSPECIFIED' ) ;
#93 = CARTESIAN_POINT ( 'NONE',  ( 2.433562493173664138E-13, 1.499999999999992673, 69.70000000000001705 ) ) ;
#94 = CARTESIAN_POINT ( 'NONE',  ( 2.433562493173664138E-13, -8.535788190057053710E-15, 69.70000000000001705 ) ) ;
#95 = CARTESIAN_POINT ( 'NONE',  ( 3.675927742556058595E-14, 1.499999999999991562, 10.52827549630850967 ) ) ;
#96 = CIRCLE ( 'NONE', #195, 1.804999999999995053 ) ;
#97 = FACE_OUTER_BOUND ( 'NONE', #117, .T. ) ;
#98 = CARTESIAN_POINT ( 'NONE',  ( 3.491481338843133355E-14, -1.224646799147353256E-15, 10.00000000000000000 ) ) ;
#99 = CC_DESIGN_DATE_AND_TIME_ASSIGNMENT ( #281, #260, ( #146 ) ) ;
#100 = FACE_OUTER_BOUND ( 'NONE', #223, .T. ) ;
#101 = PERSON_AND_ORGANIZATION_ROLE ( 'creator' ) ;
#102 = ORIENTED_EDGE ( 'NONE', *, *, #187, .F. ) ;
#103 = ADVANCED_FACE ( 'NONE', ( #175, #35 ), #180, .T. ) ;
#104 = SHAPE_DEFINITION_REPRESENTATION ( #196, #219 ) ;
#105 = DESIGN_CONTEXT ( 'detailed design', #56, 'design' ) ;
#106 = DATE_TIME_ROLE ( 'classification_date' ) ;
#107 = AXIS2_PLACEMENT_3D ( 'NONE', #108, #129, #241 ) ;
#108 = CARTESIAN_POINT ( 'NONE',  ( 2.444036937190193601E-13, -8.572527594031472993E-15, 70.00000000000000000 ) ) ;
#109 = EDGE_CURVE ( 'NONE', #278, #278, #61, .T. ) ;
#110 = DIRECTION ( 'NONE',  ( 0.0000000000000000000, 1.000000000000000000, 0.0000000000000000000 ) ) ;
#111 = EDGE_LOOP ( 'NONE', ( #163 ) ) ;
#112 = DIRECTION ( 'NONE',  ( 0.0000000000000000000, 1.000000000000000000, 0.0000000000000000000 ) ) ;
#113 = CARTESIAN_POINT ( 'NONE',  ( 2.444036937190193601E-13, -8.572527594031472993E-15, 70.00000000000000000 ) ) ;
#114 = EDGE_LOOP ( 'NONE', ( #245 ) ) ;
#115 = PLANE ( 'NONE',  #231 ) ;
#116 = CARTESIAN_POINT ( 'NONE',  ( 2.444036937190193601E-13, 1.199999999999992628, 70.00000000000000000 ) ) ;
#117 = EDGE_LOOP ( 'NONE', ( #271 ) ) ;
#118 = AXIS2_PLACEMENT_3D ( 'NONE', #89, #286, #11 ) ;
#119 = PERSON_AND_ORGANIZATION ( #128, #84 ) ;
#120 = DIRECTION ( 'NONE',  ( -3.491481338843133355E-15, 1.224646799147353207E-16, -1.000000000000000000 ) ) ;
#121 = MANIFOLD_SOLID_BREP ( 'Corps-Déplacer/Copier1[2]', #277 ) ;
#122 = COORDINATED_UNIVERSAL_TIME_OFFSET ( 1, 0, .AHEAD. ) ;
#123 = EDGE_CURVE ( 'NONE', #139, #139, #75, .T. ) ;
#124 = ADVANCED_FACE ( 'NONE', ( #133 ), #226, .T. ) ;
#125 = CONICAL_SURFACE ( 'NONE', #293, 1.804999999999995053, 0.5235987755983000369 ) ;
#126 = CARTESIAN_POINT ( 'NONE',  ( 8.728703347107825500E-16, -3.061616997868380553E-17, 0.2499999999999997780 ) ) ;
#127 = ADVANCED_FACE ( 'NONE', ( #135 ), #115, .F. ) ;
#128 = PERSON ( 'UNSPECIFIED', 'UNSPECIFIED', 'UNSPECIFIED', ('UNSPECIFIED'), ('UNSPECIFIED'), ('UNSPECIFIED') ) ;
#129 = DIRECTION ( 'NONE',  ( -3.491481338843133355E-15, 1.224646799147353207E-16, -1.000000000000000000 ) ) ;
#130 = ORIENTED_EDGE ( 'NONE', *, *, #87, .F. ) ;
#131 = CARTESIAN_POINT ( 'NONE',  ( -6.648917898369745243E-31, 2.332126462039179877E-32, -1.904325772674126939E-16 ) ) ;
#132 = ORIENTED_EDGE ( 'NONE', *, *, #123, .F. ) ;
#133 = FACE_OUTER_BOUND ( 'NONE', #38, .T. ) ;
#134 = ORIENTED_EDGE ( 'NONE', *, *, #171, .F. ) ;
#135 = FACE_OUTER_BOUND ( 'NONE', #10, .T. ) ;
#136 = ADVANCED_FACE ( 'NONE', ( #60, #81 ), #161, .T. ) ;
#137 = DIRECTION ( 'NONE',  ( 1.000000000000000000, 0.0000000000000000000, 0.0000000000000000000 ) ) ;
#138 = AXIS2_PLACEMENT_3D ( 'NONE', #250, #39, #137 ) ;
#139 = VERTEX_POINT ( 'NONE', #95 ) ;
#140 = PLANE ( 'NONE',  #1 ) ;
#141 = DIRECTION ( 'NONE',  ( -4.275831445896958607E-31, -1.000000000000000000, -1.224646799147353207E-16 ) ) ;
#142 = FACE_OUTER_BOUND ( 'NONE', #240, .T. ) ;
#143 = CC_DESIGN_PERSON_AND_ORGANIZATION_ASSIGNMENT ( #217, #80, ( #190 ) ) ;
#144 = APPROVAL_STATUS ( 'not_yet_approved' ) ;
#145 = DATE_AND_TIME ( #284, #160 ) ;
#146 = PRODUCT_DEFINITION ( 'UNKNOWN', '', #190, #105 ) ;
#147 = DATE_AND_TIME ( #300, #70 ) ;
#148 = PERSON_AND_ORGANIZATION ( #128, #84 ) ;
#149 = AXIS2_PLACEMENT_3D ( 'NONE', #230, #120, #168 ) ;
#150 = CC_DESIGN_APPROVAL ( #63, ( #216 ) ) ;
#151 = CC_DESIGN_PERSON_AND_ORGANIZATION_ASSIGNMENT ( #232, #301, ( #146 ) ) ;
#152 = EDGE_CURVE ( 'NONE', #296, #296, #91, .T. ) ;
#153 = AXIS2_PLACEMENT_3D ( 'NONE', #280, #253, #17 ) ;
#154 = CARTESIAN_POINT ( 'NONE',  ( 3.491481338843133355E-14, -1.224646799147353256E-15, 10.00000000000000000 ) ) ;
#155 = EDGE_LOOP ( 'NONE', ( #132 ) ) ;
#156 = DIRECTION ( 'NONE',  ( -3.491481338843133355E-15, 1.224646799147353207E-16, -1.000000000000000000 ) ) ;
#157 = DIRECTION ( 'NONE',  ( -3.491481338843133355E-15, 1.224646799147353207E-16, -1.000000000000000000 ) ) ;
#158 = EDGE_LOOP ( 'NONE', ( #227 ) ) ;
#159 = AXIS2_PLACEMENT_3D ( 'NONE', #46, #82, #220 ) ;
#160 = LOCAL_TIME ( 10, 35, 51.00000000000000000, #27 ) ;
#161 = CYLINDRICAL_SURFACE ( 'NONE', #282, 1.499999999999996891 ) ;
#162 = EDGE_LOOP ( 'NONE', ( #58 ) ) ;
#163 = ORIENTED_EDGE ( 'NONE', *, *, #152, .T. ) ;
#164 = DIRECTION ( 'NONE',  ( -3.491481338843133355E-15, 1.224646799147353207E-16, -1.000000000000000000 ) ) ;
#165 =( NAMED_UNIT ( * ) SI_UNIT ( $, .STERADIAN. ) SOLID_ANGLE_UNIT ( ) );
#166 = AXIS2_PLACEMENT_3D ( 'NONE', #85, #86, #112 ) ;
#167 = CARTESIAN_POINT ( 'NONE',  ( 3.491481338843133355E-14, 1.804999999999993721, 10.00000000000000000 ) ) ;
#168 = DIRECTION ( 'NONE',  ( 0.0000000000000000000, 1.000000000000000000, 0.0000000000000000000 ) ) ;
#169 = CC_DESIGN_SECURITY_CLASSIFICATION ( #216, ( #190 ) ) ;
#170 = CALENDAR_DATE ( 2021, 2, 12 ) ;
#171 = EDGE_CURVE ( 'NONE', #43, #43, #215, .T. ) ;
#172 = LOCAL_TIME ( 10, 35, 51.00000000000000000, #214 ) ;
#173 = APPROVAL_PERSON_ORGANIZATION ( #148, #51, #76 ) ;
#174 = COORDINATED_UNIVERSAL_TIME_OFFSET ( 1, 0, .AHEAD. ) ;
#175 = FACE_OUTER_BOUND ( 'NONE', #249, .T. ) ;
#176 = DIRECTION ( 'NONE',  ( 3.491481338843133355E-15, -1.224646799147353207E-16, 1.000000000000000000 ) ) ;
#177 = CONICAL_SURFACE ( 'NONE', #166, 1.200000000000001510, 0.7853981633974566057 ) ;
#178 = FACE_OUTER_BOUND ( 'NONE', #162, .T. ) ;
#179 = EDGE_LOOP ( 'NONE', ( #134 ) ) ;
#180 = CYLINDRICAL_SURFACE ( 'NONE', #189, 1.804999999999995053 ) ;
#181 = ADVANCED_FACE ( 'NONE', ( #28 ), #4, .F. ) ;
#182 = EDGE_LOOP ( 'NONE', ( #247 ) ) ;
#183 = CARTESIAN_POINT ( 'NONE',  ( 2.444036937190193601E-13, -8.572527594031472993E-15, 70.00000000000000000 ) ) ;
#184 = ORIENTED_EDGE ( 'NONE', *, *, #152, .F. ) ;
#185 = CONICAL_SURFACE ( 'NONE', #252, 1.554999999999994165, 0.7853981633974500554 ) ;
#186 = ORIENTED_EDGE ( 'NONE', *, *, #78, .F. ) ;
#187 = EDGE_CURVE ( 'NONE', #90, #90, #96, .T. ) ;
#188 = VERTEX_POINT ( 'NONE', #167 ) ;
#189 = AXIS2_PLACEMENT_3D ( 'NONE', #224, #292, #198 ) ;
#190 = PRODUCT_DEFINITION_FORMATION_WITH_SPECIFIED_SOURCE ( 'ANY', '', #77, .NOT_KNOWN. ) ;
#191 = FACE_OUTER_BOUND ( 'NONE', #270, .T. ) ;
#192 = APPROVAL_ROLE ( '' ) ;
#193 = ORIENTED_EDGE ( 'NONE', *, *, #67, .F. ) ;
#194 = EDGE_CURVE ( 'NONE', #255, #255, #265, .T. ) ;
#195 = AXIS2_PLACEMENT_3D ( 'NONE', #154, #239, #202 ) ;
#196 = PRODUCT_DEFINITION_SHAPE ( 'NONE', 'NONE',  #146 ) ;
#197 = COORDINATED_UNIVERSAL_TIME_OFFSET ( 1, 0, .AHEAD. ) ;
#198 = DIRECTION ( 'NONE',  ( 4.275831445896957731E-31, 1.000000000000000000, 1.224646799147353207E-16 ) ) ;
#199 = DIRECTION ( 'NONE',  ( 0.0000000000000000000, 1.000000000000000000, 0.0000000000000000000 ) ) ;
#200 = DIRECTION ( 'NONE',  ( -3.491481338843133355E-15, 1.224646799147353207E-16, -1.000000000000000000 ) ) ;
#201 = EDGE_LOOP ( 'NONE', ( #130 ) ) ;
#202 = DIRECTION ( 'NONE',  ( 0.0000000000000000000, 1.000000000000000000, 0.0000000000000000000 ) ) ;
#203 = CARTESIAN_POINT ( 'NONE',  ( -6.648917898369745243E-31, 2.332126462039179877E-32, -1.904325772674126939E-16 ) ) ;
#204 = CC_DESIGN_PERSON_AND_ORGANIZATION_ASSIGNMENT ( #119, #279, ( #77 ) ) ;
#205 = ADVANCED_FACE ( 'NONE', ( #7, #6 ), #177, .T. ) ;
#206 = EDGE_LOOP ( 'NONE', ( #62 ) ) ;
#207 = CONICAL_SURFACE ( 'NONE', #264, 1.200000000000001510, 0.7853981633974566057 ) ;
#208 = DIRECTION ( 'NONE',  ( -3.491481338843133355E-15, 1.224646799147353207E-16, -1.000000000000000000 ) ) ;
#209 = DIRECTION ( 'NONE',  ( -3.491481338843133355E-15, 1.224646799147353207E-16, -1.000000000000000000 ) ) ;
#210 = CIRCLE ( 'NONE', #159, 1.804999999999995053 ) ;
#211 = APPROVAL_PERSON_ORGANIZATION ( #50, #63, #212 ) ;
#212 = APPROVAL_ROLE ( '' ) ;
#213 = CALENDAR_DATE ( 2021, 2, 12 ) ;
#214 = COORDINATED_UNIVERSAL_TIME_OFFSET ( 1, 0, .AHEAD. ) ;
#215 = CIRCLE ( 'NONE', #16, 1.804999999999995053 ) ;
#216 = SECURITY_CLASSIFICATION ( '', '', #48 ) ;
#217 = PERSON_AND_ORGANIZATION ( #128, #84 ) ;
#218 =( GEOMETRIC_REPRESENTATION_CONTEXT ( 3 ) GLOBAL_UNCERTAINTY_ASSIGNED_CONTEXT ( ( #65 ) ) GLOBAL_UNIT_ASSIGNED_CONTEXT ( ( #45, #297, #165 ) ) REPRESENTATION_CONTEXT ( 'NONE', 'WORKASPACE' ) );
#219 = ADVANCED_BREP_SHAPE_REPRESENTATION ( '321587', ( #8, #121, #138 ), #218 ) ;
#220 = DIRECTION ( 'NONE',  ( 0.0000000000000000000, 1.000000000000000000, 0.0000000000000000000 ) ) ;
#221 = ORIENTED_EDGE ( 'NONE', *, *, #194, .F. ) ;
#222 = DIRECTION ( 'NONE',  ( -3.491481338843133355E-15, 1.224646799147353207E-16, -1.000000000000000000 ) ) ;
#223 = EDGE_LOOP ( 'NONE', ( #88 ) ) ;
#224 = CARTESIAN_POINT ( 'NONE',  ( 0.0000000000000000000, 0.0000000000000000000, 0.0000000000000000000 ) ) ;
#225 = AXIS2_PLACEMENT_3D ( 'NONE', #203, #156, #54 ) ;
#226 = PLANE ( 'NONE',  #118 ) ;
#227 = ORIENTED_EDGE ( 'NONE', *, *, #67, .T. ) ;
#228 = CARTESIAN_POINT ( 'NONE',  ( 3.491481338843133355E-14, 1.804999999999993721, 10.00000000000000000 ) ) ;
#229 = DIRECTION ( 'NONE',  ( 3.491481338843133355E-15, -1.224646799147353207E-16, 1.000000000000000000 ) ) ;
#230 = CARTESIAN_POINT ( 'NONE',  ( 3.491481338843133355E-14, -1.224646799147353256E-15, 10.00000000000000000 ) ) ;
#231 = AXIS2_PLACEMENT_3D ( 'NONE', #183, #289, #273 ) ;
#232 = PERSON_AND_ORGANIZATION ( #128, #84 ) ;
#233 = PERSON_AND_ORGANIZATION ( #128, #84 ) ;
#234 = APPROVAL_DATE_TIME ( #147, #51 ) ;
#235 = LOCAL_TIME ( 10, 35, 51.00000000000000000, #174 ) ;
#236 = CARTESIAN_POINT ( 'NONE',  ( 0.0000000000000000000, 0.0000000000000000000, 0.0000000000000000000 ) ) ;
#237 = ADVANCED_FACE ( 'NONE', ( #178, #55 ), #185, .T. ) ;
#238 = AXIS2_PLACEMENT_3D ( 'NONE', #288, #267, #110 ) ;
#239 = DIRECTION ( 'NONE',  ( -3.491481338843133355E-15, 1.224646799147353207E-16, -1.000000000000000000 ) ) ;
#240 = EDGE_LOOP ( 'NONE', ( #193 ) ) ;
#241 = DIRECTION ( 'NONE',  ( 0.0000000000000000000, 1.000000000000000000, 0.0000000000000000000 ) ) ;
#242 = ORIENTED_EDGE ( 'NONE', *, *, #194, .T. ) ;
#243 = DIRECTION ( 'NONE',  ( -3.491481338843133355E-15, 1.224646799147353207E-16, -1.000000000000000000 ) ) ;
#244 = AXIS2_PLACEMENT_3D ( 'NONE', #94, #164, #44 ) ;
#245 = ORIENTED_EDGE ( 'NONE', *, *, #109, .F. ) ;
#246 = DIRECTION ( 'NONE',  ( -3.491481338843133355E-15, 1.224646799147353207E-16, -1.000000000000000000 ) ) ;
#247 = ORIENTED_EDGE ( 'NONE', *, *, #78, .T. ) ;
#248 = CARTESIAN_POINT ( 'NONE',  ( 3.675927742556058595E-14, 1.499999999999991562, 10.52827549630850967 ) ) ;
#249 = EDGE_LOOP ( 'NONE', ( #14 ) ) ;
#250 = CARTESIAN_POINT ( 'NONE',  ( 0.0000000000000000000, 0.0000000000000000000, 0.0000000000000000000 ) ) ;
#251 = CC_DESIGN_PERSON_AND_ORGANIZATION_ASSIGNMENT ( #233, #101, ( #190 ) ) ;
#252 = AXIS2_PLACEMENT_3D ( 'NONE', #131, #229, #141 ) ;
#253 = DIRECTION ( 'NONE',  ( -3.491481338843133355E-15, 1.224646799147353207E-16, -1.000000000000000000 ) ) ;
#254 = VERTEX_POINT ( 'NONE', #20 ) ;
#255 = VERTEX_POINT ( 'NONE', #248 ) ;
#256 = APPLICATION_CONTEXT ( 'configuration controlled 3d designs of mechanical parts and assemblies' ) ;
#257 = FACE_BOUND ( 'NONE', #5, .T. ) ;
#258 = PRODUCT_RELATED_PRODUCT_CATEGORY ( 'detail', '', ( #77 ) ) ;
#259 = AXIS2_PLACEMENT_3D ( 'NONE', #32, #176, #268 ) ;
#260 = DATE_TIME_ROLE ( 'creation_date' ) ;
#261 = CYLINDRICAL_SURFACE ( 'NONE', #153, 1.499999999999996891 ) ;
#262 = APPROVAL_STATUS ( 'not_yet_approved' ) ;
#263 = PERSON_AND_ORGANIZATION ( #128, #84 ) ;
#264 = AXIS2_PLACEMENT_3D ( 'NONE', #40, #74, #42 ) ;
#265 = CIRCLE ( 'NONE', #53, 1.499999999999992895 ) ;
#266 = APPLICATION_PROTOCOL_DEFINITION ( 'international standard', 'config_control_design', 1994, #56 ) ;
#267 = DIRECTION ( 'NONE',  ( -3.491481338843133355E-15, 1.224646799147353207E-16, -1.000000000000000000 ) ) ;
#268 = DIRECTION ( 'NONE',  ( -4.275831445896958607E-31, -1.000000000000000000, -1.224646799147353207E-16 ) ) ;
#269 = CC_DESIGN_APPROVAL ( #92, ( #146 ) ) ;
#270 = EDGE_LOOP ( 'NONE', ( #184 ) ) ;
#271 = ORIENTED_EDGE ( 'NONE', *, *, #57, .F. ) ;
#272 = DIRECTION ( 'NONE',  ( 0.0000000000000000000, 1.000000000000000000, 0.0000000000000000000 ) ) ;
#273 = DIRECTION ( 'NONE',  ( 4.275831445896958607E-31, 1.000000000000000000, 1.224646799147353207E-16 ) ) ;
#274 = FACE_BOUND ( 'NONE', #206, .T. ) ;
#275 = CARTESIAN_POINT ( 'NONE',  ( 8.728703347107833388E-16, 1.804999999999995053, 0.2500000000000000000 ) ) ;
#276 = VERTEX_POINT ( 'NONE', #13 ) ;
#277 = CLOSED_SHELL ( 'NONE', ( #303, #103, #237, #124, #127, #34, #136 ) ) ;
#278 = VERTEX_POINT ( 'NONE', #41 ) ;
#279 = PERSON_AND_ORGANIZATION_ROLE ( 'design_owner' ) ;
#280 = CARTESIAN_POINT ( 'NONE',  ( 0.0000000000000000000, 0.0000000000000000000, 0.0000000000000000000 ) ) ;
#281 = DATE_AND_TIME ( #170, #172 ) ;
#282 = AXIS2_PLACEMENT_3D ( 'NONE', #236, #246, #2 ) ;
#283 = APPROVAL_DATE_TIME ( #145, #92 ) ;
#284 = CALENDAR_DATE ( 2021, 2, 12 ) ;
#285 = PERSON_AND_ORGANIZATION ( #128, #84 ) ;
#286 = DIRECTION ( 'NONE',  ( -3.491481338843133355E-15, 1.224646799147353207E-16, -1.000000000000000000 ) ) ;
#287 = CC_DESIGN_DATE_AND_TIME_ASSIGNMENT ( #73, #106, ( #216 ) ) ;
#288 = CARTESIAN_POINT ( 'NONE',  ( 3.675927742556058595E-14, -1.289341888709572671E-15, 10.52827549630850967 ) ) ;
#289 = DIRECTION ( 'NONE',  ( -3.491481338843133355E-15, 1.224646799147353207E-16, -1.000000000000000000 ) ) ;
#290 = AXIS2_PLACEMENT_3D ( 'NONE', #113, #157, #272 ) ;
#291 = DIRECTION ( 'NONE',  ( 0.0000000000000000000, 1.000000000000000000, 0.0000000000000000000 ) ) ;
#292 = DIRECTION ( 'NONE',  ( -3.491481338843133355E-15, 1.224646799147353207E-16, -1.000000000000000000 ) ) ;
#293 = AXIS2_PLACEMENT_3D ( 'NONE', #98, #208, #15 ) ;
#294 = VERTEX_POINT ( 'NONE', #93 ) ;
#295 = DIRECTION ( 'NONE',  ( 4.275831445896958607E-31, 1.000000000000000000, 1.224646799147353207E-16 ) ) ;
#296 = VERTEX_POINT ( 'NONE', #116 ) ;
#297 =( NAMED_UNIT ( * ) PLANE_ANGLE_UNIT ( ) SI_UNIT ( $, .RADIAN. ) );
#298 = CIRCLE ( 'NONE', #290, 1.200000000000001510 ) ;
#299 = FACE_BOUND ( 'NONE', #182, .T. ) ;
#300 = CALENDAR_DATE ( 2021, 2, 12 ) ;
#301 = PERSON_AND_ORGANIZATION_ROLE ( 'creator' ) ;
#302 = APPROVAL_STATUS ( 'not_yet_approved' ) ;
#303 = ADVANCED_FACE ( 'NONE', ( #274, #71 ), #125, .T. ) ;
ENDSEC;
END-ISO-10303-21;
