ISO-10303-21;
HEADER;
FILE_DESCRIPTION (( 'STEP AP203' ),
    '1' );
FILE_NAME ('321586.step',
    '2021-12-02T09:35:50',
    ( '' ),
    ( '' ),
    'SwSTEP 2.0',
    'SolidWorks 2019',
    '' );
FILE_SCHEMA (( 'CONFIG_CONTROL_DESIGN' ));
ENDSEC;

DATA;
#1 = AXIS2_PLACEMENT_3D ( 'NONE', #227, #172, #302 ) ;
#2 = DIRECTION ( 'NONE',  ( 4.275831445896958607E-31, 1.000000000000000000, 1.224646799147353207E-16 ) ) ;
#3 = CARTESIAN_POINT ( 'NONE',  ( 3.491481338843133355E-14, 1.799999999999993605, 10.00000000000000000 ) ) ;
#4 = VERTEX_POINT ( 'NONE', #189 ) ;
#5 = PLANE ( 'NONE',  #247 ) ;
#6 = ORIENTED_EDGE ( 'NONE', *, *, #110, .T. ) ;
#7 = PERSON_AND_ORGANIZATION ( #180, #171 ) ;
#8 = DIRECTION ( 'NONE',  ( -4.275831445896958607E-31, -1.000000000000000000, -1.224646799147353207E-16 ) ) ;
#9 = CC_DESIGN_PERSON_AND_ORGANIZATION_ASSIGNMENT ( #268, #35, ( #254 ) ) ;
#10 = ORIENTED_EDGE ( 'NONE', *, *, #159, .F. ) ;
#11 = APPROVAL_ROLE ( '' ) ;
#12 = DIRECTION ( 'NONE',  ( 0.0000000000000000000, 0.0000000000000000000, 1.000000000000000000 ) ) ;
#13 = COORDINATED_UNIVERSAL_TIME_OFFSET ( 1, 0, .AHEAD. ) ;
#14 = EDGE_LOOP ( 'NONE', ( #6 ) ) ;
#15 = APPROVAL_DATE_TIME ( #147, #167 ) ;
#16 = EDGE_LOOP ( 'NONE', ( #215 ) ) ;
#17 = CC_DESIGN_DATE_AND_TIME_ASSIGNMENT ( #190, #270, ( #124 ) ) ;
#18 = CARTESIAN_POINT ( 'NONE',  ( 2.433562493173664138E-13, -8.535788190057053710E-15, 69.70000000000001705 ) ) ;
#19 = DIRECTION ( 'NONE',  ( 4.275831445896958607E-31, 1.000000000000000000, 1.224646799147353207E-16 ) ) ;
#20 = CC_DESIGN_APPROVAL ( #246, ( #296 ) ) ;
#21 = ORIENTED_EDGE ( 'NONE', *, *, #110, .F. ) ;
#22 = DIRECTION ( 'NONE',  ( -3.491481338843133355E-15, 1.224646799147353207E-16, -1.000000000000000000 ) ) ;
#23 = FACE_OUTER_BOUND ( 'NONE', #237, .T. ) ;
#24 = ADVANCED_FACE ( 'NONE', ( #40, #125 ), #223, .T. ) ;
#25 = MANIFOLD_SOLID_BREP ( 'Corps-Déplacer/Copier1[2]', #181 ) ;
#26 = CARTESIAN_POINT ( 'NONE',  ( 2.444036937190193601E-13, 1.199999999999992628, 70.00000000000000000 ) ) ;
#27 = CARTESIAN_POINT ( 'NONE',  ( 0.0000000000000000000, 0.0000000000000000000, 0.0000000000000000000 ) ) ;
#28 = DIRECTION ( 'NONE',  ( -3.491481338843133355E-15, 1.224646799147353207E-16, -1.000000000000000000 ) ) ;
#29 = DIRECTION ( 'NONE',  ( -3.491481338843133355E-15, 1.224646799147353207E-16, -1.000000000000000000 ) ) ;
#30 = CYLINDRICAL_SURFACE ( 'NONE', #60, 1.499999999999996891 ) ;
#31 = CARTESIAN_POINT ( 'NONE',  ( 3.491481338843133355E-14, 1.349783804395666100E-32, 10.00000000000000000 ) ) ;
#32 = CIRCLE ( 'NONE', #278, 1.200000000000001510 ) ;
#33 = LOCAL_TIME ( 10, 35, 50.00000000000000000, #146 ) ;
#34 = ORIENTED_EDGE ( 'NONE', *, *, #141, .T. ) ;
#35 = PERSON_AND_ORGANIZATION_ROLE ( 'creator' ) ;
#36 = PERSON_AND_ORGANIZATION ( #180, #171 ) ;
#37 = EDGE_LOOP ( 'NONE', ( #43 ) ) ;
#38 = DATE_AND_TIME ( #144, #33 ) ;
#39 = CIRCLE ( 'NONE', #295, 1.549999999999994049 ) ;
#40 = FACE_OUTER_BOUND ( 'NONE', #153, .T. ) ;
#41 = ORIENTED_EDGE ( 'NONE', *, *, #183, .T. ) ;
#42 = CALENDAR_DATE ( 2021, 2, 12 ) ;
#43 = ORIENTED_EDGE ( 'NONE', *, *, #159, .T. ) ;
#44 = APPROVAL_DATE_TIME ( #274, #205 ) ;
#45 = DIRECTION ( 'NONE',  ( 0.0000000000000000000, 1.000000000000000000, 0.0000000000000000000 ) ) ;
#46 = ADVANCED_FACE ( 'NONE', ( #198, #23 ), #84, .T. ) ;
#47 = CARTESIAN_POINT ( 'NONE',  ( -6.627538741140259653E-31, 2.324627663125870534E-32, -1.898202538678390063E-16 ) ) ;
#48 = AXIS2_PLACEMENT_3D ( 'NONE', #264, #12, #241 ) ;
#49 = CARTESIAN_POINT ( 'NONE',  ( 2.444036937190193601E-13, 1.199999999999992628, 70.00000000000000000 ) ) ;
#50 = DIRECTION ( 'NONE',  ( 4.275831445896958607E-31, 1.000000000000000000, 1.224646799147353207E-16 ) ) ;
#51 = FACE_BOUND ( 'NONE', #73, .T. ) ;
#52 = CLOSED_SHELL ( 'NONE', ( #196, #46, #243, #126, #275 ) ) ;
#53 = CONICAL_SURFACE ( 'NONE', #272, 1.799999999999994937, 0.5235987755983007030 ) ;
#54 = CARTESIAN_POINT ( 'NONE',  ( 3.672904031019781722E-14, 1.499999999999991562, 10.51961524227066569 ) ) ;
#55 = PRODUCT_DEFINITION_SHAPE ( 'NONE', 'NONE',  #296 ) ;
#56 = EDGE_LOOP ( 'NONE', ( #34 ) ) ;
#57 = CONICAL_SURFACE ( 'NONE', #78, 1.549999999999994049, 0.7853981633974499443 ) ;
#58 = DIRECTION ( 'NONE',  ( 0.0000000000000000000, 1.000000000000000000, 0.0000000000000000000 ) ) ;
#59 = DIRECTION ( 'NONE',  ( -3.491481338843133355E-15, 1.224646799147353207E-16, -1.000000000000000000 ) ) ;
#60 = AXIS2_PLACEMENT_3D ( 'NONE', #67, #137, #90 ) ;
#61 = CARTESIAN_POINT ( 'NONE',  ( 2.444036937190193601E-13, -8.572527594031472993E-15, 70.00000000000000000 ) ) ;
#62 = EDGE_LOOP ( 'NONE', ( #98 ) ) ;
#63 = CARTESIAN_POINT ( 'NONE',  ( 2.444036937190193601E-13, -8.572527594031472993E-15, 70.00000000000000000 ) ) ;
#64 = AXIS2_PLACEMENT_3D ( 'NONE', #273, #149, #175 ) ;
#65 = CARTESIAN_POINT ( 'NONE',  ( 3.491481338843133355E-14, -1.224646799147353256E-15, 10.00000000000000000 ) ) ;
#66 = APPLICATION_CONTEXT ( 'configuration controlled 3d designs of mechanical parts and assemblies' ) ;
#67 = CARTESIAN_POINT ( 'NONE',  ( 0.0000000000000000000, 0.0000000000000000000, 0.0000000000000000000 ) ) ;
#68 = CIRCLE ( 'NONE', #252, 1.500000000000001110 ) ;
#69 = VERTEX_POINT ( 'NONE', #289 ) ;
#70 = EDGE_LOOP ( 'NONE', ( #221 ) ) ;
#71 = DIRECTION ( 'NONE',  ( -3.491481338843133355E-15, 1.224646799147353207E-16, -1.000000000000000000 ) ) ;
#72 = AXIS2_PLACEMENT_3D ( 'NONE', #27, #118, #228 ) ;
#73 = EDGE_LOOP ( 'NONE', ( #41 ) ) ;
#74 = CALENDAR_DATE ( 2021, 2, 12 ) ;
#75 = CC_DESIGN_SECURITY_CLASSIFICATION ( #124, ( #254 ) ) ;
#76 = ADVANCED_FACE ( 'NONE', ( #148, #220 ), #57, .T. ) ;
#77 = APPROVAL_STATUS ( 'not_yet_approved' ) ;
#78 = AXIS2_PLACEMENT_3D ( 'NONE', #300, #303, #197 ) ;
#79 = UNCERTAINTY_MEASURE_WITH_UNIT (LENGTH_MEASURE( 1.000000000000000082E-05 ), #185, 'distance_accuracy_value', 'NONE');
#80 = ORIENTED_EDGE ( 'NONE', *, *, #209, .T. ) ;
#81 = PERSON_AND_ORGANIZATION_ROLE ( 'classification_officer' ) ;
#82 = DIRECTION ( 'NONE',  ( -3.491481338843133355E-15, 1.224646799147353207E-16, -1.000000000000000000 ) ) ;
#83 = DIRECTION ( 'NONE',  ( 0.0000000000000000000, 1.000000000000000000, 0.0000000000000000000 ) ) ;
#84 = CONICAL_SURFACE ( 'NONE', #210, 1.799999999999994937, 0.5235987755983007030 ) ;
#85 = FACE_OUTER_BOUND ( 'NONE', #213, .T. ) ;
#86 = AXIS2_PLACEMENT_3D ( 'NONE', #168, #28, #143 ) ;
#87 = PLANE ( 'NONE',  #285 ) ;
#88 = DIRECTION ( 'NONE',  ( -3.491481338843133355E-15, 1.224646799147353207E-16, -1.000000000000000000 ) ) ;
#89 = DIRECTION ( 'NONE',  ( 0.0000000000000000000, 1.000000000000000000, 0.0000000000000000000 ) ) ;
#90 = DIRECTION ( 'NONE',  ( 4.275831445896958607E-31, 1.000000000000000000, 1.224646799147353454E-16 ) ) ;
#91 = DIRECTION ( 'NONE',  ( 0.0000000000000000000, 1.000000000000000000, 0.0000000000000000000 ) ) ;
#92 = APPLICATION_PROTOCOL_DEFINITION ( 'international standard', 'config_control_design', 1994, #66 ) ;
#93 = CIRCLE ( 'NONE', #233, 1.499999999999992895 ) ;
#94 = ORIENTED_EDGE ( 'NONE', *, *, #178, .T. ) ;
#95 = DATE_AND_TIME ( #74, #234 ) ;
#96 = CC_DESIGN_APPROVAL ( #205, ( #124 ) ) ;
#97 = PERSON_AND_ORGANIZATION_ROLE ( 'creator' ) ;
#98 = ORIENTED_EDGE ( 'NONE', *, *, #183, .F. ) ;
#99 = SECURITY_CLASSIFICATION_LEVEL ( 'unclassified' ) ;
#100 = CIRCLE ( 'NONE', #176, 1.799999999999994937 ) ;
#101 = LOCAL_TIME ( 10, 35, 50.00000000000000000, #104 ) ;
#102 = CC_DESIGN_DATE_AND_TIME_ASSIGNMENT ( #95, #121, ( #296 ) ) ;
#103 = ORIENTED_EDGE ( 'NONE', *, *, #178, .F. ) ;
#104 = COORDINATED_UNIVERSAL_TIME_OFFSET ( 1, 0, .AHEAD. ) ;
#105 = DIRECTION ( 'NONE',  ( 0.0000000000000000000, 1.000000000000000000, 0.0000000000000000000 ) ) ;
#106 = EDGE_CURVE ( 'NONE', #4, #4, #39, .T. ) ;
#107 = ORIENTED_EDGE ( 'NONE', *, *, #151, .F. ) ;
#108 = CIRCLE ( 'NONE', #129, 1.799999999999994937 ) ;
#109 = EDGE_LOOP ( 'NONE', ( #262 ) ) ;
#110 = EDGE_CURVE ( 'NONE', #69, #69, #165, .T. ) ;
#111 = FACE_OUTER_BOUND ( 'NONE', #265, .T. ) ;
#112 = DIRECTION ( 'NONE',  ( -3.491481338843133355E-15, 1.224646799147353207E-16, -1.000000000000000000 ) ) ;
#113 = CARTESIAN_POINT ( 'NONE',  ( 3.672904031019781722E-14, 1.499999999999991562, 10.51961524227066569 ) ) ;
#114 = FACE_OUTER_BOUND ( 'NONE', #62, .T. ) ;
#115 = CARTESIAN_POINT ( 'NONE',  ( 3.491481338843133355E-14, -1.224646799147353256E-15, 10.00000000000000000 ) ) ;
#116 = LOCAL_TIME ( 10, 35, 50.00000000000000000, #193 ) ;
#117 = CARTESIAN_POINT ( 'NONE',  ( 2.444036937190193601E-13, -8.572527594031472993E-15, 70.00000000000000000 ) ) ;
#118 = DIRECTION ( 'NONE',  ( -3.491481338843133355E-15, 1.224646799147353207E-16, -1.000000000000000000 ) ) ;
#119 = MANIFOLD_SOLID_BREP ( 'Corps-Déplacer/Copier1[1]', #52 ) ;
#120 = APPROVAL_PERSON_ORGANIZATION ( #291, #246, #11 ) ;
#121 = DATE_TIME_ROLE ( 'creation_date' ) ;
#122 = PRODUCT ( '321586', '321586', '', ( #245 ) ) ;
#123 = EDGE_LOOP ( 'NONE', ( #94 ) ) ;
#124 = SECURITY_CLASSIFICATION ( '', '', #99 ) ;
#125 = FACE_OUTER_BOUND ( 'NONE', #259, .T. ) ;
#126 = ADVANCED_FACE ( 'NONE', ( #85, #297 ), #132, .T. ) ;
#127 = EDGE_LOOP ( 'NONE', ( #192 ) ) ;
#128 = CARTESIAN_POINT ( 'NONE',  ( 3.491481338843133355E-14, -1.224646799147353256E-15, 10.00000000000000000 ) ) ;
#129 = AXIS2_PLACEMENT_3D ( 'NONE', #115, #240, #211 ) ;
#130 = SHAPE_DEFINITION_REPRESENTATION ( #55, #279 ) ;
#131 = APPLICATION_CONTEXT ( 'configuration controlled 3d designs of mechanical parts and assemblies' ) ;
#132 = CONICAL_SURFACE ( 'NONE', #186, 1.200000000000001510, 0.7853981633974566057 ) ;
#133 = CARTESIAN_POINT ( 'NONE',  ( 8.728703347107827472E-16, -3.061616997868381169E-17, 0.2499999999999998335 ) ) ;
#134 = APPROVAL_PERSON_ORGANIZATION ( #7, #167, #238 ) ;
#135 = CARTESIAN_POINT ( 'NONE',  ( 2.433562493173664138E-13, 1.499999999999992673, 69.70000000000001705 ) ) ;
#136 = VERTEX_POINT ( 'NONE', #54 ) ;
#137 = DIRECTION ( 'NONE',  ( -3.491481338843133355E-15, 1.224646799147353207E-16, -1.000000000000000000 ) ) ;
#138 = AXIS2_PLACEMENT_3D ( 'NONE', #31, #283, #8 ) ;
#139 = LOCAL_TIME ( 10, 35, 50.00000000000000000, #13 ) ;
#140 = VERTEX_POINT ( 'NONE', #26 ) ;
#141 = EDGE_CURVE ( 'NONE', #158, #158, #68, .T. ) ;
#142 = EDGE_LOOP ( 'NONE', ( #10 ) ) ;
#143 = DIRECTION ( 'NONE',  ( 0.0000000000000000000, 1.000000000000000000, 0.0000000000000000000 ) ) ;
#144 = CALENDAR_DATE ( 2021, 2, 12 ) ;
#145 = EDGE_LOOP ( 'NONE', ( #154 ) ) ;
#146 = COORDINATED_UNIVERSAL_TIME_OFFSET ( 1, 0, .AHEAD. ) ;
#147 = DATE_AND_TIME ( #298, #116 ) ;
#148 = FACE_OUTER_BOUND ( 'NONE', #14, .T. ) ;
#149 = DIRECTION ( 'NONE',  ( -3.491481338843133355E-15, 1.224646799147353207E-16, -1.000000000000000000 ) ) ;
#150 = PERSON_AND_ORGANIZATION ( #180, #171 ) ;
#151 = EDGE_CURVE ( 'NONE', #188, #188, #100, .T. ) ;
#152 = PRODUCT_RELATED_PRODUCT_CATEGORY ( 'detail', '', ( #122 ) ) ;
#153 = EDGE_LOOP ( 'NONE', ( #80 ) ) ;
#154 = ORIENTED_EDGE ( 'NONE', *, *, #151, .T. ) ;
#155 = AXIS2_PLACEMENT_3D ( 'NONE', #133, #299, #249 ) ;
#156 = FACE_OUTER_BOUND ( 'NONE', #70, .T. ) ;
#157 = EDGE_LOOP ( 'NONE', ( #250 ) ) ;
#158 = VERTEX_POINT ( 'NONE', #257 ) ;
#159 = EDGE_CURVE ( 'NONE', #260, #260, #301, .T. ) ;
#160 = CC_DESIGN_APPROVAL ( #167, ( #254 ) ) ;
#161 = VERTEX_POINT ( 'NONE', #135 ) ;
#162 = EDGE_CURVE ( 'NONE', #161, #161, #203, .T. ) ;
#163 = ORIENTED_EDGE ( 'NONE', *, *, #162, .F. ) ;
#164 = CARTESIAN_POINT ( 'NONE',  ( 3.491481338843133355E-14, 1.799999999999993605, 10.00000000000000000 ) ) ;
#165 = CIRCLE ( 'NONE', #155, 1.799999999999994937 ) ;
#166 = APPROVAL_STATUS ( 'not_yet_approved' ) ;
#167 = APPROVAL ( #166, 'UNSPECIFIED' ) ;
#168 = CARTESIAN_POINT ( 'NONE',  ( 2.444036937190193601E-13, -8.572527594031472993E-15, 70.00000000000000000 ) ) ;
#169 = PERSON_AND_ORGANIZATION ( #180, #171 ) ;
#170 =( NAMED_UNIT ( * ) PLANE_ANGLE_UNIT ( ) SI_UNIT ( $, .RADIAN. ) );
#171 = ORGANIZATION ( 'UNSPECIFIED', 'UNSPECIFIED', '' ) ;
#172 = DIRECTION ( 'NONE',  ( -3.491481338843133355E-15, 1.224646799147353207E-16, -1.000000000000000000 ) ) ;
#173 = CALENDAR_DATE ( 2021, 2, 12 ) ;
#174 = DIRECTION ( 'NONE',  ( -3.491481338843133355E-15, 1.224646799147353207E-16, -1.000000000000000000 ) ) ;
#175 = DIRECTION ( 'NONE',  ( 0.0000000000000000000, 1.000000000000000000, 0.0000000000000000000 ) ) ;
#176 = AXIS2_PLACEMENT_3D ( 'NONE', #179, #277, #271 ) ;
#177 = DIRECTION ( 'NONE',  ( 0.0000000000000000000, 1.000000000000000000, 0.0000000000000000000 ) ) ;
#178 = EDGE_CURVE ( 'NONE', #136, #136, #93, .T. ) ;
#179 = CARTESIAN_POINT ( 'NONE',  ( 3.491481338843133355E-14, -1.224646799147353256E-15, 10.00000000000000000 ) ) ;
#180 = PERSON ( 'UNSPECIFIED', 'UNSPECIFIED', 'UNSPECIFIED', ('UNSPECIFIED'), ('UNSPECIFIED'), ('UNSPECIFIED') ) ;
#181 = CLOSED_SHELL ( 'NONE', ( #224, #24, #76, #239, #294, #204, #214 ) ) ;
#182 = PLANE ( 'NONE',  #267 ) ;
#183 = EDGE_CURVE ( 'NONE', #140, #140, #32, .T. ) ;
#184 = CARTESIAN_POINT ( 'NONE',  ( 3.672904031019781722E-14, -1.288281313470847824E-15, 10.51961524227066569 ) ) ;
#185 =( LENGTH_UNIT ( ) NAMED_UNIT ( * ) SI_UNIT ( .MILLI., .METRE. ) );
#186 = AXIS2_PLACEMENT_3D ( 'NONE', #244, #82, #177 ) ;
#187 = DIRECTION ( 'NONE',  ( -3.491481338843133355E-15, 1.224646799147353207E-16, -1.000000000000000000 ) ) ;
#188 = VERTEX_POINT ( 'NONE', #164 ) ;
#189 = CARTESIAN_POINT ( 'NONE',  ( 8.552847072295026068E-47, 1.549999999999994049, 0.0000000000000000000 ) ) ;
#190 = DATE_AND_TIME ( #173, #139 ) ;
#191 = CONICAL_SURFACE ( 'NONE', #86, 1.200000000000001510, 0.7853981633974566057 ) ;
#192 = ORIENTED_EDGE ( 'NONE', *, *, #106, .F. ) ;
#193 = COORDINATED_UNIVERSAL_TIME_OFFSET ( 1, 0, .AHEAD. ) ;
#194 = AXIS2_PLACEMENT_3D ( 'NONE', #63, #59, #83 ) ;
#195 = PERSON_AND_ORGANIZATION ( #180, #171 ) ;
#196 = ADVANCED_FACE ( 'NONE', ( #236 ), #287, .F. ) ;
#197 = DIRECTION ( 'NONE',  ( -4.275831445896959482E-31, -1.000000000000000000, -1.224646799147353207E-16 ) ) ;
#198 = FACE_BOUND ( 'NONE', #123, .T. ) ;
#199 = ORIENTED_EDGE ( 'NONE', *, *, #162, .T. ) ;
#200 = APPROVAL_PERSON_ORGANIZATION ( #150, #205, #253 ) ;
#201 = DIRECTION ( 'NONE',  ( 0.0000000000000000000, 1.000000000000000000, 0.0000000000000000000 ) ) ;
#202 = DESIGN_CONTEXT ( 'detailed design', #131, 'design' ) ;
#203 = CIRCLE ( 'NONE', #64, 1.500000000000001110 ) ;
#204 = ADVANCED_FACE ( 'NONE', ( #263, #51 ), #191, .T. ) ;
#205 = APPROVAL ( #251, 'UNSPECIFIED' ) ;
#206 = FACE_OUTER_BOUND ( 'NONE', #290, .T. ) ;
#207 = CARTESIAN_POINT ( 'NONE',  ( -3.313769370570129827E-31, 1.162313831562935267E-32, -9.491012693391950316E-17 ) ) ;
#208 = CARTESIAN_POINT ( 'NONE',  ( 2.444036937190193601E-13, 8.998558695971026591E-33, 70.00000000000000000 ) ) ;
#209 = EDGE_CURVE ( 'NONE', #235, #235, #108, .T. ) ;
#210 = AXIS2_PLACEMENT_3D ( 'NONE', #128, #112, #201 ) ;
#211 = DIRECTION ( 'NONE',  ( 0.0000000000000000000, 1.000000000000000000, 0.0000000000000000000 ) ) ;
#212 = COORDINATED_UNIVERSAL_TIME_OFFSET ( 1, 0, .AHEAD. ) ;
#213 = EDGE_LOOP ( 'NONE', ( #163 ) ) ;
#214 = ADVANCED_FACE ( 'NONE', ( #258, #231 ), #255, .T. ) ;
#215 = ORIENTED_EDGE ( 'NONE', *, *, #229, .F. ) ;
#216 = PERSON_AND_ORGANIZATION ( #180, #171 ) ;
#217 = PERSON_AND_ORGANIZATION_ROLE ( 'design_supplier' ) ;
#218 = APPLICATION_PROTOCOL_DEFINITION ( 'international standard', 'config_control_design', 1994, #131 ) ;
#219 = CIRCLE ( 'NONE', #261, 1.499999999999992895 ) ;
#220 = FACE_BOUND ( 'NONE', #127, .T. ) ;
#221 = ORIENTED_EDGE ( 'NONE', *, *, #209, .F. ) ;
#222 = EDGE_LOOP ( 'NONE', ( #269 ) ) ;
#223 = CYLINDRICAL_SURFACE ( 'NONE', #1, 1.799999999999994937 ) ;
#224 = ADVANCED_FACE ( 'NONE', ( #284, #156 ), #53, .T. ) ;
#225 = DIRECTION ( 'NONE',  ( -3.491481338843133355E-15, 1.224646799147353207E-16, -1.000000000000000000 ) ) ;
#226 =( GEOMETRIC_REPRESENTATION_CONTEXT ( 3 ) GLOBAL_UNCERTAINTY_ASSIGNED_CONTEXT ( ( #79 ) ) GLOBAL_UNIT_ASSIGNED_CONTEXT ( ( #185, #170, #266 ) ) REPRESENTATION_CONTEXT ( 'NONE', 'WORKASPACE' ) );
#227 = CARTESIAN_POINT ( 'NONE',  ( 0.0000000000000000000, 0.0000000000000000000, 0.0000000000000000000 ) ) ;
#228 = DIRECTION ( 'NONE',  ( 4.275831445896958607E-31, 1.000000000000000000, 1.224646799147353454E-16 ) ) ;
#229 = EDGE_CURVE ( 'NONE', #288, #288, #219, .T. ) ;
#230 = FACE_OUTER_BOUND ( 'NONE', #142, .T. ) ;
#231 = FACE_OUTER_BOUND ( 'NONE', #56, .T. ) ;
#232 = CC_DESIGN_PERSON_AND_ORGANIZATION_ASSIGNMENT ( #216, #97, ( #296 ) ) ;
#233 = AXIS2_PLACEMENT_3D ( 'NONE', #248, #256, #105 ) ;
#234 = LOCAL_TIME ( 10, 35, 50.00000000000000000, #212 ) ;
#235 = VERTEX_POINT ( 'NONE', #3 ) ;
#236 = FACE_OUTER_BOUND ( 'NONE', #145, .T. ) ;
#237 = EDGE_LOOP ( 'NONE', ( #107 ) ) ;
#238 = APPROVAL_ROLE ( '' ) ;
#239 = ADVANCED_FACE ( 'NONE', ( #281 ), #87, .T. ) ;
#240 = DIRECTION ( 'NONE',  ( -3.491481338843133355E-15, 1.224646799147353207E-16, -1.000000000000000000 ) ) ;
#241 = DIRECTION ( 'NONE',  ( 1.000000000000000000, 0.0000000000000000000, 0.0000000000000000000 ) ) ;
#242 = APPROVAL_DATE_TIME ( #38, #246 ) ;
#243 = ADVANCED_FACE ( 'NONE', ( #111, #206 ), #30, .T. ) ;
#244 = CARTESIAN_POINT ( 'NONE',  ( 2.444036937190193601E-13, -8.572527594031472993E-15, 70.00000000000000000 ) ) ;
#245 = MECHANICAL_CONTEXT ( 'NONE', #66, 'mechanical' ) ;
#246 = APPROVAL ( #77, 'UNSPECIFIED' ) ;
#247 = AXIS2_PLACEMENT_3D ( 'NONE', #117, #88, #282 ) ;
#248 = CARTESIAN_POINT ( 'NONE',  ( 3.672904031019781722E-14, -1.288281313470847824E-15, 10.51961524227066569 ) ) ;
#249 = DIRECTION ( 'NONE',  ( 4.279844320860536282E-31, 1.000000000000000000, 1.204669080539452795E-16 ) ) ;
#250 = ORIENTED_EDGE ( 'NONE', *, *, #141, .F. ) ;
#251 = APPROVAL_STATUS ( 'not_yet_approved' ) ;
#252 = AXIS2_PLACEMENT_3D ( 'NONE', #18, #276, #58 ) ;
#253 = APPROVAL_ROLE ( '' ) ;
#254 = PRODUCT_DEFINITION_FORMATION_WITH_SPECIFIED_SOURCE ( 'ANY', '', #122, .NOT_KNOWN. ) ;
#255 = CYLINDRICAL_SURFACE ( 'NONE', #72, 1.499999999999996891 ) ;
#256 = DIRECTION ( 'NONE',  ( -3.491481338843133355E-15, 1.224646799147353207E-16, -1.000000000000000000 ) ) ;
#257 = CARTESIAN_POINT ( 'NONE',  ( 2.433562493173664138E-13, 1.499999999999992673, 69.70000000000001705 ) ) ;
#258 = FACE_OUTER_BOUND ( 'NONE', #16, .T. ) ;
#259 = EDGE_LOOP ( 'NONE', ( #21 ) ) ;
#260 = VERTEX_POINT ( 'NONE', #49 ) ;
#261 = AXIS2_PLACEMENT_3D ( 'NONE', #184, #225, #45 ) ;
#262 = ORIENTED_EDGE ( 'NONE', *, *, #106, .T. ) ;
#263 = FACE_OUTER_BOUND ( 'NONE', #157, .T. ) ;
#264 = CARTESIAN_POINT ( 'NONE',  ( 0.0000000000000000000, 0.0000000000000000000, 0.0000000000000000000 ) ) ;
#265 = EDGE_LOOP ( 'NONE', ( #103 ) ) ;
#266 =( NAMED_UNIT ( * ) SI_UNIT ( $, .STERADIAN. ) SOLID_ANGLE_UNIT ( ) );
#267 = AXIS2_PLACEMENT_3D ( 'NONE', #208, #29, #2 ) ;
#268 = PERSON_AND_ORGANIZATION ( #180, #171 ) ;
#269 = ORIENTED_EDGE ( 'NONE', *, *, #229, .T. ) ;
#270 = DATE_TIME_ROLE ( 'classification_date' ) ;
#271 = DIRECTION ( 'NONE',  ( 0.0000000000000000000, 1.000000000000000000, 0.0000000000000000000 ) ) ;
#272 = AXIS2_PLACEMENT_3D ( 'NONE', #65, #71, #91 ) ;
#273 = CARTESIAN_POINT ( 'NONE',  ( 2.433562493173664138E-13, -8.535788190057053710E-15, 69.70000000000001705 ) ) ;
#274 = DATE_AND_TIME ( #42, #101 ) ;
#275 = ADVANCED_FACE ( 'NONE', ( #230 ), #182, .F. ) ;
#276 = DIRECTION ( 'NONE',  ( -3.491481338843133355E-15, 1.224646799147353207E-16, -1.000000000000000000 ) ) ;
#277 = DIRECTION ( 'NONE',  ( -3.491481338843133355E-15, 1.224646799147353207E-16, -1.000000000000000000 ) ) ;
#278 = AXIS2_PLACEMENT_3D ( 'NONE', #61, #187, #89 ) ;
#279 = ADVANCED_BREP_SHAPE_REPRESENTATION ( '321586', ( #119, #25, #48 ), #226 ) ;
#280 = CC_DESIGN_PERSON_AND_ORGANIZATION_ASSIGNMENT ( #36, #217, ( #254 ) ) ;
#281 = FACE_OUTER_BOUND ( 'NONE', #109, .T. ) ;
#282 = DIRECTION ( 'NONE',  ( 4.275831445896958607E-31, 1.000000000000000000, 1.224646799147353207E-16 ) ) ;
#283 = DIRECTION ( 'NONE',  ( 3.491481338843133355E-15, -1.224646799147353207E-16, 1.000000000000000000 ) ) ;
#284 = FACE_BOUND ( 'NONE', #222, .T. ) ;
#285 = AXIS2_PLACEMENT_3D ( 'NONE', #207, #22, #50 ) ;
#286 = CC_DESIGN_PERSON_AND_ORGANIZATION_ASSIGNMENT ( #195, #293, ( #122 ) ) ;
#287 = PLANE ( 'NONE',  #138 ) ;
#288 = VERTEX_POINT ( 'NONE', #113 ) ;
#289 = CARTESIAN_POINT ( 'NONE',  ( 8.728703347107835360E-16, 1.799999999999994937, 0.2500000000000000555 ) ) ;
#290 = EDGE_LOOP ( 'NONE', ( #199 ) ) ;
#291 = PERSON_AND_ORGANIZATION ( #180, #171 ) ;
#292 = CC_DESIGN_PERSON_AND_ORGANIZATION_ASSIGNMENT ( #169, #81, ( #124 ) ) ;
#293 = PERSON_AND_ORGANIZATION_ROLE ( 'design_owner' ) ;
#294 = ADVANCED_FACE ( 'NONE', ( #114 ), #5, .F. ) ;
#295 = AXIS2_PLACEMENT_3D ( 'NONE', #47, #174, #19 ) ;
#296 = PRODUCT_DEFINITION ( 'UNKNOWN', '', #254, #202 ) ;
#297 = FACE_BOUND ( 'NONE', #37, .T. ) ;
#298 = CALENDAR_DATE ( 2021, 2, 12 ) ;
#299 = DIRECTION ( 'NONE',  ( -3.491481338843133355E-15, 1.224646799147353207E-16, -1.000000000000000000 ) ) ;
#300 = CARTESIAN_POINT ( 'NONE',  ( -6.627538741140259653E-31, 2.324627663125870534E-32, -1.898202538678390063E-16 ) ) ;
#301 = CIRCLE ( 'NONE', #194, 1.200000000000001510 ) ;
#302 = DIRECTION ( 'NONE',  ( 4.275831445896958607E-31, 1.000000000000000000, 1.224646799147353207E-16 ) ) ;
#303 = DIRECTION ( 'NONE',  ( 3.491481338843133355E-15, -1.224646799147353207E-16, 1.000000000000000000 ) ) ;
ENDSEC;
END-ISO-10303-21;
